  0
SECTION
  2
HEADER
  9
$ACADVER
  1
AC1014
  9
$ACADMAINTVER
 70
     9
  9
$DWGCODEPAGE
  3
ANSI_932
  9
$INSBASE
 10
0.0
 20
0.0
 30
0.0
  9
$EXTMIN
 10
39.33601884951531
 20
43.53300304491779
 30
0.0
  9
$EXTMAX
 10
703.2986540519727
 20
334.6689685720077
 30
0.0
  9
$LIMMIN
 10
-82.06467619707451
 20
-12.14355456054272
  9
$LIMMAX
 10
843.569466344442
 20
527.8191097463628
  9
$ORTHOMODE
 70
     1
  9
$REGENMODE
 70
     1
  9
$FILLMODE
 70
     1
  9
$QTEXTMODE
 70
     0
  9
$MIRRTEXT
 70
     0
  9
$DRAGMODE
 70
     2
  9
$LTSCALE
 40
2.0
  9
$OSMODE
 70
    37
  9
$ATTMODE
 70
     1
  9
$TEXTSIZE
 40
2.0
  9
$TRACEWID
 40
1.0
  9
$TEXTSTYLE
  7
STANDARD
  9
$CLAYER
  8
0
  9
$CELTYPE
  6
BYLAYER
  9
$CECOLOR
 62
   256
  9
$CELTSCALE
 40
1.0
  9
$DELOBJ
 70
     1
  9
$DISPSILH
 70
     0
  9
$DIMSCALE
 40
2.0
  9
$DIMASZ
 40
1.8
  9
$DIMEXO
 40
0.625
  9
$DIMDLI
 40
3.75
  9
$DIMRND
 40
0.0
  9
$DIMDLE
 40
0.0
  9
$DIMEXE
 40
0.8
  9
$DIMTP
 40
0.0
  9
$DIMTM
 40
0.0
  9
$DIMTXT
 40
1.8
  9
$DIMCEN
 40
2.5
  9
$DIMTSZ
 40
0.0
  9
$DIMTOL
 70
     0
  9
$DIMLIM
 70
     0
  9
$DIMTIH
 70
     0
  9
$DIMTOH
 70
     0
  9
$DIMSE1
 70
     0
  9
$DIMSE2
 70
     0
  9
$DIMTAD
 70
     1
  9
$DIMZIN
 70
     8
  9
$DIMBLK
  1

  9
$DIMASO
 70
     1
  9
$DIMSHO
 70
     1
  9
$DIMPOST
  1

  9
$DIMAPOST
  1

  9
$DIMALT
 70
     0
  9
$DIMALTD
 70
     4
  9
$DIMALTF
 40
0.0394
  9
$DIMLFAC
 40
1.0
  9
$DIMTOFL
 70
     1
  9
$DIMTVP
 40
0.0
  9
$DIMTIX
 70
     0
  9
$DIMSOXD
 70
     0
  9
$DIMSAH
 70
     0
  9
$DIMBLK1
  1

  9
$DIMBLK2
  1

  9
$DIMSTYLE
  2
STANDARD
  9
$DIMCLRD
 70
     0
  9
$DIMCLRE
 70
     0
  9
$DIMCLRT
 70
     0
  9
$DIMTFAC
 40
1.0
  9
$DIMGAP
 40
0.75
  9
$DIMJUST
 70
     0
  9
$DIMSD1
 70
     0
  9
$DIMSD2
 70
     0
  9
$DIMTOLJ
 70
     1
  9
$DIMTZIN
 70
     0
  9
$DIMALTZ
 70
     0
  9
$DIMALTTZ
 70
     0
  9
$DIMFIT
 70
     3
  9
$DIMUPT
 70
     0
  9
$DIMUNIT
 70
     8
  9
$DIMDEC
 70
     2
  9
$DIMTDEC
 70
     2
  9
$DIMALTU
 70
     8
  9
$DIMALTTD
 70
     4
  9
$DIMTXSTY
  7
STANDARD
  9
$DIMAUNIT
 70
     0
  9
$LUNITS
 70
     2
  9
$LUPREC
 70
     3
  9
$SKETCHINC
 40
1.0
  9
$FILLETRAD
 40
10.0
  9
$AUNITS
 70
     0
  9
$AUPREC
 70
     2
  9
$MENU
  1
.
  9
$ELEVATION
 40
0.0
  9
$PELEVATION
 40
0.0
  9
$THICKNESS
 40
0.0
  9
$LIMCHECK
 70
     0
  9
$BLIPMODE
 70
     0
  9
$CHAMFERA
 40
0.0
  9
$CHAMFERB
 40
0.0
  9
$CHAMFERC
 40
20.0
  9
$CHAMFERD
 40
0.0
  9
$SKPOLY
 70
     0
  9
$TDCREATE
 40
2453753.549137002
  9
$TDUPDATE
 40
2454399.558228981
  9
$TDINDWG
 40
0.0646090278
  9
$TDUSRTIMER
 40
0.0646086690
  9
$USRTIMER
 70
     1
  9
$ANGBASE
 50
0.0
  9
$ANGDIR
 70
     0
  9
$PDMODE
 70
     0
  9
$PDSIZE
 40
-10.0
  9
$PLINEWID
 40
0.0
  9
$COORDS
 70
     1
  9
$SPLFRAME
 70
     0
  9
$SPLINETYPE
 70
     6
  9
$SPLINESEGS
 70
     8
  9
$ATTDIA
 70
     0
  9
$ATTREQ
 70
     1
  9
$HANDLING
 70
-16383
  9
$HANDSEED
  5
1600
  9
$SURFTAB1
 70
     6
  9
$SURFTAB2
 70
     6
  9
$SURFTYPE
 70
     6
  9
$SURFU
 70
     6
  9
$SURFV
 70
     6
  9
$UCSNAME
  2

  9
$UCSORG
 10
0.0
 20
0.0
 30
0.0
  9
$UCSXDIR
 10
1.0
 20
0.0
 30
0.0
  9
$UCSYDIR
 10
0.0
 20
1.0
 30
0.0
  9
$PUCSNAME
  2

  9
$PUCSORG
 10
0.0
 20
0.0
 30
0.0
  9
$PUCSXDIR
 10
1.0
 20
0.0
 30
0.0
  9
$PUCSYDIR
 10
0.0
 20
1.0
 30
0.0
  9
$USERI1
 70
     0
  9
$USERI2
 70
     0
  9
$USERI3
 70
     0
  9
$USERI4
 70
     0
  9
$USERI5
 70
     0
  9
$USERR1
 40
0.0
  9
$USERR2
 40
0.0
  9
$USERR3
 40
0.0
  9
$USERR4
 40
0.0
  9
$USERR5
 40
0.0
  9
$WORLDVIEW
 70
     1
  9
$SHADEDGE
 70
     3
  9
$SHADEDIF
 70
    70
  9
$TILEMODE
 70
     1
  9
$MAXACTVP
 70
    48
  9
$PINSBASE
 10
0.0
 20
0.0
 30
0.0
  9
$PLIMCHECK
 70
     0
  9
$PEXTMIN
 10
0.0
 20
0.0
 30
0.0
  9
$PEXTMAX
 10
0.0
 20
0.0
 30
0.0
  9
$PLIMMIN
 10
0.0
 20
0.0
  9
$PLIMMAX
 10
12.0
 20
9.0
  9
$UNITMODE
 70
     0
  9
$VISRETAIN
 70
     1
  9
$PLINEGEN
 70
     0
  9
$PSLTSCALE
 70
     1
  9
$TREEDEPTH
 70
  3020
  9
$PICKSTYLE
 70
     1
  9
$CMLSTYLE
  2
STANDARD
  9
$CMLJUST
 70
     0
  9
$CMLSCALE
 40
1.0
  9
$PROXYGRAPHICS
 70
     1
  9
$MEASUREMENT
 70
     0
  0
ENDSEC
  0
SECTION
  2
CLASSES
  0
CLASS
  1
DICTIONARYVAR
  2
AcDbDictionaryVar
  3
AutoCAD 2000
 90
        0
280
     0
281
     0
  0
CLASS
  1
ACDBDICTIONARYWDFLT
  2
AcDbDictionaryWithDefault
  3
AutoCAD 2000
 90
        0
280
     0
281
     0
  0
CLASS
  1
ACDBPLACEHOLDER
  2
AcDbPlaceHolder
  3
AutoCAD 2000
 90
        0
280
     0
281
     0
  0
CLASS
  1
LAYOUT
  2
AcDbLayout
  3
AutoCAD 2000
 90
        0
280
     0
281
     0
  0
CLASS
  1
LONG_TRANSACTION
  2
AcDbLongTransaction
  3
AutoCAD 2000
 90
        0
280
     0
281
     0
  0
CLASS
  1
LWPOLYLINE
  2
AcDbPolyline
  3
AutoCAD 2000
 90
        0
280
     0
281
     1
  0
CLASS
  1
HATCH
  2
AcDbHatch
  3
AutoCAD 2000
 90
        0
280
     0
281
     1
  0
CLASS
  1
XRECORD
  2
AcDbXrecord
  3
AutoCAD 2000
 90
        0
280
     0
281
     0
  0
ENDSEC
  0
SECTION
  2
TABLES
  0
TABLE
  2
VPORT
  5
6E
330
0
100
AcDbSymbolTable
 70
     2
  0
VPORT
  5
15DA
330
6E
100
AcDbSymbolTableRecord
100
AcDbViewportTableRecord
  2
*ACTIVE
 70
     0
 10
0.0
 20
0.0
 11
1.0
 21
1.0
 12
364.6862833621641
 22
177.4440150697712
 13
0.0
 23
0.0
 14
10.0
 24
10.0
 15
12.0
 25
12.0
 16
0.0
 26
0.0
 36
1.0
 17
0.0
 27
0.0
 37
0.0
 40
441.7406686781068
 41
1.540920716112531
 42
50.0
 43
0.0
 44
0.0
 50
0.0
 51
0.0
 71
     0
 72
   100
 73
     1
 74
     3
 75
     0
 76
     0
 77
     0
 78
     0
  0
ENDTAB
  0
TABLE
  2
LTYPE
  5
69
330
0
100
AcDbSymbolTable
 70
     4
  0
LTYPE
  5
6A
330
69
100
AcDbSymbolTableRecord
100
AcDbLinetypeTableRecord
  2
BYBLOCK
 70
     0
  3

 72
    65
 73
     0
 40
0.0
  0
LTYPE
  5
6B
330
69
100
AcDbSymbolTableRecord
100
AcDbLinetypeTableRecord
  2
BYLAYER
 70
     0
  3

 72
    65
 73
     0
 40
0.0
  0
LTYPE
  5
8
330
69
100
AcDbSymbolTableRecord
100
AcDbLinetypeTableRecord
  2
CONTINUOUS
 70
     0
  3
Solid line
 72
    65
 73
     0
 40
0.0
  0
LTYPE
  5
27C
330
69
100
AcDbSymbolTableRecord
100
AcDbLinetypeTableRecord
  2
SEKKEI_A2_
 70
     0
  3
center(A2)  ____ _ ____ _ ____ _ ____ _ ____ _ 
 72
    65
 73
     4
 40
14.28749999999999
 49
9.525
 74
     0
 49
-1.587499999999999
 74
     0
 49
1.587499999999999
 74
     0
 49
-1.587499999999999
 74
     0
  0
LTYPE
  5
2B4
330
69
100
AcDbSymbolTableRecord
100
AcDbLinetypeTableRecord
  2
HIDDEN2
 70
     0
  3
Hidden (.5x) _ _ _ _ _ _ _ _ _ _ _ _ _ _ _ _ _
 72
    65
 73
     2
 40
4.762499999999999
 49
3.174999999999999
 74
     0
 49
-1.587499999999999
 74
     0
  0
LTYPE
  5
48F
330
69
100
AcDbSymbolTableRecord
100
AcDbLinetypeTableRecord
  2
SEKKEI_H
 70
     0
  3
Hidden-S _ _ _ _ _ _ _ _ _ _ _ _ _ _ _ _ _
 72
    65
 73
     2
 40
2.381249999999999
 49
1.587499999999999
 74
     0
 49
-0.79375
 74
     0
  0
ENDTAB
  0
TABLE
  2
LAYER
  5
66
330
0
100
AcDbSymbolTable
 70
     9
  0
LAYER
  5
5E
330
66
100
AcDbSymbolTableRecord
100
AcDbLayerTableRecord
  2
0
 70
     0
 62
     7
  6
CONTINUOUS
  0
LAYER
  5
3E
330
66
100
AcDbSymbolTableRecord
100
AcDbLayerTableRecord
  2
CENTER
 70
     0
 62
     3
  6
SEKKEI_A2_
  0
LAYER
  5
2B5
330
66
100
AcDbSymbolTableRecord
100
AcDbLayerTableRecord
  2
HIDS
 70
     0
 62
     1
  6
HIDDEN2
  0
LAYER
  5
2BA
330
66
100
AcDbSymbolTableRecord
100
AcDbLayerTableRecord
  2
HOJO
 70
     0
 62
     4
  6
CONTINUOUS
  0
LAYER
  5
3FA
330
66
100
AcDbSymbolTableRecord
100
AcDbLayerTableRecord
  2
TITLE
 70
     0
 62
     4
  6
CONTINUOUS
  0
ENDTAB
  0
TABLE
  2
STYLE
  5
67
330
0
100
AcDbSymbolTable
 70
     1
  0
STYLE
  5
16
330
67
100
AcDbSymbolTableRecord
100
AcDbTextStyleTableRecord
  2
STANDARD
 70
     0
 40
0.0
 41
1.0
 50
0.0
 71
     0
 42
2.0
  3
simplex.shx
  4
extfont.shx
  0
ENDTAB
  0
TABLE
  2
VIEW
  5
6C
330
0
100
AcDbSymbolTable
 70
     0
  0
ENDTAB
  0
TABLE
  2
UCS
  5
6D
330
0
100
AcDbSymbolTable
 70
     0
  0
ENDTAB
  0
TABLE
  2
APPID
  5
70
330
0
100
AcDbSymbolTable
 70
     1
  0
APPID
  5
71
330
70
100
AcDbSymbolTableRecord
100
AcDbRegAppTableRecord
  2
ACAD
 70
     0
  0
ENDTAB
  0
TABLE
  2
DIMSTYLE
  5
72
330
0
100
AcDbSymbolTable
 70
     2
  0
DIMSTYLE
105
73
330
72
100
AcDbSymbolTableRecord
100
AcDbDimStyleTableRecord
  2
STANDARD
 70
     0
  3

  4

  5

  6

  7

 40
2.0
 41
1.8
 42
0.625
 43
3.75
 44
0.8
 45
0.0
 46
0.0
 47
0.0
 48
0.0
140
1.8
141
2.5
142
0.0
143
0.0394
144
1.0
145
0.0
146
1.0
147
0.75
 71
     0
 72
     0
 73
     0
 74
     0
 75
     0
 76
     0
 77
     1
 78
     8
170
     0
171
     4
172
     1
173
     0
174
     0
175
     0
176
     0
177
     0
178
     0
270
     8
271
     2
272
     2
273
     8
274
     4
340
16
275
     0
280
     0
281
     0
282
     0
283
     1
284
     0
285
     0
286
     0
287
     3
288
     0
  0
ENDTAB
  0
TABLE
  2
BLOCK_RECORD
  5
1
330
0
100
AcDbSymbolTable
 70
    80
  0
BLOCK_RECORD
  5
2
102
{ACAD_XDICTIONARY
360
15FC
102
}
330
1
100
AcDbSymbolTableRecord
100
AcDbBlockTableRecord
  2
*MODEL_SPACE
  0
BLOCK_RECORD
  5
15D5
102
{ACAD_XDICTIONARY
360
15FE
102
}
330
1
100
AcDbSymbolTableRecord
100
AcDbBlockTableRecord
  2
*PAPER_SPACE
  0
ENDTAB
  0
ENDSEC
  0
SECTION
  2
BLOCKS
  0
BLOCK
  5
5D
330
2
100
AcDbEntity
  8
0
100
AcDbBlockBegin
  2
*MODEL_SPACE
 70
     0
 10
0.0
 20
0.0
 30
0.0
  3
*MODEL_SPACE
  1

  0
ENDBLK
  5
5F
330
2
100
AcDbEntity
  8
0
100
AcDbBlockEnd
  0
BLOCK
  5
15D7
330
15D5
100
AcDbEntity
 67
     1
  8
0
100
AcDbBlockBegin
  2
*PAPER_SPACE
 70
     0
 10
0.0
 20
0.0
 30
0.0
  3
*PAPER_SPACE
  1

  0
ENDBLK
  5
15D8
330
15D5
100
AcDbEntity
 67
     1
  8
0
100
AcDbBlockEnd
  0
ENDSEC
  0
SECTION
  2
ENTITIES
  0
LINE
  5
60B
330
2
100
AcDbEntity
  8
CENTER
100
AcDbLine
 10
39.33603684951549
 20
263.6689685720077
 30
0.0
 11
269.3360208495153
 21
263.6689685720077
 31
0.0
  0
LINE
  5
60C
330
2
100
AcDbEntity
  8
0
100
AcDbLine
 10
323.197083722668
 20
58.53300604491778
 30
0.0
 11
312.1970747226681
 21
58.53300604491778
 31
0.0
  0
LINE
  5
60D
330
2
100
AcDbEntity
  8
0
100
AcDbLine
 10
310.1970737226681
 20
50.53300604491778
 30
0.0
 11
404.197070722668
 21
50.53300604491778
 31
0.0
  0
LINE
  5
60F
330
2
100
AcDbEntity
  8
0
100
AcDbLine
 10
310.1970737226681
 20
56.53300604491779
 30
0.0
 11
310.1970737226681
 21
50.53300604491778
 31
0.0
  0
ARC
  5
610
330
2
100
AcDbEntity
  8
0
100
AcDbCircle
 10
312.1970837226681
 20
56.53301604491779
 30
0.0
 40
2.0
100
AcDbArc
 50
90.0
 51
180.0
  0
LINE
  5
611
330
2
100
AcDbEntity
  8
0
100
AcDbLine
 10
317.197074722668
 20
116.2330030449177
 30
0.0
 11
317.197074722668
 21
71.30407604491779
 31
0.0
  0
LINE
  5
612
330
2
100
AcDbEntity
  8
0
100
AcDbLine
 10
397.197070722668
 20
70.23300704491777
 30
0.0
 11
397.197070722668
 21
108.0330060449177
 31
0.0
  0
ARC
  5
613
330
2
100
AcDbEntity
  8
0
100
AcDbCircle
 10
357.1970747226681
 20
93.23300704491776
 30
0.0
 40
38.0
100
AcDbArc
 50
324.7998999999996
 51
21.29424099999966
  0
LINE
  5
614
330
2
100
AcDbEntity
  8
0
100
AcDbLine
 10
322.1970747226681
 20
96.53300604491779
 30
0.0
 11
322.1970747226681
 21
134.5330060449177
 31
0.0
  0
ARC
  5
615
330
2
100
AcDbEntity
  8
0
100
AcDbCircle
 10
357.1970747226681
 20
93.23300704491776
 30
0.0
 40
38.0
100
AcDbArc
 50
157.0805049999997
 51
215.3343960000001
  0
LINE
  5
616
330
2
100
AcDbEntity
  8
0
100
AcDbLine
 10
392.197070722668
 20
96.53300604491779
 30
0.0
 11
392.197070722668
 21
134.5330060449177
 31
0.0
  0
LINE
  5
617
330
2
100
AcDbEntity
  8
0
100
AcDbLine
 10
388.197070722668
 20
61.53300604491779
 30
0.0
 11
388.197070722668
 21
145.6265190449177
 31
0.0
  0
LINE
  5
618
330
2
100
AcDbEntity
  8
0
100
AcDbLine
 10
326.197083722668
 20
61.53300604491779
 30
0.0
 11
326.1970747226681
 21
145.6264050449177
 31
0.0
  0
LINE
  5
619
330
2
100
AcDbEntity
  8
CENTER
100
AcDbLine
 10
357.1970747226681
 20
43.53300604491778
 30
0.0
 11
357.1970747226681
 21
155.1330200449177
 31
0.0
  0
LINE
  5
61A
330
2
100
AcDbEntity
  8
CENTER
100
AcDbLine
 10
310.1970747226681
 20
93.23300704491776
 30
0.0
 11
404.197070722668
 21
93.23300704491776
 31
0.0
  0
LINE
  5
61B
330
2
100
AcDbEntity
  8
HIDS
  6
SEKKEI_H
100
AcDbLine
 10
313.9470747226681
 20
58.53300604491778
 30
0.0
 11
313.9470747226681
 21
50.53300604491778
 31
0.0
  0
LINE
  5
61C
330
2
100
AcDbEntity
  8
HIDS
  6
SEKKEI_H
100
AcDbLine
 10
320.4470747226681
 20
58.53300604491778
 30
0.0
 11
320.4470747226681
 21
50.53300604491778
 31
0.0
  0
LINE
  5
61D
330
2
100
AcDbEntity
  8
CENTER
100
AcDbLine
 10
317.197074722668
 20
62.03300604491778
 30
0.0
 11
317.197074722668
 21
47.03300604491778
 31
0.0
  0
LINE
  5
61E
330
2
100
AcDbEntity
  8
0
100
AcDbLine
 10
318.661544722668
 20
67.7685460449178
 30
0.0
 11
325.990653722668
 21
60.43942604491778
 31
0.0
  0
ARC
  5
61F
330
2
100
AcDbEntity
  8
0
100
AcDbCircle
 10
323.197074722668
 20
61.53299604491778
 30
0.0
 40
3.0
100
AcDbArc
 50
270.0
 51
0.0
  0
ARC
  5
620
330
2
100
AcDbEntity
  8
0
100
AcDbCircle
 10
322.1970557226681
 20
71.30410504491777
 30
0.0
 40
5.0
100
AcDbArc
 50
180.0
 51
225.0003970000001
  0
ARC
  5
621
330
2
100
AcDbEntity
  8
0
100
AcDbCircle
 10
323.197074722668
 20
96.53300204491779
 30
0.0
 40
1.0
100
AcDbArc
 50
180.0
 51
270.0
  0
LINE
  5
622
330
2
100
AcDbEntity
  8
0
100
AcDbLine
 10
323.197074722668
 20
95.53300604491779
 30
0.0
 11
324.1970787226681
 21
95.53300604491779
 31
0.0
  0
LINE
  5
623
330
2
100
AcDbEntity
  8
HIDS
  6
SEKKEI_H
100
AcDbLine
 10
393.947070722668
 20
58.53300604491778
 30
0.0
 11
393.947070722668
 21
50.53300604491778
 31
0.0
  0
LINE
  5
624
330
2
100
AcDbEntity
  8
HIDS
  6
SEKKEI_H
100
AcDbLine
 10
400.447070722668
 20
58.53300604491778
 30
0.0
 11
400.447070722668
 21
50.53300604491778
 31
0.0
  0
LINE
  5
625
330
2
100
AcDbEntity
  8
CENTER
100
AcDbLine
 10
397.1970707226681
 20
62.03300604491778
 30
0.0
 11
397.1970707226681
 21
47.03300604491778
 31
0.0
  0
LINE
  5
626
330
2
100
AcDbEntity
  8
0
100
AcDbLine
 10
404.197070722668
 20
56.53300604491779
 30
0.0
 11
404.197070722668
 21
50.53300604491778
 31
0.0
  0
LINE
  5
627
330
2
100
AcDbEntity
  8
0
100
AcDbLine
 10
388.197070722668
 20
64.83603604491779
 30
0.0
 11
390.594035722668
 21
67.23300704491776
 31
0.0
  0
LINE
  5
628
330
2
100
AcDbEntity
  8
0
100
AcDbLine
 10
391.197070722668
 20
58.53300604491778
 30
0.0
 11
402.197070722668
 21
58.53300604491778
 31
0.0
  0
ARC
  5
629
330
2
100
AcDbEntity
  8
0
100
AcDbCircle
 10
391.197070722668
 20
61.53300604491779
 30
0.0
 40
3.0
100
AcDbArc
 50
180.0
 51
270.0
  0
ARC
  5
62A
330
2
100
AcDbEntity
  8
0
100
AcDbCircle
 10
402.1970937226681
 20
56.53299604491778
 30
0.0
 40
2.0
100
AcDbArc
 50
0.0
 51
90.0
  0
ARC
  5
62B
330
2
100
AcDbEntity
  8
0
100
AcDbCircle
 10
394.197070722668
 20
70.2329950449178
 30
0.0
 40
3.0
100
AcDbArc
 50
270.0
 51
0.0
  0
LINE
  5
62C
330
2
100
AcDbEntity
  8
0
100
AcDbLine
 10
394.197070722668
 20
67.23300704491776
 30
0.0
 11
390.594035722668
 21
67.23300704491776
 31
0.0
  0
ARC
  5
62D
330
2
100
AcDbEntity
  8
0
100
AcDbCircle
 10
391.197070722668
 20
96.53300204491779
 30
0.0
 40
1.0
100
AcDbArc
 50
270.0
 51
0.0
  0
LINE
  5
62E
330
2
100
AcDbEntity
  8
0
100
AcDbLine
 10
391.197070722668
 20
95.53300604491779
 30
0.0
 11
390.197070722668
 21
95.53300604491779
 31
0.0
  0
LINE
  5
62F
330
2
100
AcDbEntity
  8
0
100
AcDbLine
 10
327.5228837226681
 20
128.8330170449177
 30
0.0
 11
386.817515722668
 21
128.8330170449177
 31
0.0
  0
ARC
  5
630
330
2
100
AcDbEntity
  8
0
100
AcDbCircle
 10
386.197085722668
 20
145.6265190449177
 30
0.0
 40
2.0
100
AcDbArc
 50
0.0
 51
89.00013700000007
  0
LINE
  5
631
330
2
100
AcDbEntity
  8
CENTER
100
AcDbLine
 10
315.197074722668
 20
115.5330060449177
 30
0.0
 11
428.197070722668
 21
115.5330060449177
 31
0.0
  0
LINE
  5
632
330
2
100
AcDbEntity
  8
0
100
AcDbLine
 10
328.162162722668
 20
147.6261080449177
 30
0.0
 11
357.1970747226681
 21
148.1330200449177
 31
0.0
  0
LINE
  5
633
330
2
100
AcDbEntity
  8
0
100
AcDbLine
 10
320.1970747226681
 20
119.2330030449177
 30
0.0
 11
322.1970747226681
 21
119.2330030449177
 31
0.0
  0
ARC
  5
634
330
2
100
AcDbEntity
  8
0
100
AcDbCircle
 10
320.1970937226681
 20
116.2330260449177
 30
0.0
 40
3.0
100
AcDbArc
 50
90.0
 51
180.0
  0
ARC
  5
635
330
2
100
AcDbEntity
  8
0
100
AcDbCircle
 10
323.197074722668
 20
134.5330060449177
 30
0.0
 40
1.0
100
AcDbArc
 50
90.0
 51
180.0
  0
LINE
  5
636
330
2
100
AcDbEntity
  8
0
100
AcDbLine
 10
323.197074722668
 20
135.5330060449177
 30
0.0
 11
324.1970787226681
 21
135.5330060449177
 31
0.0
  0
ARC
  5
637
330
2
100
AcDbEntity
  8
0
100
AcDbCircle
 10
328.197081722668
 20
145.6264130449177
 30
0.0
 40
2.0
100
AcDbArc
 50
91.00064099999967
 51
180.0
  0
LINE
  5
638
330
2
100
AcDbEntity
  8
0
100
AcDbLine
 10
386.2319747226681
 20
147.6262140449177
 30
0.0
 11
357.1970747226681
 21
148.1330200449177
 31
0.0
  0
LINE
  5
639
330
2
100
AcDbEntity
  8
0
100
AcDbLine
 10
421.197070722668
 20
113.0330060449177
 30
0.0
 11
399.6970937226681
 21
113.0330060449177
 31
0.0
  0
LINE
  5
63A
330
2
100
AcDbEntity
  8
0
100
AcDbLine
 10
421.197070722668
 20
118.0330060449177
 30
0.0
 11
399.697055722668
 21
118.0330060449177
 31
0.0
  0
LINE
  5
63B
330
2
100
AcDbEntity
  8
0
100
AcDbLine
 10
421.197070722668
 20
108.0330060449177
 30
0.0
 11
394.197070722668
 21
108.0330060449177
 31
0.0
  0
LINE
  5
63C
330
2
100
AcDbEntity
  8
0
100
AcDbLine
 10
421.197070722668
 20
123.0330060449177
 30
0.0
 11
394.197070722668
 21
123.0330060449177
 31
0.0
  0
ARC
  5
63D
330
2
100
AcDbEntity
  8
0
100
AcDbCircle
 10
399.697070722668
 20
115.5330060449177
 30
0.0
 40
2.5
100
AcDbArc
 50
180.0
 51
270.0
  0
LINE
  5
63E
330
2
100
AcDbEntity
  8
0
100
AcDbLine
 10
394.197070722668
 20
124.0330060449177
 30
0.0
 11
394.197070722668
 21
107.0330060449177
 31
0.0
  0
LINE
  5
63F
330
2
100
AcDbEntity
  8
0
100
AcDbLine
 10
392.197070722668
 20
107.0330060449177
 30
0.0
 11
394.197070722668
 21
107.0330060449177
 31
0.0
  0
LINE
  5
640
330
2
100
AcDbEntity
  8
0
100
AcDbLine
 10
392.197070722668
 20
124.0330060449177
 30
0.0
 11
394.197070722668
 21
124.0330060449177
 31
0.0
  0
ARC
  5
641
330
2
100
AcDbEntity
  8
0
100
AcDbCircle
 10
399.697055722668
 20
115.5329980449178
 30
0.0
 40
2.5
100
AcDbArc
 50
90.0
 51
180.0
  0
LINE
  5
642
330
2
100
AcDbEntity
  8
0
100
AcDbLine
 10
421.197070722668
 20
123.0330060449177
 30
0.0
 11
421.197070722668
 21
108.0330060449177
 31
0.0
  0
LINE
  5
643
330
2
100
AcDbEntity
  8
0
100
AcDbLine
 10
391.197070722668
 20
135.5330060449177
 30
0.0
 11
390.197070722668
 21
135.5330060449177
 31
0.0
  0
ARC
  5
644
330
2
100
AcDbEntity
  8
0
100
AcDbCircle
 10
391.197070722668
 20
134.5330060449177
 30
0.0
 40
1.0
100
AcDbArc
 50
0.0
 51
90.0
  0
TEXT
  5
645
330
2
100
AcDbEntity
  8
TITLE
100
AcDbText
 10
328.5144276829481
 20
281.0659568847054
 30
0.0
 40
5.0
  1
HLMN-15L-10~240-T15
 41
0.8
100
AcDbText
  0
LINE
  5
646
330
2
100
AcDbEntity
  8
0
100
AcDbLine
 10
566.0098670519728
 20
63.23300604491777
 30
0.0
 11
637.3121740519727
 21
63.23300604491777
 31
0.0
  0
LINE
  5
647
330
2
100
AcDbEntity
  8
0
100
AcDbLine
 10
565.6827790519728
 20
123.2330030449177
 30
0.0
 11
637.7986540519728
 21
123.2330030449177
 31
0.0
  0
LINE
  5
648
330
2
100
AcDbEntity
  8
0
100
AcDbLine
 10
637.7986540519728
 20
55.23300604491777
 30
0.0
 11
565.2986540519727
 21
55.23300604491777
 31
0.0
  0
LINE
  5
649
330
2
100
AcDbEntity
  8
0
100
AcDbLine
 10
637.7986540519728
 20
131.2330030449177
 30
0.0
 11
561.8789770519729
 21
131.2330030449177
 31
0.0
  0
LINE
  5
64A
330
2
100
AcDbEntity
  8
CENTER
100
AcDbLine
 10
703.2986540519727
 20
93.2330070449178
 30
0.0
 11
549.6159760519729
 21
93.23300704491776
 31
0.0
  0
CIRCLE
  5
64B
330
2
100
AcDbEntity
  8
0
100
AcDbCircle
 10
522.7986700519728
 20
115.5330060449177
 30
0.0
 40
20.0
  0
LINE
  5
64C
330
2
100
AcDbEntity
  8
CENTER
100
AcDbLine
 10
522.7986700519728
 20
155.1330040449177
 30
0.0
 11
522.7986700519728
 21
50.53300604491778
 31
0.0
  0
LINE
  5
64D
330
2
100
AcDbEntity
  8
0
100
AcDbLine
 10
565.2986540519727
 20
126.2336060449178
 30
0.0
 11
565.2986540519727
 21
50.53300604491778
 31
0.0
  0
LINE
  5
64E
330
2
100
AcDbEntity
  8
0
100
AcDbLine
 10
480.2986700519729
 20
126.2335830449177
 30
0.0
 11
480.2986700519729
 21
50.53300604491778
 31
0.0
  0
LINE
  5
64F
330
2
100
AcDbEntity
  8
0
100
AcDbLine
 10
563.2986700519729
 20
58.53300604491778
 30
0.0
 11
482.2986700519728
 21
58.53300604491778
 31
0.0
  0
LINE
  5
650
330
2
100
AcDbEntity
  8
0
100
AcDbLine
 10
565.2986540519727
 20
50.53300604491778
 30
0.0
 11
480.2986700519729
 21
50.53300604491778
 31
0.0
  0
LINE
  5
651
330
2
100
AcDbEntity
  8
HIDS
  6
SEKKEI_H
100
AcDbLine
 10
492.0486700519728
 20
58.53300604491778
 30
0.0
 11
492.0486700519728
 21
50.53300604491778
 31
0.0
  0
LINE
  5
652
330
2
100
AcDbEntity
  8
HIDS
  6
SEKKEI_H
100
AcDbLine
 10
485.5486700519728
 20
58.53300604491778
 30
0.0
 11
485.5486700519728
 21
50.53300604491778
 31
0.0
  0
LINE
  5
653
330
2
100
AcDbEntity
  8
CENTER
100
AcDbLine
 10
488.7986700519729
 20
62.03300604491778
 30
0.0
 11
488.7986700519729
 21
47.03300604491778
 31
0.0
  0
ARC
  5
654
330
2
100
AcDbEntity
  8
0
100
AcDbCircle
 10
482.2986700519728
 20
56.53299604491778
 30
0.0
 40
2.0
100
AcDbArc
 50
90.0
 51
180.0
  0
LINE
  5
655
330
2
100
AcDbEntity
  8
0
100
AcDbLine
 10
515.5022680519728
 20
84.04032604491778
 30
0.0
 11
515.5022680519728
 21
82.6457880449178
 31
0.0
  0
LINE
  5
656
330
2
100
AcDbEntity
  8
0
100
AcDbLine
 10
515.5022680519728
 20
83.04423604491779
 30
0.0
 11
515.5022680519728
 21
83.84110804491781
 31
0.0
  0
LINE
  5
657
330
2
100
AcDbEntity
  8
0
100
AcDbLine
 10
511.1194700519728
 20
86.93298504491778
 30
0.0
 11
511.1194700519728
 21
81.42391504491781
 31
0.0
  0
LINE
  5
658
330
2
100
AcDbEntity
  8
0
100
AcDbLine
 10
510.0486700519728
 20
87.61350404491778
 30
0.0
 11
510.0486700519728
 21
80.77385604491778
 31
0.0
  0
LINE
  5
659
330
2
100
AcDbEntity
  8
0
100
AcDbLine
 10
516.4236700519729
 20
85.0862250449178
 30
0.0
 11
516.4236700519729
 21
79.53300604491778
 31
0.0
  0
LINE
  5
65A
330
2
100
AcDbEntity
  8
0
100
AcDbLine
 10
511.2784670519728
 20
79.53300604491778
 30
0.0
 11
514.5937750519729
 21
79.53300604491778
 31
0.0
  0
LINE
  5
65B
330
2
100
AcDbEntity
  8
0
100
AcDbLine
 10
513.5100650519728
 20
80.65360604491777
 30
0.0
 11
511.8507630519729
 21
80.65360604491777
 31
0.0
  0
LINE
  5
65C
330
2
100
AcDbEntity
  8
0
100
AcDbLine
 10
510.0486700519728
 20
80.77385604491778
 30
0.0
 11
511.2784670519728
 21
79.53300604491778
 31
0.0
  0
LINE
  5
65D
330
2
100
AcDbEntity
  8
0
100
AcDbLine
 10
511.1194700519728
 20
81.42391504491781
 30
0.0
 11
511.8507630519729
 21
80.65360604491777
 31
0.0
  0
LINE
  5
65E
330
2
100
AcDbEntity
  8
0
100
AcDbLine
 10
515.5022680519728
 20
80.29526604491778
 30
0.0
 11
514.5937750519729
 21
79.53300604491778
 31
0.0
  0
LINE
  5
65F
330
2
100
AcDbEntity
  8
0
100
AcDbLine
 10
515.5022680519728
 20
79.53300604491778
 30
0.0
 11
516.4236700519729
 21
79.53300604491778
 31
0.0
  0
LINE
  5
660
330
2
100
AcDbEntity
  8
0
100
AcDbLine
 10
515.5022680519728
 20
80.29526604491778
 30
0.0
 11
515.5022680519728
 21
79.53300604491778
 31
0.0
  0
ARC
  5
661
330
2
100
AcDbEntity
  8
0
100
AcDbCircle
 10
513.5100650519728
 20
82.6457880449178
 30
0.0
 40
1.992186999999999
100
AcDbArc
 50
270.0002139999998
 51
0.0001089999998967
  0
LINE
  5
662
330
2
100
AcDbEntity
  8
0
100
AcDbLine
 10
511.2060640519728
 20
89.09550604491778
 30
0.0
 11
515.4926700519728
 21
89.09550604491778
 31
0.0
  0
LINE
  5
663
330
2
100
AcDbEntity
  8
0
100
AcDbLine
 10
514.9111730519727
 20
87.82548604491779
 30
0.0
 11
511.8392730519729
 21
87.82548604491779
 31
0.0
  0
LINE
  5
664
330
2
100
AcDbEntity
  8
0
100
AcDbLine
 10
511.2060640519728
 20
89.09550604491778
 30
0.0
 11
510.0486700519728
 21
87.61350404491778
 31
0.0
  0
LINE
  5
665
330
2
100
AcDbEntity
  8
0
100
AcDbLine
 10
511.8392730519729
 20
87.82548604491779
 30
0.0
 11
511.1194700519728
 21
86.93298504491778
 31
0.0
  0
LINE
  5
666
330
2
100
AcDbEntity
  8
0
100
AcDbLine
 10
513.8338720519729
 20
85.0862250449178
 30
0.0
 11
516.4236700519729
 21
85.0862250449178
 31
0.0
  0
LINE
  5
667
330
2
100
AcDbEntity
  8
0
100
AcDbLine
 10
515.5022680519728
 20
87.25403704491776
 30
0.0
 11
515.5022680519728
 21
87.10331804491778
 31
0.0
  0
LINE
  5
668
330
2
100
AcDbEntity
  8
0
100
AcDbLine
 10
513.8338720519729
 20
85.0862250449178
 30
0.0
 11
513.8338720519729
 21
84.04032604491778
 31
0.0
  0
LINE
  5
669
330
2
100
AcDbEntity
  8
0
100
AcDbLine
 10
516.4236700519729
 20
88.06236404491778
 30
0.0
 11
516.4236700519729
 21
87.10331804491778
 31
0.0
  0
LINE
  5
66A
330
2
100
AcDbEntity
  8
0
100
AcDbLine
 10
515.5022680519728
 20
84.04032604491778
 30
0.0
 11
513.8338720519729
 21
84.04032604491778
 31
0.0
  0
LINE
  5
66B
330
2
100
AcDbEntity
  8
0
100
AcDbLine
 10
515.5022680519728
 20
87.10331804491778
 30
0.0
 11
516.4236700519729
 21
87.10331804491778
 31
0.0
  0
LINE
  5
66C
330
2
100
AcDbEntity
  8
0
100
AcDbLine
 10
515.4926700519728
 20
89.09550604491778
 30
0.0
 11
516.4236700519729
 21
88.06236404491778
 31
0.0
  0
LINE
  5
66D
330
2
100
AcDbEntity
  8
0
100
AcDbLine
 10
515.5022680519728
 20
87.25403704491776
 30
0.0
 11
514.8990720519728
 21
87.82548604491779
 31
0.0
  0
LINE
  5
66E
330
2
100
AcDbEntity
  8
0
100
AcDbLine
 10
523.3714690519727
 20
87.92509604491778
 30
0.0
 11
523.3714690519727
 21
80.57889704491776
 31
0.0
  0
LINE
  5
66F
330
2
100
AcDbEntity
  8
0
100
AcDbLine
 10
522.1760650519728
 20
87.92509604491778
 30
0.0
 11
522.1760650519728
 21
80.57889704491776
 31
0.0
  0
LINE
  5
670
330
2
100
AcDbEntity
  8
0
100
AcDbLine
 10
521.7029660519728
 20
79.53300604491778
 30
0.0
 11
523.7698760519728
 21
79.53300604491778
 31
0.0
  0
LINE
  5
671
330
2
100
AcDbEntity
  8
0
100
AcDbLine
 10
521.7029660519728
 20
80.57889704491776
 30
0.0
 11
522.1760650519728
 21
80.57889704491776
 31
0.0
  0
LINE
  5
672
330
2
100
AcDbEntity
  8
0
100
AcDbLine
 10
521.7029660519728
 20
80.57889704491776
 30
0.0
 11
521.7029660519728
 21
79.53300604491778
 31
0.0
  0
LINE
  5
673
330
2
100
AcDbEntity
  8
0
100
AcDbLine
 10
523.7698760519728
 20
80.57889704491776
 30
0.0
 11
523.7698760519728
 21
79.53300604491778
 31
0.0
  0
LINE
  5
674
330
2
100
AcDbEntity
  8
0
100
AcDbLine
 10
523.3714690519727
 20
80.57889704491776
 30
0.0
 11
523.7698760519728
 21
80.57889704491776
 31
0.0
  0
LINE
  5
675
330
2
100
AcDbEntity
  8
0
100
AcDbLine
 10
519.6111700519728
 20
89.09550604491778
 30
0.0
 11
525.9861700519728
 21
89.09550604491778
 31
0.0
  0
LINE
  5
676
330
2
100
AcDbEntity
  8
0
100
AcDbLine
 10
522.1760650519728
 20
87.92509604491778
 30
0.0
 11
520.6612640519729
 21
87.92509604491778
 31
0.0
  0
LINE
  5
677
330
2
100
AcDbEntity
  8
0
100
AcDbLine
 10
520.6612640519729
 20
87.92509604491778
 30
0.0
 11
520.3187650519728
 21
87.10331804491778
 31
0.0
  0
LINE
  5
678
330
2
100
AcDbEntity
  8
0
100
AcDbLine
 10
519.6111700519728
 20
87.10331804491778
 30
0.0
 11
520.3187650519728
 21
87.10331804491778
 31
0.0
  0
LINE
  5
679
330
2
100
AcDbEntity
  8
0
100
AcDbLine
 10
519.6111700519728
 20
87.10331804491778
 30
0.0
 11
519.6111700519728
 21
89.09550604491778
 31
0.0
  0
LINE
  5
67A
330
2
100
AcDbEntity
  8
0
100
AcDbLine
 10
523.3714690519727
 20
87.92509604491778
 30
0.0
 11
525.0324650519728
 21
87.92509604491778
 31
0.0
  0
LINE
  5
67B
330
2
100
AcDbEntity
  8
0
100
AcDbLine
 10
525.0324650519728
 20
87.92509604491778
 30
0.0
 11
525.3211760519727
 21
87.10331804491778
 31
0.0
  0
LINE
  5
67C
330
2
100
AcDbEntity
  8
0
100
AcDbLine
 10
525.3211760519727
 20
87.10331804491778
 30
0.0
 11
525.9861700519728
 21
87.10331804491778
 31
0.0
  0
LINE
  5
67D
330
2
100
AcDbEntity
  8
0
100
AcDbLine
 10
525.9861700519728
 20
87.10331804491778
 30
0.0
 11
525.9861700519728
 21
89.09550604491778
 31
0.0
  0
LINE
  5
67E
330
2
100
AcDbEntity
  8
0
100
AcDbLine
 10
532.7829680519728
 20
84.00297304491777
 30
0.0
 11
534.2780700519727
 21
80.52909604491778
 31
0.0
  0
LINE
  5
67F
330
2
100
AcDbEntity
  8
0
100
AcDbLine
 10
533.7004640519729
 20
84.08962004491778
 30
0.0
 11
535.2803740519727
 21
80.52909604491778
 31
0.0
  0
LINE
  5
680
330
2
100
AcDbEntity
  8
0
100
AcDbLine
 10
530.7424710519728
 20
84.00297304491777
 30
0.0
 11
530.7424710519728
 21
80.52909604491778
 31
0.0
  0
LINE
  5
681
330
2
100
AcDbEntity
  8
0
100
AcDbLine
 10
529.6467680519729
 20
87.92509604491778
 30
0.0
 11
529.6467680519729
 21
80.52909604491778
 31
0.0
  0
LINE
  5
682
330
2
100
AcDbEntity
  8
0
100
AcDbLine
 10
529.1736700519728
 20
80.52909604491778
 30
0.0
 11
529.1736700519728
 21
79.53300604491778
 31
0.0
  0
LINE
  5
683
330
2
100
AcDbEntity
  8
0
100
AcDbLine
 10
531.1782630519728
 20
80.52909604491778
 30
0.0
 11
531.1782630519728
 21
79.53300604491778
 31
0.0
  0
LINE
  5
684
330
2
100
AcDbEntity
  8
0
100
AcDbLine
 10
531.1782630519728
 20
79.53300604491778
 30
0.0
 11
529.1736700519728
 21
79.53300604491778
 31
0.0
  0
LINE
  5
685
330
2
100
AcDbEntity
  8
0
100
AcDbLine
 10
530.7424710519728
 20
80.52909604491778
 30
0.0
 11
531.1782630519728
 21
80.52909604491778
 31
0.0
  0
LINE
  5
686
330
2
100
AcDbEntity
  8
0
100
AcDbLine
 10
529.1736700519728
 20
80.52909604491778
 30
0.0
 11
529.6467680519729
 21
80.52909604491778
 31
0.0
  0
LINE
  5
687
330
2
100
AcDbEntity
  8
0
100
AcDbLine
 10
534.0794620519728
 20
80.52909604491778
 30
0.0
 11
534.0794620519728
 21
79.53300604491778
 31
0.0
  0
LINE
  5
688
330
2
100
AcDbEntity
  8
0
100
AcDbLine
 10
535.5486700519728
 20
80.52909604491778
 30
0.0
 11
535.5486700519728
 21
79.53300604491778
 31
0.0
  0
LINE
  5
689
330
2
100
AcDbEntity
  8
0
100
AcDbLine
 10
534.0794620519728
 20
79.53300604491778
 30
0.0
 11
535.5486700519728
 21
79.53300604491778
 31
0.0
  0
LINE
  5
68A
330
2
100
AcDbEntity
  8
0
100
AcDbLine
 10
535.2803740519727
 20
80.52909604491778
 30
0.0
 11
535.5486700519728
 21
80.52909604491778
 31
0.0
  0
LINE
  5
68B
330
2
100
AcDbEntity
  8
0
100
AcDbLine
 10
534.0794620519728
 20
80.52909604491778
 30
0.0
 11
534.2780700519727
 21
80.52909604491778
 31
0.0
  0
LINE
  5
68C
330
2
100
AcDbEntity
  8
0
100
AcDbLine
 10
530.7424710519728
 20
84.00297304491777
 30
0.0
 11
532.7829680519728
 21
84.00297304491777
 31
0.0
  0
LINE
  5
68D
330
2
100
AcDbEntity
  8
0
100
AcDbLine
 10
530.7424710519728
 20
84.99883804491778
 30
0.0
 11
533.1971680519728
 21
84.99883804491778
 31
0.0
  0
LINE
  5
68E
330
2
100
AcDbEntity
  8
0
100
AcDbLine
 10
530.7424710519728
 20
87.92509604491778
 30
0.0
 11
533.7173710519728
 21
87.92315804491778
 31
0.0
  0
LINE
  5
68F
330
2
100
AcDbEntity
  8
0
100
AcDbLine
 10
529.1736700519728
 20
89.09550604491778
 30
0.0
 11
532.9961640519728
 21
89.09550604491778
 31
0.0
  0
LINE
  5
690
330
2
100
AcDbEntity
  8
0
100
AcDbLine
 10
529.1736700519728
 20
87.92509604491778
 30
0.0
 11
529.6467680519729
 21
87.92509604491778
 31
0.0
  0
LINE
  5
691
330
2
100
AcDbEntity
  8
0
100
AcDbLine
 10
530.7424710519728
 20
87.92509604491778
 30
0.0
 11
530.7424710519728
 21
84.99883804491778
 31
0.0
  0
LINE
  5
692
330
2
100
AcDbEntity
  8
0
100
AcDbLine
 10
529.1736700519728
 20
89.09550604491778
 30
0.0
 11
529.1736700519728
 21
87.92509604491778
 31
0.0
  0
ARC
  5
693
330
2
100
AcDbEntity
  8
0
100
AcDbCircle
 10
532.9961640519728
 20
86.54301604491777
 30
0.0
 40
1.557193
100
AcDbArc
 50
277.4147260000004
 51
62.41184999999949
  0
ARC
  5
694
330
2
100
AcDbEntity
  8
0
100
AcDbCircle
 10
532.9961640519728
 20
86.54301604491777
 30
0.0
 40
2.55249
100
AcDbArc
 50
286.0181269999995
 51
90.00350999999964
  0
LINE
  5
695
330
2
100
AcDbEntity
  8
HIDS
  6
SEKKEI_H
100
AcDbLine
 10
560.0486700519728
 20
58.53300604491778
 30
0.0
 11
560.0486700519728
 21
50.53300604491778
 31
0.0
  0
LINE
  5
696
330
2
100
AcDbEntity
  8
HIDS
  6
SEKKEI_H
100
AcDbLine
 10
553.5486700519729
 20
58.53300604491778
 30
0.0
 11
553.5486700519729
 21
50.53300604491778
 31
0.0
  0
LINE
  5
697
330
2
100
AcDbEntity
  8
CENTER
100
AcDbLine
 10
556.7986700519727
 20
62.03300604491778
 30
0.0
 11
556.7986700519727
 21
47.03300604491778
 31
0.0
  0
ARC
  5
698
330
2
100
AcDbEntity
  8
0
100
AcDbCircle
 10
563.2986700519729
 20
56.53301604491779
 30
0.0
 40
2.0
100
AcDbArc
 50
0.0
 51
90.0
  0
LINE
  5
699
330
2
100
AcDbEntity
  8
0
100
AcDbLine
 10
563.1709690519728
 20
130.3262650449177
 30
0.0
 11
539.0915620519729
 21
147.2256560449177
 31
0.0
  0
LINE
  5
69A
330
2
100
AcDbEntity
  8
CENTER
100
AcDbLine
 10
549.7986700519728
 20
115.5330060449177
 30
0.0
 11
495.7986700519728
 21
115.5330060449177
 31
0.0
  0
ARC
  5
69B
330
2
100
AcDbEntity
  8
0
100
AcDbCircle
 10
509.3780760519727
 20
143.1329970449177
 30
0.0
 40
5.0
100
AcDbArc
 50
90.0
 51
125.0615999999999
  0
LINE
  5
69C
330
2
100
AcDbEntity
  8
0
100
AcDbLine
 10
482.4263700519728
 20
130.3262650449177
 30
0.0
 11
506.5058690519729
 21
147.2256630449177
 31
0.0
  0
ARC
  5
69D
330
2
100
AcDbEntity
  8
0
100
AcDbCircle
 10
485.2986700519728
 20
126.2335830449177
 30
0.0
 40
5.0
100
AcDbArc
 50
125.0615999999999
 51
180.0
  0
ARC
  5
69E
330
2
100
AcDbEntity
  8
0
100
AcDbCircle
 10
522.7986700519728
 20
115.5330060449177
 30
0.0
 40
7.5
100
AcDbArc
 50
199.4712070000002
 51
160.5287929999997
  0
LINE
  5
69F
330
2
100
AcDbEntity
  8
0
100
AcDbLine
 10
518.2986700519728
 20
113.0330060449177
 30
0.0
 11
518.2986700519728
 21
118.0330060449177
 31
0.0
  0
LINE
  5
6A0
330
2
100
AcDbEntity
  8
0
100
AcDbLine
 10
513.2986700519729
 20
118.0330060449177
 30
0.0
 11
513.2986700519729
 21
113.0330060449177
 31
0.0
  0
LINE
  5
6A1
330
2
100
AcDbEntity
  8
0
100
AcDbLine
 10
518.2986700519728
 20
113.0330060449177
 30
0.0
 11
513.2986700519729
 21
113.0330060449177
 31
0.0
  0
LINE
  5
6A2
330
2
100
AcDbEntity
  8
0
100
AcDbLine
 10
518.2986700519728
 20
118.0330060449177
 30
0.0
 11
513.2986700519729
 21
118.0330060449177
 31
0.0
  0
LINE
  5
6A3
330
2
100
AcDbEntity
  8
0
100
AcDbLine
 10
536.2191710519728
 20
148.1330040449177
 30
0.0
 11
509.3781680519728
 21
148.1330040449177
 31
0.0
  0
ARC
  5
6A4
330
2
100
AcDbEntity
  8
0
100
AcDbCircle
 10
536.2191710519728
 20
143.1330200449177
 30
0.0
 40
5.0
100
AcDbArc
 50
54.93780099999962
 51
90.0
  0
ARC
  5
6A5
330
2
100
AcDbEntity
  8
0
100
AcDbCircle
 10
560.2986700519728
 20
126.2336290449177
 30
0.0
 40
5.0
100
AcDbArc
 50
0.0
 51
54.93769800000007
  0
LINE
  5
6A6
330
2
100
AcDbEntity
  8
0
100
AcDbLine
 10
696.2986540519728
 20
58.23300604491777
 30
0.0
 11
696.2986540519728
 21
128.2330030449177
 31
0.0
  0
LINE
  5
6A7
330
2
100
AcDbEntity
  8
0
100
AcDbLine
 10
647.2986540519728
 20
53.23300604491777
 30
0.0
 11
647.2986540519728
 21
133.2330030449177
 31
0.0
  0
LINE
  5
6A8
330
2
100
AcDbEntity
  8
0
100
AcDbLine
 10
637.7986540519728
 20
55.23300604491777
 30
0.0
 11
637.7986540519728
 21
131.2330030449177
 31
0.0
  0
LINE
  5
6A9
330
2
100
AcDbEntity
  8
0
100
AcDbLine
 10
693.7986540519728
 20
67.23300704491776
 30
0.0
 11
647.2986540519728
 21
67.23300704491776
 31
0.0
  0
ARC
  5
6AA
330
2
100
AcDbEntity
  8
0
100
AcDbCircle
 10
691.2986540519727
 20
58.23300604491777
 30
0.0
 40
5.0
100
AcDbArc
 50
270.0
 51
0.0
  0
LINE
  5
6AB
330
2
100
AcDbEntity
  8
0
100
AcDbLine
 10
691.2986540519727
 20
53.23300604491777
 30
0.0
 11
647.2986540519728
 21
53.23300604491777
 31
0.0
  0
LINE
  5
6AC
330
2
100
AcDbEntity
  8
0
100
AcDbLine
 10
647.2986540519728
 20
62.98400604491778
 30
0.0
 11
637.7986540519728
 21
62.98400604491778
 31
0.0
  0
LINE
  5
6AD
330
2
100
AcDbEntity
  8
0
100
AcDbLine
 10
647.2986540519728
 20
55.23300604491777
 30
0.0
 11
637.7986540519728
 21
55.23300604491777
 31
0.0
  0
LINE
  5
6AE
330
2
100
AcDbEntity
  8
0
100
AcDbLine
 10
693.7986540519728
 20
117.2330030449177
 30
0.0
 11
647.2986540519728
 21
117.2330030449177
 31
0.0
  0
ARC
  5
6AF
330
2
100
AcDbEntity
  8
0
100
AcDbCircle
 10
691.2986540519727
 20
128.2330260449177
 30
0.0
 40
5.0
100
AcDbArc
 50
0.0
 51
90.0
  0
LINE
  5
6B0
330
2
100
AcDbEntity
  8
0
100
AcDbLine
 10
691.2986540519727
 20
133.2330030449177
 30
0.0
 11
647.2986540519728
 21
133.2330030449177
 31
0.0
  0
LINE
  5
6B1
330
2
100
AcDbEntity
  8
0
100
AcDbLine
 10
647.2986540519728
 20
123.4820030449177
 30
0.0
 11
637.7986540519728
 21
123.4820030449177
 31
0.0
  0
LINE
  5
6B2
330
2
100
AcDbEntity
  8
0
100
AcDbLine
 10
644.2986540519727
 20
132.7330030449177
 30
0.0
 11
637.2986540519727
 21
132.7330030449177
 31
0.0
  0
LINE
  5
6B3
330
2
100
AcDbEntity
  8
0
100
AcDbLine
 10
647.2986540519728
 20
131.2330030449177
 30
0.0
 11
637.7986540519728
 21
131.2330030449177
 31
0.0
  0
LINE
  5
6B4
330
2
100
AcDbEntity
  8
0
100
AcDbLine
 10
637.2986540519727
 20
132.7330030449177
 30
0.0
 11
637.2986540519727
 21
131.2330030449177
 31
0.0
  0
LINE
  5
6B5
330
2
100
AcDbEntity
  8
0
100
AcDbLine
 10
638.0986730519728
 20
145.1080030449177
 30
0.0
 11
638.0986730519728
 21
132.7330030449177
 31
0.0
  0
LINE
  5
6B6
330
2
100
AcDbEntity
  8
0
100
AcDbLine
 10
643.4986670519728
 20
144.2955030449177
 30
0.0
 11
643.4986670519728
 21
132.7330030449177
 31
0.0
  0
LINE
  5
6B7
330
2
100
AcDbEntity
  8
0
100
AcDbLine
 10
641.6986790519729
 20
146.3580030449177
 30
0.0
 11
641.6986790519729
 21
132.7330030449177
 31
0.0
  0
LINE
  5
6B8
330
2
100
AcDbEntity
  8
0
100
AcDbLine
 10
639.8986600519728
 20
145.7330030449177
 30
0.0
 11
639.8986600519728
 21
132.7330030449177
 31
0.0
  0
LINE
  5
6B9
330
2
100
AcDbEntity
  8
0
100
AcDbLine
 10
644.2986540519727
 20
132.7330030449177
 30
0.0
 11
644.2986540519727
 21
131.2330030449177
 31
0.0
  0
LINE
  5
6BA
330
2
100
AcDbEntity
  8
HOJO
100
AcDbLine
 10
643.4986670519728
 20
144.2955030449177
 30
0.0
 11
641.6986790519729
 21
144.9205030449177
 31
0.0
  0
LINE
  5
6BB
330
2
100
AcDbEntity
  8
HOJO
100
AcDbLine
 10
638.0986730519728
 20
145.1080030449177
 30
0.0
 11
639.8976840519728
 21
144.6602950449177
 31
0.0
  0
LINE
  5
6BC
330
2
100
AcDbEntity
  8
HOJO
100
AcDbLine
 10
641.6986790519729
 20
146.3580030449177
 30
0.0
 11
639.8986600519728
 21
145.7330030449177
 31
0.0
  0
LINE
  5
6BD
330
2
100
AcDbEntity
  8
0
100
AcDbLine
 10
104.8360368495153
 20
240.6689685720077
 30
0.0
 11
180.7556988495152
 21
240.6689685720077
 31
0.0
  0
LINE
  5
6BE
330
2
100
AcDbEntity
  8
0
100
AcDbLine
 10
104.8360368495153
 20
225.6689685720077
 30
0.0
 11
175.3360368495153
 21
225.6689685720077
 31
0.0
  0
LINE
  5
6BF
330
2
100
AcDbEntity
  8
0
100
AcDbLine
 10
104.8360368495153
 20
286.6689685720077
 30
0.0
 11
180.7556988495152
 21
286.6689685720077
 31
0.0
  0
LINE
  5
6C0
330
2
100
AcDbEntity
  8
0
100
AcDbLine
 10
175.3360368495153
 20
301.6689685720077
 30
0.0
 11
104.8360368495153
 21
301.6689685720077
 31
0.0
  0
LINE
  5
6C1
330
2
100
AcDbEntity
  8
0
100
AcDbLine
 10
180.7556988495152
 20
242.6689685720077
 30
0.0
 11
180.7556988495152
 21
284.6692425720078
 31
0.0
  0
LINE
  5
6C2
330
2
100
AcDbEntity
  8
0
100
AcDbLine
 10
204.8360208495153
 20
292.7038805720077
 30
0.0
 11
204.8360208495153
 21
234.6340555720077
 31
0.0
  0
LINE
  5
6C3
330
2
100
AcDbEntity
  8
0
100
AcDbLine
 10
234.8360208495153
 20
292.7038805720077
 30
0.0
 11
234.8360208495153
 21
234.6340555720077
 31
0.0
  0
LINE
  5
6C4
330
2
100
AcDbEntity
  8
0
100
AcDbLine
 10
261.5670848495153
 20
219.6165995720077
 30
0.0
 11
262.3360208495153
 21
263.6689685720077
 31
0.0
  0
LINE
  5
6C5
330
2
100
AcDbEntity
  8
CENTER
100
AcDbLine
 10
219.8360208495153
 20
334.6689685720077
 30
0.0
 11
219.8360208495153
 21
209.6689685720077
 31
0.0
  0
LINE
  5
6C6
330
2
100
AcDbEntity
  8
0
100
AcDbLine
 10
181.1043778495154
 20
310.6689685720077
 30
0.0
 11
212.3360208495153
 21
310.6689685720077
 31
0.0
  0
LINE
  5
6C7
330
2
100
AcDbEntity
  8
0
100
AcDbLine
 10
179.8425218495153
 20
294.6689685720077
 30
0.0
 11
259.8295208495153
 21
294.6689685720077
 31
0.0
  0
LINE
  5
6C8
330
2
100
AcDbEntity
  8
0
100
AcDbLine
 10
226.9070208495154
 20
303.6689685720077
 30
0.0
 11
226.9070208495154
 21
327.6689685720077
 31
0.0
  0
LINE
  5
6C9
330
2
100
AcDbEntity
  8
0
100
AcDbLine
 10
229.3360208495152
 20
303.6689685720077
 30
0.0
 11
229.3360208495152
 21
327.6689685720077
 31
0.0
  0
LINE
  5
6CA
330
2
100
AcDbEntity
  8
0
100
AcDbLine
 10
212.3360208495153
 20
327.6689685720077
 30
0.0
 11
212.3360208495153
 21
300.6689685720077
 31
0.0
  0
ARC
  5
6CC
330
2
100
AcDbEntity
  8
0
100
AcDbCircle
 10
258.5675428495154
 20
307.6689685720077
 30
0.0
 40
3.0
100
AcDbArc
 50
1.000000000000156
 51
90.0
  0
LINE
  5
6CD
330
2
100
AcDbEntity
  8
0
100
AcDbLine
 10
229.3360208495152
 20
310.6689685720077
 30
0.0
 11
258.5675428495153
 21
310.6689685720077
 31
0.0
  0
LINE
  5
6CE
330
2
100
AcDbEntity
  8
0
100
AcDbLine
 10
212.3360208495153
 20
327.6689685720077
 30
0.0
 11
229.3360208495152
 21
327.6689685720077
 31
0.0
  0
LINE
  5
6CF
330
2
100
AcDbEntity
  8
0
100
AcDbLine
 10
238.8360208495153
 20
298.6689685720077
 30
0.0
 11
200.8360208495153
 21
298.6689685720077
 31
0.0
  0
LINE
  5
6D0
330
2
100
AcDbEntity
  8
0
100
AcDbLine
 10
261.5670848495153
 20
307.7213205720077
 30
0.0
 11
262.3360208495153
 21
263.6689685720077
 31
0.0
  0
CIRCLE
  5
6D2
330
2
100
AcDbEntity
  8
0
100
AcDbCircle
 10
253.8360208495154
 20
303.6689685720077
 30
0.0
 40
3.25
  0
ARC
  5
6D3
330
2
100
AcDbEntity
  8
0
100
AcDbCircle
 10
259.8295208495154
 20
292.6689685720077
 30
0.0
 40
2.0
100
AcDbArc
 50
1.000000000000156
 51
90.0
  0
ARC
  5
6D4
330
2
100
AcDbEntity
  8
0
100
AcDbCircle
 10
238.8360208495154
 20
297.6689685720076
 30
0.0
 40
1.0
100
AcDbArc
 50
0.0
 51
90.0
  0
LINE
  5
6D5
330
2
100
AcDbEntity
  8
0
100
AcDbLine
 10
239.8360208495152
 20
297.6689685720078
 30
0.0
 11
239.8360208495152
 21
296.6689645720077
 31
0.0
  0
LINE
  5
6D6
330
2
100
AcDbEntity
  8
0
100
AcDbLine
 10
211.3360208495153
 20
300.6689685720077
 30
0.0
 11
228.3360208495153
 21
300.6689685720077
 31
0.0
  0
LINE
  5
6D7
330
2
100
AcDbEntity
  8
0
100
AcDbLine
 10
226.9070208495154
 20
303.6689685720077
 30
0.0
 11
229.3360208495152
 21
303.6689685720077
 31
0.0
  0
LINE
  5
6D8
330
2
100
AcDbEntity
  8
0
100
AcDbLine
 10
227.3360208495152
 20
303.6689685720077
 30
0.0
 11
227.3360208495152
 21
300.6689685720077
 31
0.0
  0
LINE
  5
6D9
330
2
100
AcDbEntity
  8
0
100
AcDbLine
 10
228.3360208495153
 20
300.6689685720077
 30
0.0
 11
228.3360208495153
 21
298.6689685720077
 31
0.0
  0
ARC
  5
6DA
330
2
100
AcDbEntity
  8
0
100
AcDbCircle
 10
200.8360208495154
 20
297.6689685720076
 30
0.0
 40
1.0
100
AcDbArc
 50
90.0
 51
180.0
  0
LINE
  5
6DB
330
2
100
AcDbEntity
  8
0
100
AcDbLine
 10
211.3360208495153
 20
300.6689685720077
 30
0.0
 11
211.3360208495153
 21
298.6689685720077
 31
0.0
  0
LINE
  5
6DC
330
2
100
AcDbEntity
  8
0
100
AcDbLine
 10
199.8360208495153
 20
297.6689685720078
 30
0.0
 11
199.8360208495153
 21
296.6689645720077
 31
0.0
  0
ARC
  5
6DE
330
2
100
AcDbEntity
  8
0
100
AcDbCircle
 10
181.1043778495154
 20
307.6689685720077
 30
0.0
 40
3.0
100
AcDbArc
 50
90.0
 51
179.0001529999997
  0
ARC
  5
6DF
330
2
100
AcDbEntity
  8
0
100
AcDbCircle
 10
178.8360368495155
 20
296.0211255720076
 30
0.0
 40
1.5
100
AcDbArc
 50
180.0
 51
286.7126539999996
  0
ARC
  5
6E1
330
2
100
AcDbEntity
  8
0
100
AcDbCircle
 10
179.8425218495153
 20
292.6689685720077
 30
0.0
 40
2.0
100
AcDbArc
 50
90.0
 51
178.9999999999998
  0
CIRCLE
  5
6E2
330
2
100
AcDbEntity
  8
0
100
AcDbCircle
 10
185.8360208495154
 20
303.6689685720077
 30
0.0
 40
3.25
  0
LINE
  5
6E3
330
2
100
AcDbEntity
  8
0
100
AcDbLine
 10
177.3360368495153
 20
299.6689685720077
 30
0.0
 11
177.3360368495153
 21
296.0211255720077
 31
0.0
  0
LINE
  5
6E4
330
2
100
AcDbEntity
  8
0
100
AcDbLine
 10
178.1048348495153
 20
307.7213205720077
 30
0.0
 11
177.8804698495152
 21
294.8648755720077
 31
0.0
  0
ARC
  5
6E5
330
2
100
AcDbEntity
  8
0
100
AcDbCircle
 10
175.3360368495155
 20
299.6689685720077
 30
0.0
 40
2.0
100
AcDbArc
 50
0.0
 51
90.0
  0
LINE
  5
6E6
330
2
100
AcDbEntity
  8
0
100
AcDbLine
 10
177.8427508495153
 20
292.7038645720077
 30
0.0
 11
177.7374338495153
 21
286.6689685720077
 31
0.0
  0
LINE
  5
6E7
330
2
100
AcDbEntity
  8
0
100
AcDbLine
 10
181.1043778495154
 20
216.6689685720077
 30
0.0
 11
219.8360208495153
 21
216.6689685720077
 31
0.0
  0
LINE
  5
6E8
330
2
100
AcDbEntity
  8
0
100
AcDbLine
 10
179.8425218495153
 20
232.6689685720077
 30
0.0
 11
259.8295208495153
 21
232.6689685720077
 31
0.0
  0
LINE
  5
6EA
330
2
100
AcDbEntity
  8
0
100
AcDbLine
 10
219.8360208495153
 20
216.6689685720077
 30
0.0
 11
258.5675428495153
 21
216.6689685720077
 31
0.0
  0
CIRCLE
  5
6EC
330
2
100
AcDbEntity
  8
0
100
AcDbCircle
 10
253.8360208495154
 20
223.6689685720077
 30
0.0
 40
3.25
  0
ARC
  5
6ED
330
2
100
AcDbEntity
  8
0
100
AcDbCircle
 10
259.8295208495154
 20
234.6689685720077
 30
0.0
 40
2.0
100
AcDbArc
 50
270.0
 51
358.9999999999998
  0
ARC
  5
6EE
330
2
100
AcDbEntity
  8
0
100
AcDbCircle
 10
258.5675428495154
 20
219.6689685720077
 30
0.0
 40
3.0
100
AcDbArc
 50
270.0
 51
358.9999999999998
  0
LINE
  5
6EF
330
2
100
AcDbEntity
  8
CENTER
100
AcDbLine
 10
185.8360208495153
 20
217.7256886328493
 30
0.0
 11
185.8360208495153
 21
229.6122485111662
 31
0.0
  0
LINE
  5
6F0
330
2
100
AcDbEntity
  8
0
100
AcDbLine
 10
177.8427508495153
 20
234.6340555720077
 30
0.0
 11
177.7374338495153
 21
240.6689685720077
 31
0.0
  0
ARC
  5
6F1
330
2
100
AcDbEntity
  8
0
100
AcDbCircle
 10
178.8360368495155
 20
231.3168255720077
 30
0.0
 40
1.5
100
AcDbArc
 50
73.28734600000043
 51
180.0
  0
LINE
  5
6F2
330
2
100
AcDbEntity
  8
CENTER
100
AcDbLine
 10
179.8927409103569
 20
223.6689685720077
 30
0.0
 11
191.7793007886738
 21
223.6689685720077
 31
0.0
  0
ARC
  5
6F3
330
2
100
AcDbEntity
  8
0
100
AcDbCircle
 10
181.1043778495154
 20
219.6689685720077
 30
0.0
 40
3.0
100
AcDbArc
 50
180.999848
 51
270.0
  0
ARC
  5
6F4
330
2
100
AcDbEntity
  8
0
100
AcDbCircle
 10
179.8425218495153
 20
234.6689685720077
 30
0.0
 40
2.0
100
AcDbArc
 50
181.0000000000001
 51
270.0
  0
CIRCLE
  5
6F5
330
2
100
AcDbEntity
  8
0
100
AcDbCircle
 10
185.8360208495154
 20
223.6689685720077
 30
0.0
 40
3.25
  0
ARC
  5
6F6
330
2
100
AcDbEntity
  8
0
100
AcDbCircle
 10
175.3360368495155
 20
227.6689685720077
 30
0.0
 40
2.0
100
AcDbArc
 50
270.0
 51
0.0
  0
LINE
  5
6F7
330
2
100
AcDbEntity
  8
0
100
AcDbLine
 10
178.1048348495153
 20
219.6166305720077
 30
0.0
 11
177.8804698495152
 21
232.4730755720077
 31
0.0
  0
LINE
  5
6F8
330
2
100
AcDbEntity
  8
0
100
AcDbLine
 10
177.3360368495153
 20
227.6689685720077
 30
0.0
 11
177.3360368495153
 21
231.3168255720077
 31
0.0
  0
LINE
  5
6F9
330
2
100
AcDbEntity
  8
0
100
AcDbLine
 10
46.33603684951549
 20
228.6689685720077
 30
0.0
 11
46.33603684951549
 21
298.6689685720077
 31
0.0
  0
LINE
  5
6FA
330
2
100
AcDbEntity
  8
0
100
AcDbLine
 10
95.33603684951538
 20
223.6689685720077
 30
0.0
 11
95.33603684951538
 21
303.6689685720077
 31
0.0
  0
LINE
  5
6FB
330
2
100
AcDbEntity
  8
0
100
AcDbLine
 10
100.8360368495153
 20
260.1689685720077
 30
0.0
 11
100.8360368495153
 21
267.1689685720077
 31
0.0
  0
LINE
  5
6FC
330
2
100
AcDbEntity
  8
0
100
AcDbLine
 10
102.8360368495153
 20
260.1689685720077
 30
0.0
 11
102.8360368495153
 21
267.1689685720077
 31
0.0
  0
LINE
  5
6FD
330
2
100
AcDbEntity
  8
0
100
AcDbLine
 10
105.3360368495153
 20
257.6689685720077
 30
0.0
 11
105.3360368495153
 21
269.6689685720077
 31
0.0
  0
LINE
  5
6FE
330
2
100
AcDbEntity
  8
0
100
AcDbLine
 10
98.33603684951539
 20
257.6689685720077
 30
0.0
 11
98.33603684951539
 21
269.6689685720077
 31
0.0
  0
LINE
  5
6FF
330
2
100
AcDbEntity
  8
0
100
AcDbLine
 10
48.83603684951549
 20
287.6689685720077
 30
0.0
 11
95.33603684951538
 21
287.6689685720077
 31
0.0
  0
ARC
  5
700
330
2
100
AcDbEntity
  8
0
100
AcDbCircle
 10
51.33603684951549
 20
298.6689835720078
 30
0.0
 40
5.0
100
AcDbArc
 50
90.0
 51
180.0
  0
LINE
  5
701
330
2
100
AcDbEntity
  8
0
100
AcDbLine
 10
51.33603684951549
 20
303.6689685720077
 30
0.0
 11
95.33603684951538
 21
303.6689685720077
 31
0.0
  0
LINE
  5
702
330
2
100
AcDbEntity
  8
0
100
AcDbLine
 10
104.8360368495153
 20
270.5349955720077
 30
0.0
 11
104.8360368495153
 21
301.6689685720077
 31
0.0
  0
LINE
  5
703
330
2
100
AcDbEntity
  8
0
100
AcDbLine
 10
95.33603684951538
 20
286.6689685720077
 30
0.0
 11
104.8360368495153
 21
286.6689685720077
 31
0.0
  0
LINE
  5
704
330
2
100
AcDbEntity
  8
0
100
AcDbLine
 10
95.33603684951538
 20
301.6689685720077
 30
0.0
 11
104.8360368495153
 21
301.6689685720077
 31
0.0
  0
ARC
  5
705
330
2
100
AcDbEntity
  8
0
100
AcDbCircle
 10
104.3360368495154
 20
269.6689685720077
 30
0.0
 40
1.0
100
AcDbArc
 50
0.0
 51
90.0
  0
ARC
  5
706
330
2
100
AcDbEntity
  8
0
100
AcDbCircle
 10
101.8360368495154
 20
267.1689685720077
 30
0.0
 40
1.0
100
AcDbArc
 50
0.0
 51
90.0
  0
ARC
  5
707
330
2
100
AcDbEntity
  8
0
100
AcDbCircle
 10
101.8360368495154
 20
267.1689685720077
 30
0.0
 40
1.0
100
AcDbArc
 50
90.0
 51
180.0
  0
LINE
  5
708
330
2
100
AcDbEntity
  8
0
100
AcDbLine
 10
99.33603684951538
 20
270.6689685720077
 30
0.0
 11
104.3360368495153
 21
270.6689685720077
 31
0.0
  0
ARC
  5
709
330
2
100
AcDbEntity
  8
0
100
AcDbCircle
 10
99.33603684951549
 20
269.6689685720077
 30
0.0
 40
1.0
100
AcDbArc
 50
90.0
 51
180.0
  0
LINE
  5
70A
330
2
100
AcDbEntity
  8
0
100
AcDbLine
 10
48.83603684951549
 20
237.6689685720077
 30
0.0
 11
95.33603684951538
 21
237.6689685720077
 31
0.0
  0
ARC
  5
70B
330
2
100
AcDbEntity
  8
0
100
AcDbCircle
 10
51.33603684951549
 20
228.6689685720077
 30
0.0
 40
5.0
100
AcDbArc
 50
180.0
 51
270.0
  0
LINE
  5
70C
330
2
100
AcDbEntity
  8
0
100
AcDbLine
 10
51.33603684951549
 20
223.6689685720077
 30
0.0
 11
95.33603684951538
 21
223.6689685720077
 31
0.0
  0
LINE
  5
70D
330
2
100
AcDbEntity
  8
0
100
AcDbLine
 10
104.8360368495153
 20
225.6689685720077
 30
0.0
 11
104.8360368495153
 21
256.8029405720078
 31
0.0
  0
ARC
  5
70E
330
2
100
AcDbEntity
  8
0
100
AcDbCircle
 10
104.3360368495154
 20
257.6689685720077
 30
0.0
 40
1.0
100
AcDbArc
 50
270.0
 51
0.0
  0
LINE
  5
70F
330
2
100
AcDbEntity
  8
0
100
AcDbLine
 10
95.33603684951538
 20
240.6689685720077
 30
0.0
 11
104.8360368495153
 21
240.6689685720077
 31
0.0
  0
LINE
  5
710
330
2
100
AcDbEntity
  8
0
100
AcDbLine
 10
104.3360368495153
 20
256.6689685720077
 30
0.0
 11
99.33603684951538
 21
256.6689685720077
 31
0.0
  0
ARC
  5
711
330
2
100
AcDbEntity
  8
0
100
AcDbCircle
 10
101.8360368495154
 20
260.1689685720077
 30
0.0
 40
1.0
100
AcDbArc
 50
270.0
 51
0.0
  0
ARC
  5
712
330
2
100
AcDbEntity
  8
0
100
AcDbCircle
 10
101.8360368495154
 20
260.1689685720077
 30
0.0
 40
1.0
100
AcDbArc
 50
180.0
 51
270.0
  0
ARC
  5
713
330
2
100
AcDbEntity
  8
0
100
AcDbCircle
 10
99.33603684951549
 20
257.6689685720077
 30
0.0
 40
1.0
100
AcDbArc
 50
180.0
 51
270.0
  0
LINE
  5
714
330
2
100
AcDbEntity
  8
0
100
AcDbLine
 10
95.33603684951538
 20
225.6689685720077
 30
0.0
 11
104.8360368495153
 21
225.6689685720077
 31
0.0
  0
ARC
  5
715
330
2
100
AcDbEntity
  8
0
100
AcDbCircle
 10
95.33603684951549
 20
231.8930285720077
 30
0.0
 40
4.5
100
AcDbArc
 50
0.0
 51
90.0
  0
ARC
  5
716
330
2
100
AcDbEntity
  8
0
100
AcDbCircle
 10
95.33603684951549
 20
231.8930285720077
 30
0.0
 40
3.0
100
AcDbArc
 50
0.0
 51
90.0
  0
ARC
  5
717
330
2
100
AcDbEntity
  8
0
100
AcDbCircle
 10
95.33603684951549
 20
231.8930285720077
 30
0.0
 40
1.5
100
AcDbArc
 50
0.0
 51
90.0
  0
LINE
  5
718
330
2
100
AcDbEntity
  8
HOJO
100
AcDbLine
 10
98.33603684951539
 20
227.8909225720077
 30
0.0
 11
99.83603684951539
 21
228.6701275720077
 31
0.0
  0
LINE
  5
719
330
2
100
AcDbEntity
  8
HOJO
100
AcDbLine
 10
96.8384168495154
 20
227.6549295720077
 30
0.0
 11
98.33603684951539
 21
226.8562235720077
 31
0.0
  0
LINE
  5
71A
330
2
100
AcDbEntity
  8
0
100
AcDbLine
 10
99.83603684951539
 20
231.8930285720077
 30
0.0
 11
99.83603684951539
 21
228.6701275720077
 31
0.0
  0
LINE
  5
71B
330
2
100
AcDbEntity
  8
0
100
AcDbLine
 10
98.33603684951539
 20
231.8930285720077
 30
0.0
 11
98.33603684951539
 21
226.8562235720077
 31
0.0
  0
LINE
  5
71C
330
2
100
AcDbEntity
  8
0
100
AcDbLine
 10
96.83603684951538
 20
231.8930285720077
 30
0.0
 11
96.83603684951538
 21
227.6504435720077
 31
0.0
  0
LINE
  5
84B
330
2
100
AcDbEntity
  8
CENTER
100
AcDbLine
 10
247.8927409103568
 20
223.6689685720077
 30
0.0
 11
259.7793007886738
 21
223.6689685720077
 31
0.0
  0
LINE
  5
84C
330
2
100
AcDbEntity
  8
CENTER
100
AcDbLine
 10
253.8360208495153
 20
217.7256886328493
 30
0.0
 11
253.8360208495153
 21
229.6122485111662
 31
0.0
  0
LINE
  5
84D
330
2
100
AcDbEntity
  8
CENTER
100
AcDbLine
 10
247.8927409103568
 20
303.6689685720077
 30
0.0
 11
259.7793007886738
 21
303.6689685720077
 31
0.0
  0
LINE
  5
84E
330
2
100
AcDbEntity
  8
CENTER
100
AcDbLine
 10
253.8360208495153
 20
297.7256886328493
 30
0.0
 11
253.8360208495153
 21
309.6122485111662
 31
0.0
  0
LINE
  5
84F
330
2
100
AcDbEntity
  8
CENTER
100
AcDbLine
 10
179.8927409103569
 20
303.6689685720077
 30
0.0
 11
191.7793007886738
 21
303.6689685720077
 31
0.0
  0
LINE
  5
850
330
2
100
AcDbEntity
  8
CENTER
100
AcDbLine
 10
185.8360208495153
 20
297.7256886328493
 30
0.0
 11
185.8360208495153
 21
309.6122485111662
 31
0.0
  0
TEXT
  5
857
330
2
100
AcDbEntity
  8
TITLE
100
AcDbText
 10
328.5144276829481
 20
273.0659568847054
 30
0.0
 40
5.0
  1
HLMN-15L-10~240-T15W
 41
0.8
100
AcDbText
  0
TEXT
  5
858
330
2
100
AcDbEntity
  8
TITLE
100
AcDbText
 10
328.5144276829481
 20
265.0659568847054
 30
0.0
 40
5.0
  1
HLMN-15L-10~240-T25
 41
0.8
100
AcDbText
  0
TEXT
  5
859
330
2
100
AcDbEntity
  8
TITLE
100
AcDbText
 10
328.5144276829481
 20
241.0659568847054
 30
0.0
 40
5.0
  1
HLMN-15L-10~120-T40W
 41
0.8
100
AcDbText
  0
TEXT
  5
85A
330
2
100
AcDbEntity
  8
TITLE
100
AcDbText
 10
328.5144276829481
 20
249.0659568847054
 30
0.0
 40
5.0
  1
HLMN-15L-10~120-T40
 41
0.8
100
AcDbText
  0
TEXT
  5
85B
330
2
100
AcDbEntity
  8
TITLE
100
AcDbText
 10
328.5144276829481
 20
257.0659568847054
 30
0.0
 40
5.0
  1
HLMN-15L-10~240-T25W
 41
0.8
100
AcDbText
  0
TEXT
  5
85C
330
2
100
AcDbEntity
  8
TITLE
100
AcDbText
 10
328.5144276829481
 20
233.0659568847054
 30
0.0
 40
5.0
  1
HLMN-15L-10~60-T60
 41
0.8
100
AcDbText
  0
TEXT
  5
85D
330
2
100
AcDbEntity
  8
TITLE
100
AcDbText
 10
421.4164638921114
 20
241.0659568847054
 30
0.0
 40
5.0
  1
HLMN-15L-10~120-S40W
 41
0.8
100
AcDbText
  0
TEXT
  5
85F
330
2
100
AcDbEntity
  8
TITLE
100
AcDbText
 10
421.4164638921114
 20
257.0659568847054
 30
0.0
 40
5.0
  1
HLMN-15L-10~240-S25W
 41
0.8
100
AcDbText
  0
TEXT
  5
860
330
2
100
AcDbEntity
  8
TITLE
100
AcDbText
 10
421.4164638921114
 20
249.0659568847054
 30
0.0
 40
5.0
  1
HLMN-15L-10~120-S40
 41
0.8
100
AcDbText
  0
TEXT
  5
861
330
2
100
AcDbEntity
  8
TITLE
100
AcDbText
 10
421.4164638921114
 20
265.0659568847054
 30
0.0
 40
5.0
  1
HLMN-15L-10~240-S25
 41
0.8
100
AcDbText
  0
TEXT
  5
862
330
2
100
AcDbEntity
  8
TITLE
100
AcDbText
 10
421.4164638921114
 20
273.0659568847054
 30
0.0
 40
5.0
  1
HLMN-15L-10~240-S15W
 41
0.8
100
AcDbText
  0
TEXT
  5
863
330
2
100
AcDbEntity
  8
TITLE
100
AcDbText
 10
421.4164638921114
 20
281.0659568847054
 30
0.0
 40
5.0
  1
HLMN-15L-10~240-S15
 41
0.8
100
AcDbText
  0
LINE
  5
8F4
330
2
100
AcDbEntity
  8
0
100
AcDbLine
 10
179.4637218495153
 20
130.3262650449177
 30
0.0
 11
203.5431128495153
 21
147.2256560449177
 31
0.0
  0
LINE
  5
8F5
330
2
100
AcDbEntity
  8
CENTER
100
AcDbLine
 10
193.0860833571132
 20
115.5330060449177
 30
0.0
 11
247.0859583419174
 21
115.5330060449177
 31
0.0
  0
LINE
  5
8F6
330
2
100
AcDbEntity
  8
0
100
AcDbLine
 10
177.3360208495153
 20
50.53300304491779
 30
0.0
 11
262.3360208495153
 21
50.53300304491779
 31
0.0
  0
LINE
  5
8F7
330
2
100
AcDbEntity
  8
0
100
AcDbLine
 10
179.3360208495153
 20
58.53300304491779
 30
0.0
 11
260.3360208495153
 21
58.53300304491779
 31
0.0
  0
ARC
  5
8F8
330
2
100
AcDbEntity
  8
0
100
AcDbCircle
 10
219.8360208495153
 20
102.5330020449177
 30
0.0
 40
42.5
100
AcDbArc
 50
199.7498930000002
 51
340.2500920000002
  0
ARC
  5
8F9
330
2
100
AcDbEntity
  8
0
100
AcDbCircle
 10
219.8360208495153
 20
102.5330020449177
 30
0.0
 40
42.5
100
AcDbArc
 50
19.74990099999923
 51
160.2501069999997
  0
LINE
  5
8FA
330
2
100
AcDbEntity
  8
0
100
AcDbLine
 10
102.7360298495152
 20
145.7330030449177
 30
0.0
 11
102.7360298495152
 21
132.7330030449177
 31
0.0
  0
LINE
  5
8FB
330
2
100
AcDbEntity
  8
0
100
AcDbLine
 10
100.9360188495153
 20
146.3580030449177
 30
0.0
 11
100.9360188495153
 21
132.7330030449177
 31
0.0
  0
LINE
  5
8FC
330
2
100
AcDbEntity
  8
0
100
AcDbLine
 10
99.13601984951538
 20
144.2955030449177
 30
0.0
 11
99.13601984951538
 21
132.7330030449177
 31
0.0
  0
LINE
  5
8FD
330
2
100
AcDbEntity
  8
0
100
AcDbLine
 10
104.5360178495153
 20
145.1080030449177
 30
0.0
 11
104.5360178495153
 21
132.7330030449177
 31
0.0
  0
LINE
  5
8FE
330
2
100
AcDbEntity
  8
CENTER
100
AcDbLine
 10
39.33601884951531
 20
93.23300304491779
 30
0.0
 11
196.5860208495153
 21
93.23300304491779
 31
0.0
  0
LINE
  5
8FF
330
2
100
AcDbEntity
  8
0
100
AcDbLine
 10
104.8360208495153
 20
131.2330030449177
 30
0.0
 11
180.7557138495153
 21
131.2330030449177
 31
0.0
  0
LINE
  5
900
330
2
100
AcDbEntity
  8
0
100
AcDbLine
 10
104.8360208495153
 20
55.23300304491778
 30
0.0
 11
177.3360208495153
 21
55.23300304491778
 31
0.0
  0
LINE
  5
901
330
2
100
AcDbEntity
  8
0
100
AcDbLine
 10
104.8359668495153
 20
123.2330030449177
 30
0.0
 11
177.3360208495153
 21
123.2330030449177
 31
0.0
  0
LINE
  5
902
330
2
100
AcDbEntity
  8
0
100
AcDbLine
 10
104.8359668495153
 20
63.23300304491778
 30
0.0
 11
177.3360208495153
 21
63.23300304491778
 31
0.0
  0
LINE
  5
903
330
2
100
AcDbEntity
  8
0
100
AcDbLine
 10
95.3360208495153
 20
53.23300304491778
 30
0.0
 11
95.3360208495153
 21
133.2330030449177
 31
0.0
  0
LINE
  5
904
330
2
100
AcDbEntity
  8
0
100
AcDbLine
 10
46.33599384951526
 20
58.23298004491778
 30
0.0
 11
46.33599384951526
 21
128.2329800449177
 31
0.0
  0
LINE
  5
905
330
2
100
AcDbEntity
  8
0
100
AcDbLine
 10
104.8360208495153
 20
55.23300304491778
 30
0.0
 11
104.8360208495153
 21
131.2330030449177
 31
0.0
  0
LINE
  5
906
330
2
100
AcDbEntity
  8
0
100
AcDbLine
 10
51.33601984951531
 20
53.23300304491778
 30
0.0
 11
95.3360208495153
 21
53.23300304491778
 31
0.0
  0
LINE
  5
907
330
2
100
AcDbEntity
  8
0
100
AcDbLine
 10
48.83601884951531
 20
69.23300304491778
 30
0.0
 11
95.3360208495153
 21
69.23300304491778
 31
0.0
  0
ARC
  5
908
330
2
100
AcDbEntity
  8
0
100
AcDbCircle
 10
51.33599384951526
 20
58.23298004491778
 30
0.0
 40
5.0
100
AcDbArc
 50
180.0
 51
270.0
  0
LINE
  5
909
330
2
100
AcDbEntity
  8
0
100
AcDbLine
 10
95.3360208495153
 20
55.23300304491778
 30
0.0
 11
104.8360208495153
 21
55.23300304491778
 31
0.0
  0
LINE
  5
90A
330
2
100
AcDbEntity
  8
0
100
AcDbLine
 10
95.3360208495153
 20
62.98400204491779
 30
0.0
 11
104.8360208495153
 21
62.98400204491779
 31
0.0
  0
LINE
  5
90B
330
2
100
AcDbEntity
  8
0
100
AcDbLine
 10
51.33601884951531
 20
133.2330030449177
 30
0.0
 11
95.3360208495153
 21
133.2330030449177
 31
0.0
  0
LINE
  5
90C
330
2
100
AcDbEntity
  8
0
100
AcDbLine
 10
48.83601884951531
 20
119.2330030449177
 30
0.0
 11
95.3360208495153
 21
119.2330030449177
 31
0.0
  0
ARC
  5
90D
330
2
100
AcDbEntity
  8
0
100
AcDbCircle
 10
51.33601884951531
 20
128.2330030449177
 30
0.0
 40
5.0
100
AcDbArc
 50
90.0
 51
180.0
  0
LINE
  5
90E
330
2
100
AcDbEntity
  8
HOJO
100
AcDbLine
 10
96.83841984951527
 20
111.6199050449178
 30
0.0
 11
98.33602084951531
 21
110.8212060449178
 31
0.0
  0
LINE
  5
90F
330
2
100
AcDbEntity
  8
0
100
AcDbLine
 10
98.33602084951531
 20
115.8580030449177
 30
0.0
 11
98.33602084951531
 21
110.8212060449178
 31
0.0
  0
LINE
  5
910
330
2
100
AcDbEntity
  8
0
100
AcDbLine
 10
95.3360208495153
 20
131.2330030449177
 30
0.0
 11
104.8360208495153
 21
131.2330030449177
 31
0.0
  0
LINE
  5
911
330
2
100
AcDbEntity
  8
0
100
AcDbLine
 10
95.3360208495153
 20
123.4820040449178
 30
0.0
 11
104.8360208495153
 21
123.4820040449178
 31
0.0
  0
ARC
  5
912
330
2
100
AcDbEntity
  8
0
100
AcDbCircle
 10
95.3360208495153
 20
115.8580030449177
 30
0.0
 40
1.5
100
AcDbArc
 50
0.0
 51
90.0
  0
ARC
  5
913
330
2
100
AcDbEntity
  8
0
100
AcDbCircle
 10
95.3360208495153
 20
115.8580030449177
 30
0.0
 40
3.0
100
AcDbArc
 50
0.0
 51
90.0
  0
ARC
  5
914
330
2
100
AcDbEntity
  8
0
100
AcDbCircle
 10
95.3360208495153
 20
115.8580030449177
 30
0.0
 40
4.5
100
AcDbArc
 50
0.0
 51
90.0
  0
LINE
  5
915
330
2
100
AcDbEntity
  8
0
100
AcDbLine
 10
99.83602084951531
 20
115.8580030449177
 30
0.0
 11
99.83602084951531
 21
112.6351030449177
 31
0.0
  0
LINE
  5
916
330
2
100
AcDbEntity
  8
0
100
AcDbLine
 10
96.8360208495153
 20
115.8580030449177
 30
0.0
 11
96.8360208495153
 21
111.6154040449177
 31
0.0
  0
LINE
  5
917
330
2
100
AcDbEntity
  8
HOJO
100
AcDbLine
 10
98.33602084951531
 20
111.8559050449178
 30
0.0
 11
99.83602084951531
 21
112.6351030449177
 31
0.0
  0
LINE
  5
918
330
2
100
AcDbEntity
  8
0
100
AcDbLine
 10
98.33602084951531
 20
132.7330030449177
 30
0.0
 11
105.3360208495152
 21
132.7330030449177
 31
0.0
  0
LINE
  5
919
330
2
100
AcDbEntity
  8
0
100
AcDbLine
 10
98.33602084951531
 20
132.7330030449177
 30
0.0
 11
98.33602084951531
 21
131.2330030449177
 31
0.0
  0
LINE
  5
91A
330
2
100
AcDbEntity
  8
0
100
AcDbLine
 10
105.3360208495152
 20
132.7330030449177
 30
0.0
 11
105.3360208495152
 21
131.2330030449177
 31
0.0
  0
LINE
  5
91B
330
2
100
AcDbEntity
  8
0
100
AcDbLine
 10
177.3360208495153
 20
126.2336060449178
 30
0.0
 11
177.3360208495153
 21
50.53300304491779
 31
0.0
  0
LINE
  5
91C
330
2
100
AcDbEntity
  8
CENTER
100
AcDbLine
 10
185.8360208495153
 20
62.03300304491779
 30
0.0
 11
185.8360208495153
 21
47.03300304491778
 31
0.0
  0
LINE
  5
91D
330
2
100
AcDbEntity
  8
HIDS
  6
SEKKEI_H
100
AcDbLine
 10
189.0860208495153
 20
58.53300304491779
 30
0.0
 11
189.0860208495153
 21
50.53300304491779
 31
0.0
  0
LINE
  5
91E
330
2
100
AcDbEntity
  8
HIDS
  6
SEKKEI_H
100
AcDbLine
 10
182.5860208495153
 20
58.53300304491779
 30
0.0
 11
182.5860208495153
 21
50.53300304491779
 31
0.0
  0
ARC
  5
91F
330
2
100
AcDbEntity
  8
0
100
AcDbCircle
 10
179.3360208495153
 20
56.53301304491776
 30
0.0
 40
2.0
100
AcDbArc
 50
90.0
 51
180.0
  0
LINE
  5
920
330
2
100
AcDbEntity
  8
0
100
AcDbLine
 10
179.8360208495153
 20
116.8942730449177
 30
0.0
 11
179.8360208495153
 21
88.17146404491778
 31
0.0
  0
ARC
  5
921
330
2
100
AcDbEntity
  8
0
100
AcDbCircle
 10
182.3360208495152
 20
126.2336210449177
 30
0.0
 40
5.0
100
AcDbArc
 50
125.0623020000004
 51
180.0
  0
LINE
  5
922
330
2
100
AcDbEntity
  8
HOJO
100
AcDbLine
 10
100.9360188495153
 20
146.3580030449177
 30
0.0
 11
102.7360298495152
 21
145.7330030449177
 31
0.0
  0
LINE
  5
923
330
2
100
AcDbEntity
  8
HOJO
100
AcDbLine
 10
99.13601984951538
 20
144.2955030449177
 30
0.0
 11
100.9360188495153
 21
144.9205030449177
 31
0.0
  0
LINE
  5
924
330
2
100
AcDbEntity
  8
HOJO
100
AcDbLine
 10
104.5360178495153
 20
145.1080030449177
 30
0.0
 11
102.7370288495153
 21
144.6602950449177
 31
0.0
  0
LINE
  5
925
330
2
100
AcDbEntity
  8
0
100
AcDbLine
 10
260.2083198495153
 20
130.3262650449177
 30
0.0
 11
236.1288218495153
 21
147.2256640449177
 31
0.0
  0
LINE
  5
926
330
2
100
AcDbEntity
  8
CENTER
100
AcDbLine
 10
219.8360208495153
 20
155.1330050449177
 30
0.0
 11
219.8360208495153
 21
43.53300304491779
 31
0.0
  0
LINE
  5
927
330
2
100
AcDbEntity
  8
0
100
AcDbLine
 10
230.7378148495153
 20
84.08962404491779
 30
0.0
 11
232.3177258495153
 21
80.52909204491777
 31
0.0
  0
LINE
  5
928
330
2
100
AcDbEntity
  8
0
100
AcDbLine
 10
227.7798228495153
 20
84.00297304491777
 30
0.0
 11
227.7798228495153
 21
80.52909204491777
 31
0.0
  0
LINE
  5
929
330
2
100
AcDbEntity
  8
0
100
AcDbLine
 10
229.8203198495153
 20
84.00297304491777
 30
0.0
 11
231.3153148495153
 21
80.52909204491777
 31
0.0
  0
LINE
  5
92A
330
2
100
AcDbEntity
  8
0
100
AcDbLine
 10
226.6841198495153
 20
87.92509204491778
 30
0.0
 11
226.6841198495153
 21
80.52909204491777
 31
0.0
  0
LINE
  5
92B
330
2
100
AcDbEntity
  8
0
100
AcDbLine
 10
262.3360208495153
 20
126.2335830449177
 30
0.0
 11
262.3360208495153
 21
50.53300304491779
 31
0.0
  0
LINE
  5
92C
330
2
100
AcDbEntity
  8
0
100
AcDbLine
 10
212.5396188495153
 20
84.04032604491778
 30
0.0
 11
212.5396188495153
 21
82.64579104491778
 31
0.0
  0
LINE
  5
92D
330
2
100
AcDbEntity
  8
0
100
AcDbLine
 10
213.4610208495153
 20
85.08622504491777
 30
0.0
 11
213.4610208495153
 21
79.53300204491779
 31
0.0
  0
LINE
  5
92E
330
2
100
AcDbEntity
  8
0
100
AcDbLine
 10
219.2134158495153
 20
87.92509204491778
 30
0.0
 11
219.2134158495153
 21
80.57890404491777
 31
0.0
  0
LINE
  5
92F
330
2
100
AcDbEntity
  8
0
100
AcDbLine
 10
220.4088208495153
 20
87.92509204491778
 30
0.0
 11
220.4088208495153
 21
80.57890404491777
 31
0.0
  0
LINE
  5
930
330
2
100
AcDbEntity
  8
0
100
AcDbLine
 10
207.0860208495153
 20
87.61350404491778
 30
0.0
 11
207.0860208495153
 21
80.77386204491778
 31
0.0
  0
LINE
  5
931
330
2
100
AcDbEntity
  8
0
100
AcDbLine
 10
208.1568218495153
 20
86.93298104491777
 30
0.0
 11
208.1568218495153
 21
81.42392504491779
 31
0.0
  0
LINE
  5
932
330
2
100
AcDbEntity
  8
0
100
AcDbLine
 10
207.0860208495153
 20
80.77386204491778
 30
0.0
 11
208.3158178495153
 21
79.53300204491779
 31
0.0
  0
LINE
  5
933
330
2
100
AcDbEntity
  8
0
100
AcDbLine
 10
212.5396188495153
 20
80.29526304491776
 30
0.0
 11
211.6311258495153
 21
79.53300204491779
 31
0.0
  0
ARC
  5
934
330
2
100
AcDbEntity
  8
0
100
AcDbCircle
 10
210.5474158495153
 20
82.64579104491778
 30
0.0
 40
1.992186999999999
100
AcDbArc
 50
270.0002140000007
 51
0.0001089999998967
  0
LINE
  5
935
330
2
100
AcDbEntity
  8
0
100
AcDbLine
 10
208.1568218495153
 20
81.42392504491779
 30
0.0
 11
208.8881138495153
 21
80.65360404491778
 31
0.0
  0
LINE
  5
936
330
2
100
AcDbEntity
  8
0
100
AcDbLine
 10
210.5474158495153
 20
80.65360404491778
 30
0.0
 11
208.8881138495153
 21
80.65360404491778
 31
0.0
  0
LINE
  5
937
330
2
100
AcDbEntity
  8
0
100
AcDbLine
 10
208.3158178495153
 20
79.53300204491779
 30
0.0
 11
211.6311258495153
 21
79.53300204491779
 31
0.0
  0
LINE
  5
938
330
2
100
AcDbEntity
  8
0
100
AcDbLine
 10
212.5396188495153
 20
79.53300204491779
 30
0.0
 11
213.4610208495153
 21
79.53300204491779
 31
0.0
  0
LINE
  5
939
330
2
100
AcDbEntity
  8
0
100
AcDbLine
 10
212.5396188495153
 20
80.29526304491776
 30
0.0
 11
212.5396188495153
 21
79.53300204491779
 31
0.0
  0
LINE
  5
93A
330
2
100
AcDbEntity
  8
0
100
AcDbLine
 10
228.2156138495153
 20
79.53300204491779
 30
0.0
 11
226.2110208495153
 21
79.53300204491779
 31
0.0
  0
LINE
  5
93B
330
2
100
AcDbEntity
  8
0
100
AcDbLine
 10
220.4088208495153
 20
80.57890404491777
 30
0.0
 11
220.8072118495153
 21
80.57890404491777
 31
0.0
  0
LINE
  5
93C
330
2
100
AcDbEntity
  8
0
100
AcDbLine
 10
220.8072118495153
 20
80.57890404491777
 30
0.0
 11
220.8072118495153
 21
79.53300204491779
 31
0.0
  0
LINE
  5
93D
330
2
100
AcDbEntity
  8
0
100
AcDbLine
 10
218.7403178495153
 20
80.57890404491777
 30
0.0
 11
218.7403178495153
 21
79.53300204491779
 31
0.0
  0
LINE
  5
93E
330
2
100
AcDbEntity
  8
0
100
AcDbLine
 10
218.7403178495153
 20
79.53300204491779
 30
0.0
 11
220.8072118495153
 21
79.53300204491779
 31
0.0
  0
LINE
  5
93F
330
2
100
AcDbEntity
  8
0
100
AcDbLine
 10
218.7403178495153
 20
80.57890404491777
 30
0.0
 11
219.2134158495153
 21
80.57890404491777
 31
0.0
  0
LINE
  5
940
330
2
100
AcDbEntity
  8
0
100
AcDbLine
 10
226.2110208495153
 20
80.52909204491777
 30
0.0
 11
226.2110208495153
 21
79.53300204491779
 31
0.0
  0
LINE
  5
941
330
2
100
AcDbEntity
  8
0
100
AcDbLine
 10
226.2110208495153
 20
80.52909204491777
 30
0.0
 11
226.6841198495153
 21
80.52909204491777
 31
0.0
  0
LINE
  5
942
330
2
100
AcDbEntity
  8
0
100
AcDbLine
 10
232.3177258495153
 20
80.52909204491777
 30
0.0
 11
232.5860208495153
 21
80.52909204491777
 31
0.0
  0
LINE
  5
943
330
2
100
AcDbEntity
  8
0
100
AcDbLine
 10
231.1168128495153
 20
79.53300204491779
 30
0.0
 11
232.5860208495153
 21
79.53300204491779
 31
0.0
  0
LINE
  5
944
330
2
100
AcDbEntity
  8
0
100
AcDbLine
 10
231.1168128495153
 20
80.52909204491777
 30
0.0
 11
231.3153148495153
 21
80.52909204491777
 31
0.0
  0
LINE
  5
945
330
2
100
AcDbEntity
  8
0
100
AcDbLine
 10
227.7798228495153
 20
80.52909204491777
 30
0.0
 11
228.2156138495153
 21
80.52909204491777
 31
0.0
  0
LINE
  5
946
330
2
100
AcDbEntity
  8
0
100
AcDbLine
 10
231.1168128495153
 20
80.52909204491777
 30
0.0
 11
231.1168128495153
 21
79.53300204491779
 31
0.0
  0
LINE
  5
947
330
2
100
AcDbEntity
  8
0
100
AcDbLine
 10
228.2156138495153
 20
80.52909204491777
 30
0.0
 11
228.2156138495153
 21
79.53300204491779
 31
0.0
  0
LINE
  5
948
330
2
100
AcDbEntity
  8
0
100
AcDbLine
 10
232.5860208495153
 20
80.52909204491777
 30
0.0
 11
232.5860208495153
 21
79.53300204491779
 31
0.0
  0
LINE
  5
949
330
2
100
AcDbEntity
  8
CENTER
100
AcDbLine
 10
253.8360208495153
 20
62.03300304491779
 30
0.0
 11
253.8360208495154
 21
47.03300304491778
 31
0.0
  0
LINE
  5
94A
330
2
100
AcDbEntity
  8
HIDS
  6
SEKKEI_H
100
AcDbLine
 10
257.0860208495153
 20
58.53300304491779
 30
0.0
 11
257.0860208495153
 21
50.53300304491779
 31
0.0
  0
LINE
  5
94B
330
2
100
AcDbEntity
  8
HIDS
  6
SEKKEI_H
100
AcDbLine
 10
250.5860208495153
 20
58.53300304491779
 30
0.0
 11
250.5860208495153
 21
50.53300304491779
 31
0.0
  0
ARC
  5
94C
330
2
100
AcDbEntity
  8
0
100
AcDbCircle
 10
260.3360208495153
 20
56.53299304491776
 30
0.0
 40
2.0
100
AcDbArc
 50
0.0
 51
90.0
  0
CIRCLE
  5
94D
330
2
100
AcDbEntity
  8
0
100
AcDbCircle
 10
219.8360208495153
 20
115.5330060449177
 30
0.0
 40
20.0
  0
ARC
  5
94E
330
2
100
AcDbEntity
  8
HIDS
100
AcDbCircle
 10
219.8360208495153
 20
115.5330060449177
 30
0.0
 40
7.5
100
AcDbArc
 50
19.47120999999955
 51
340.5288089999994
  0
LINE
  5
94F
330
2
100
AcDbEntity
  8
0
100
AcDbLine
 10
217.6985238495153
 20
87.92509204491778
 30
0.0
 11
217.3561168495153
 21
87.10331504491779
 31
0.0
  0
LINE
  5
950
330
2
100
AcDbEntity
  8
0
100
AcDbLine
 10
216.6485208495153
 20
89.09550204491779
 30
0.0
 11
223.0235208495153
 21
89.09550204491779
 31
0.0
  0
LINE
  5
951
330
2
100
AcDbEntity
  8
0
100
AcDbLine
 10
208.2434148495153
 20
89.09550204491779
 30
0.0
 11
207.0860208495153
 21
87.61350404491778
 31
0.0
  0
LINE
  5
952
330
2
100
AcDbEntity
  8
0
100
AcDbLine
 10
212.5396188495153
 20
87.25403704491776
 30
0.0
 11
211.9364238495153
 21
87.82548304491777
 31
0.0
  0
LINE
  5
953
330
2
100
AcDbEntity
  8
0
100
AcDbLine
 10
208.2434148495153
 20
89.09550204491779
 30
0.0
 11
212.5300208495153
 21
89.09550204491779
 31
0.0
  0
LINE
  5
954
330
2
100
AcDbEntity
  8
0
100
AcDbLine
 10
212.5396188495153
 20
84.04032604491778
 30
0.0
 11
210.8712228495153
 21
84.04032604491778
 31
0.0
  0
LINE
  5
955
330
2
100
AcDbEntity
  8
0
100
AcDbLine
 10
210.8712228495153
 20
85.08622504491777
 30
0.0
 11
213.4610208495153
 21
85.08622504491777
 31
0.0
  0
LINE
  5
956
330
2
100
AcDbEntity
  8
0
100
AcDbLine
 10
208.8766238495153
 20
87.82548304491777
 30
0.0
 11
208.1568218495153
 21
86.93298104491777
 31
0.0
  0
LINE
  5
957
330
2
100
AcDbEntity
  8
0
100
AcDbLine
 10
210.8712228495153
 20
85.08622504491777
 30
0.0
 11
210.8712228495153
 21
84.04032604491778
 31
0.0
  0
LINE
  5
958
330
2
100
AcDbEntity
  8
0
100
AcDbLine
 10
211.9485238495153
 20
87.82548304491777
 30
0.0
 11
208.8766238495153
 21
87.82548304491777
 31
0.0
  0
LINE
  5
959
330
2
100
AcDbEntity
  8
0
100
AcDbLine
 10
216.6485208495153
 20
87.10331504491779
 30
0.0
 11
216.6485208495153
 21
89.09550204491779
 31
0.0
  0
LINE
  5
95A
330
2
100
AcDbEntity
  8
0
100
AcDbLine
 10
216.6485208495153
 20
87.10331504491779
 30
0.0
 11
217.3561168495153
 21
87.10331504491779
 31
0.0
  0
LINE
  5
95B
330
2
100
AcDbEntity
  8
0
100
AcDbLine
 10
212.5300208495153
 20
89.09550204491779
 30
0.0
 11
213.4610208495153
 21
88.06236004491779
 31
0.0
  0
LINE
  5
95C
330
2
100
AcDbEntity
  8
0
100
AcDbLine
 10
212.5396188495153
 20
87.10331504491779
 30
0.0
 11
213.4610208495153
 21
87.10331504491779
 31
0.0
  0
LINE
  5
95D
330
2
100
AcDbEntity
  8
0
100
AcDbLine
 10
213.4610208495153
 20
88.06236004491779
 30
0.0
 11
213.4610208495153
 21
87.10331504491779
 31
0.0
  0
LINE
  5
95E
330
2
100
AcDbEntity
  8
0
100
AcDbLine
 10
212.5396188495153
 20
87.25403704491776
 30
0.0
 11
212.5396188495153
 21
87.10331504491779
 31
0.0
  0
LINE
  5
95F
330
2
100
AcDbEntity
  8
0
100
AcDbLine
 10
212.5396188495153
 20
83.04423304491777
 30
0.0
 11
212.5396188495153
 21
83.84110804491777
 31
0.0
  0
LINE
  5
960
330
2
100
AcDbEntity
  8
0
100
AcDbLine
 10
226.2110208495153
 20
89.09550204491779
 30
0.0
 11
230.0335148495153
 21
89.09550204491779
 31
0.0
  0
LINE
  5
961
330
2
100
AcDbEntity
  8
0
100
AcDbLine
 10
222.3585118495153
 20
87.10331504491779
 30
0.0
 11
223.0235208495153
 21
87.10331504491779
 31
0.0
  0
LINE
  5
962
330
2
100
AcDbEntity
  8
0
100
AcDbLine
 10
222.0698158495153
 20
87.92509204491778
 30
0.0
 11
222.3585118495153
 21
87.10331504491779
 31
0.0
  0
LINE
  5
963
330
2
100
AcDbEntity
  8
0
100
AcDbLine
 10
220.4088208495153
 20
87.92509204491778
 30
0.0
 11
222.0698158495153
 21
87.92509204491778
 31
0.0
  0
LINE
  5
964
330
2
100
AcDbEntity
  8
0
100
AcDbLine
 10
219.2134158495153
 20
87.92509204491778
 30
0.0
 11
217.6985238495153
 21
87.92509204491778
 31
0.0
  0
LINE
  5
965
330
2
100
AcDbEntity
  8
0
100
AcDbLine
 10
223.0235208495153
 20
87.10331504491779
 30
0.0
 11
223.0235208495153
 21
89.09550204491779
 31
0.0
  0
LINE
  5
966
330
2
100
AcDbEntity
  8
0
100
AcDbLine
 10
226.2110208495153
 20
89.09550204491779
 30
0.0
 11
226.2110208495153
 21
87.92509204491778
 31
0.0
  0
LINE
  5
967
330
2
100
AcDbEntity
  8
0
100
AcDbLine
 10
226.2110208495153
 20
87.92509204491778
 30
0.0
 11
226.6841198495153
 21
87.92509204491778
 31
0.0
  0
ARC
  5
968
330
2
100
AcDbEntity
  8
0
100
AcDbCircle
 10
230.0335148495153
 20
86.54301204491778
 30
0.0
 40
2.55249
100
AcDbArc
 50
286.0181270000003
 51
90.00351000000046
  0
LINE
  5
969
330
2
100
AcDbEntity
  8
0
100
AcDbLine
 10
227.7798228495153
 20
87.92509204491778
 30
0.0
 11
230.7547218495153
 21
87.92315404491779
 31
0.0
  0
LINE
  5
96A
330
2
100
AcDbEntity
  8
0
100
AcDbLine
 10
227.7798228495153
 20
84.99883804491776
 30
0.0
 11
230.2345188495153
 21
84.99883804491776
 31
0.0
  0
LINE
  5
96B
330
2
100
AcDbEntity
  8
0
100
AcDbLine
 10
227.7798228495153
 20
84.00297304491777
 30
0.0
 11
229.8203198495153
 21
84.00297304491777
 31
0.0
  0
ARC
  5
96C
330
2
100
AcDbEntity
  8
0
100
AcDbCircle
 10
230.0335148495153
 20
86.54301204491778
 30
0.0
 40
1.557193
100
AcDbArc
 50
277.4147260000004
 51
62.41184999999767
  0
LINE
  5
96D
330
2
100
AcDbEntity
  8
0
100
AcDbLine
 10
227.7798228495153
 20
87.92509204491778
 30
0.0
 11
227.7798228495153
 21
84.99883804491776
 31
0.0
  0
LINE
  5
96F
330
2
100
AcDbEntity
  8
HIDS
100
AcDbLine
 10
224.3360208495153
 20
118.0330060449177
 30
0.0
 11
229.3360208495153
 21
118.0330060449177
 31
0.0
  0
LINE
  5
970
330
2
100
AcDbEntity
  8
HIDS
100
AcDbLine
 10
224.3360208495153
 20
113.0330060449177
 30
0.0
 11
229.3360208495153
 21
113.0330060449177
 31
0.0
  0
LINE
  5
971
330
2
100
AcDbEntity
  8
HIDS
100
AcDbLine
 10
224.3360208495153
 20
113.0330060449177
 30
0.0
 11
224.3360208495153
 21
118.0330060449177
 31
0.0
  0
LINE
  5
972
330
2
100
AcDbEntity
  8
HIDS
100
AcDbLine
 10
229.3360208495153
 20
118.0330060449177
 30
0.0
 11
229.3360208495153
 21
113.0330060449177
 31
0.0
  0
LINE
  5
973
330
2
100
AcDbEntity
  8
0
100
AcDbLine
 10
259.8360208495153
 20
116.8944030449178
 30
0.0
 11
259.8360208495153
 21
88.17186504491777
 31
0.0
  0
ARC
  5
974
330
2
100
AcDbEntity
  8
0
100
AcDbCircle
 10
257.3360208495153
 20
126.2335830449177
 30
0.0
 40
5.0
100
AcDbArc
 50
0.0
 51
54.93837000000021
  0
LINE
  5
975
330
2
100
AcDbEntity
  8
0
100
AcDbLine
 10
206.4155188495153
 20
148.1330050449177
 30
0.0
 11
233.2565228495153
 21
148.1330050449177
 31
0.0
  0
ARC
  5
976
330
2
100
AcDbEntity
  8
0
100
AcDbCircle
 10
206.4155188495153
 20
143.1330120449177
 30
0.0
 40
5.0
100
AcDbArc
 50
90.0
 51
125.0622019999994
  0
ARC
  5
977
330
2
100
AcDbEntity
  8
0
100
AcDbCircle
 10
233.2566138495153
 20
143.1329890449178
 30
0.0
 40
5.0
100
AcDbArc
 50
54.93843100000081
 51
90.0
  0
ARC
  5
1593
330
2
100
AcDbEntity
  8
0
100
AcDbCircle
 10
390.197070722668
 20
137.5330060449177
 30
0.0
 40
2.0
100
AcDbArc
 50
180.0
 51
270.0
  0
ARC
  5
1594
330
2
100
AcDbEntity
  8
0
100
AcDbCircle
 10
390.197070722668
 20
93.53300604491776
 30
0.0
 40
2.0
100
AcDbArc
 50
90.00000000000003
 51
180.0
  0
ARC
  5
1595
330
2
100
AcDbEntity
  8
0
100
AcDbCircle
 10
324.1970787226681
 20
93.53300604491776
 30
0.0
 40
2.0
100
AcDbArc
 50
0.000000000000007
 51
89.99999999999998
  0
ARC
  5
1596
330
2
100
AcDbEntity
  8
0
100
AcDbCircle
 10
324.1970787226681
 20
137.5330060449177
 30
0.0
 40
2.0
100
AcDbArc
 50
270.0
 51
0.000000000000007
  0
LINE
  5
1597
330
2
100
AcDbEntity
  8
0
100
AcDbLine
 10
238.8360208495153
 20
228.6689685720077
 30
0.0
 11
200.8360208495153
 21
228.6689685720077
 31
0.0
  0
ARC
  5
1598
330
2
100
AcDbEntity
  8
0
100
AcDbCircle
 10
241.8360208495153
 20
230.6689725720077
 30
0.0
 40
2.0
100
AcDbArc
 50
90.00000000000003
 51
180.0
  0
LINE
  5
1599
330
2
100
AcDbEntity
  8
0
100
AcDbLine
 10
239.8360208495152
 20
229.6689685720077
 30
0.0
 11
239.8360208495152
 21
230.6689725720078
 31
0.0
  0
ARC
  5
159A
330
2
100
AcDbEntity
  8
0
100
AcDbCircle
 10
238.8360248495152
 20
229.6689685720077
 30
0.0
 40
1.0
100
AcDbArc
 50
270.0
 51
0.0
  0
ARC
  5
159B
330
2
100
AcDbEntity
  8
0
100
AcDbCircle
 10
197.8360208495153
 20
230.6689725720078
 30
0.0
 40
2.0
100
AcDbArc
 50
0.0
 51
90.00000000000003
  0
LINE
  5
159C
330
2
100
AcDbEntity
  8
0
100
AcDbLine
 10
199.8360208495153
 20
229.6689685720077
 30
0.0
 11
199.8360208495153
 21
230.6689725720078
 31
0.0
  0
ARC
  5
159D
330
2
100
AcDbEntity
  8
0
100
AcDbCircle
 10
200.8360208495153
 20
229.6689685720077
 30
0.0
 40
1.0
100
AcDbArc
 50
180.0
 51
270.0
  0
ARC
  5
159E
330
2
100
AcDbEntity
  8
0
100
AcDbCircle
 10
197.8360208495153
 20
296.6689645720077
 30
0.0
 40
2.0
100
AcDbArc
 50
270.0
 51
0.0
  0
ARC
  5
159F
330
2
100
AcDbEntity
  8
0
100
AcDbCircle
 10
241.8360208495153
 20
296.6689645720077
 30
0.0
 40
2.0
100
AcDbArc
 50
180.0
 51
270.0
  0
ENDSEC
  0
SECTION
  2
OBJECTS
  0
DICTIONARY
  5
7
330
0
100
AcDbDictionary
  3
ACAD_GROUP
350
75
  3
ACAD_LAYOUT
350
61
  3
ACAD_MLINESTYLE
350
76
  3
ACAD_PLOTSETTINGS
350
77
  3
ACAD_PLOTSTYLENAME
350
6
  3
ACADDIM
350
480
  3
ACDBHEADERROUNDTRIPXREC
350
15DB
  3
ACDBVARIABLEDICTIONARY
350
102
  3
DWGPROPS
350
3D2
  0
DICTIONARY
  5
15FC
330
2
100
AcDbDictionary
280
     1
  3
ACAD_LAYOUTSELFREF
360
15FD
  0
DICTIONARY
  5
15FE
330
15D5
100
AcDbDictionary
280
     1
  3
ACAD_LAYOUTSELFREF
360
15FF
  0
DICTIONARY
  5
75
102
{ACAD_REACTORS
330
7
102
}
330
7
100
AcDbDictionary
  0
DICTIONARY
  5
61
102
{ACAD_REACTORS
330
7
102
}
330
7
100
AcDbDictionary
  0
DICTIONARY
  5
76
102
{ACAD_REACTORS
330
7
102
}
330
7
100
AcDbDictionary
  3
STANDARD
350
78
  0
DICTIONARY
  5
77
102
{ACAD_REACTORS
330
7
102
}
330
7
100
AcDbDictionary
  0
ACDBDICTIONARYWDFLT
  5
6
102
{ACAD_REACTORS
330
7
102
}
330
7
100
AcDbDictionary
281
     1
  3
Normal
350
5
100
AcDbDictionaryWithDefault
340
5
  0
XRECORD
  5
480
102
{ACAD_REACTORS
330
7
102
}
330
7
100
AcDbXrecord
 90
   990106
  3

 60
     0
 61
     0
 62
     1
 63
     3
 64
     1
 65
     0
 66
     0
 67
     3
 68
     1
 69
     0
 70
     0
 71
     0
 72
     0
 40
0.0
170
     2
340
0
  0
DICTIONARY
  5
15DB
102
{ACAD_REACTORS
330
7
102
}
330
7
100
AcDbDictionary
  3
CEPSNTYPE
350
15E5
  3
DIMSTYLEDATA
350
15E9
  3
FINGERPRINTGUID
350
15E6
  3
HYPERLINKBASE
350
15DE
  3
INSUNITS
350
15E4
  3
LAYOUTDICT
350
15E0
  3
LWETCUNION
350
15E3
  3
PLOTSETDICT
350
15E1
  3
PLOTSTYLNAMDICT
350
15E2
  3
PSVPSCALE
350
15E8
  3
PUCSBASE
350
15EC
  3
PUCSORGBACK
350
15F2
  3
PUCSORGBOTTOM
350
15EE
  3
PUCSORGFRONT
350
15F1
  3
PUCSORGLEFT
350
15EF
  3
PUCSORGRIGHT
350
15F0
  3
PUCSORGTOP
350
15ED
  3
PUCSORTHOREF
350
15EA
  3
PUCSORTHOVIEW
350
15EB
  3
STYLESHEET
350
15DF
  3
TSTACKALIGN
350
15DC
  3
TSTACKSIZE
350
15DD
  3
UCSBASE
350
15F5
  3
UCSORGBACK
350
15FB
  3
UCSORGBOTTOM
350
15F7
  3
UCSORGFRONT
350
15FA
  3
UCSORGLEFT
350
15F8
  3
UCSORGRIGHT
350
15F9
  3
UCSORGTOP
350
15F6
  3
UCSORTHOREF
350
15F3
  3
UCSORTHOVIEW
350
15F4
  3
VERSIONGUID
350
15E7
  0
DICTIONARY
  5
102
102
{ACAD_REACTORS
330
7
102
}
330
7
100
AcDbDictionary
  3
DIMASSOC
350
103
  0
XRECORD
  5
3D2
102
{ACAD_REACTORS
330
7
102
}
330
7
100
AcDbXrecord
  1
DWGPROPS COOKIE
  2

  3

  4

  6

  7

  8

  9

300
=
301
=
302
=
303
=
304
=
305
=
306
=
307
=
308
=
309
=
 40
0.5353330671296296
 41
2452052.431989363
 42
2453406.550756377
  1

 90
        0
  0
XRECORD
  5
15FD
102
{ACAD_REACTORS
330
15FC
102
}
330
15FC
100
AcDbXrecord
340
2
  0
XRECORD
  5
15FF
102
{ACAD_REACTORS
330
15FE
102
}
330
15FE
100
AcDbXrecord
340
15D5
  0
MLINESTYLE
  5
78
102
{ACAD_REACTORS
330
76
102
}
330
76
100
AcDbMlineStyle
  2
STANDARD
 70
     0
  3

 62
     0
 51
90.0
 52
90.0
 71
     2
 49
0.5
 62
   256
  6
BYLAYER
 49
-0.5
 62
   256
  6
BYLAYER
  0
ACDBPLACEHOLDER
  5
5
102
{ACAD_REACTORS
330
6
102
}
330
6
100
AcDbPlaceHolder
280
     0
  0
XRECORD
  5
15E5
102
{ACAD_REACTORS
330
15DB
102
}
330
15DB
100
AcDbXrecord
 90
        0
  0
XRECORD
  5
15E9
102
{ACAD_REACTORS
330
15DB
102
}
330
15DB
100
AcDbXrecord
1000
DSTYLE
1002
{
1070
   179
 70
     2
1070
   277
 70
     6
1002
}
  0
XRECORD
  5
15E6
102
{ACAD_REACTORS
330
15DB
102
}
330
15DB
100
AcDbXrecord
  1
{6385560B-F4B1-4644-A7C2-A3E32AC3D232}
  0
XRECORD
  5
15DE
102
{ACAD_REACTORS
330
15DB
102
}
330
15DB
100
AcDbXrecord
  1

  0
XRECORD
  5
15E4
102
{ACAD_REACTORS
330
15DB
102
}
330
15DB
100
AcDbXrecord
 90
        0
  0
XRECORD
  5
15E0
102
{ACAD_REACTORS
330
15DB
102
}
330
15DB
100
AcDbXrecord
340
61
  0
XRECORD
  5
15E3
102
{ACAD_REACTORS
330
15DB
102
}
330
15DB
100
AcDbXrecord
 90
    10781
  0
XRECORD
  5
15E1
102
{ACAD_REACTORS
330
15DB
102
}
330
15DB
100
AcDbXrecord
340
77
  0
XRECORD
  5
15E2
102
{ACAD_REACTORS
330
15DB
102
}
330
15DB
100
AcDbXrecord
340
6
  0
XRECORD
  5
15E8
102
{ACAD_REACTORS
330
15DB
102
}
330
15DB
100
AcDbXrecord
 40
0.0
  0
XRECORD
  5
15EC
102
{ACAD_REACTORS
330
15DB
102
}
330
15DB
100
AcDbXrecord
340
0
  0
XRECORD
  5
15F2
102
{ACAD_REACTORS
330
15DB
102
}
330
15DB
100
AcDbXrecord
 10
0.0
 20
0.0
 30
0.0
  0
XRECORD
  5
15EE
102
{ACAD_REACTORS
330
15DB
102
}
330
15DB
100
AcDbXrecord
 10
0.0
 20
0.0
 30
0.0
  0
XRECORD
  5
15F1
102
{ACAD_REACTORS
330
15DB
102
}
330
15DB
100
AcDbXrecord
 10
0.0
 20
0.0
 30
0.0
  0
XRECORD
  5
15EF
102
{ACAD_REACTORS
330
15DB
102
}
330
15DB
100
AcDbXrecord
 10
0.0
 20
0.0
 30
0.0
  0
XRECORD
  5
15F0
102
{ACAD_REACTORS
330
15DB
102
}
330
15DB
100
AcDbXrecord
 10
0.0
 20
0.0
 30
0.0
  0
XRECORD
  5
15ED
102
{ACAD_REACTORS
330
15DB
102
}
330
15DB
100
AcDbXrecord
 10
0.0
 20
0.0
 30
0.0
  0
XRECORD
  5
15EA
102
{ACAD_REACTORS
330
15DB
102
}
330
15DB
100
AcDbXrecord
340
0
  0
XRECORD
  5
15EB
102
{ACAD_REACTORS
330
15DB
102
}
330
15DB
100
AcDbXrecord
 70
     0
  0
XRECORD
  5
15DF
102
{ACAD_REACTORS
330
15DB
102
}
330
15DB
100
AcDbXrecord
  1
Sekkei.ctb
  0
XRECORD
  5
15DC
102
{ACAD_REACTORS
330
15DB
102
}
330
15DB
100
AcDbXrecord
 90
        1
  0
XRECORD
  5
15DD
102
{ACAD_REACTORS
330
15DB
102
}
330
15DB
100
AcDbXrecord
 90
       70
  0
XRECORD
  5
15F5
102
{ACAD_REACTORS
330
15DB
102
}
330
15DB
100
AcDbXrecord
340
0
  0
XRECORD
  5
15FB
102
{ACAD_REACTORS
330
15DB
102
}
330
15DB
100
AcDbXrecord
 10
0.0
 20
0.0
 30
0.0
  0
XRECORD
  5
15F7
102
{ACAD_REACTORS
330
15DB
102
}
330
15DB
100
AcDbXrecord
 10
0.0
 20
0.0
 30
0.0
  0
XRECORD
  5
15FA
102
{ACAD_REACTORS
330
15DB
102
}
330
15DB
100
AcDbXrecord
 10
0.0
 20
0.0
 30
0.0
  0
XRECORD
  5
15F8
102
{ACAD_REACTORS
330
15DB
102
}
330
15DB
100
AcDbXrecord
 10
0.0
 20
0.0
 30
0.0
  0
XRECORD
  5
15F9
102
{ACAD_REACTORS
330
15DB
102
}
330
15DB
100
AcDbXrecord
 10
0.0
 20
0.0
 30
0.0
  0
XRECORD
  5
15F6
102
{ACAD_REACTORS
330
15DB
102
}
330
15DB
100
AcDbXrecord
 10
0.0
 20
0.0
 30
0.0
  0
XRECORD
  5
15F3
102
{ACAD_REACTORS
330
15DB
102
}
330
15DB
100
AcDbXrecord
340
0
  0
XRECORD
  5
15F4
102
{ACAD_REACTORS
330
15DB
102
}
330
15DB
100
AcDbXrecord
 70
     0
  0
XRECORD
  5
15E7
102
{ACAD_REACTORS
330
15DB
102
}
330
15DB
100
AcDbXrecord
  1
{69C9733C-3F2F-4A92-A5C0-BCFDB9A68A54}
  0
DICTIONARYVAR
  5
103
102
{ACAD_REACTORS
330
102
102
}
330
102
100
DictionaryVariables
280
     0
  1
1
  0
ENDSEC
  0
EOF
