  0
SECTION
  2
HEADER
  9
$ACADVER
  1
AC1014
  9
$ACADMAINTVER
 70
     9
  9
$DWGCODEPAGE
  3
ANSI_932
  9
$INSBASE
 10
0.0
 20
0.0
 30
0.0
  9
$EXTMIN
 10
39.75970267087097
 20
44.07435338451853
 30
0.0
  9
$EXTMAX
 10
460.1093211812674
 20
335.8907759558532
 30
0.0
  9
$LIMMIN
 10
0.0
 20
0.0
  9
$LIMMAX
 10
297.0
 20
210.0
  9
$ORTHOMODE
 70
     1
  9
$REGENMODE
 70
     1
  9
$FILLMODE
 70
     1
  9
$QTEXTMODE
 70
     0
  9
$MIRRTEXT
 70
     0
  9
$DRAGMODE
 70
     2
  9
$LTSCALE
 40
2.0
  9
$OSMODE
 70
    37
  9
$ATTMODE
 70
     1
  9
$TEXTSIZE
 40
2.0
  9
$TRACEWID
 40
1.0
  9
$TEXTSTYLE
  7
STANDARD
  9
$CLAYER
  8
0
  9
$CELTYPE
  6
BYLAYER
  9
$CECOLOR
 62
   256
  9
$CELTSCALE
 40
1.0
  9
$DELOBJ
 70
     1
  9
$DISPSILH
 70
     0
  9
$DIMSCALE
 40
2.0
  9
$DIMASZ
 40
1.8
  9
$DIMEXO
 40
0.625
  9
$DIMDLI
 40
3.75
  9
$DIMRND
 40
0.0
  9
$DIMDLE
 40
0.0
  9
$DIMEXE
 40
0.8
  9
$DIMTP
 40
0.0
  9
$DIMTM
 40
0.0
  9
$DIMTXT
 40
1.8
  9
$DIMCEN
 40
2.5
  9
$DIMTSZ
 40
0.0
  9
$DIMTOL
 70
     0
  9
$DIMLIM
 70
     0
  9
$DIMTIH
 70
     0
  9
$DIMTOH
 70
     0
  9
$DIMSE1
 70
     0
  9
$DIMSE2
 70
     0
  9
$DIMTAD
 70
     1
  9
$DIMZIN
 70
     8
  9
$DIMBLK
  1

  9
$DIMASO
 70
     1
  9
$DIMSHO
 70
     1
  9
$DIMPOST
  1

  9
$DIMAPOST
  1

  9
$DIMALT
 70
     0
  9
$DIMALTD
 70
     4
  9
$DIMALTF
 40
0.0394
  9
$DIMLFAC
 40
1.0
  9
$DIMTOFL
 70
     1
  9
$DIMTVP
 40
0.0
  9
$DIMTIX
 70
     0
  9
$DIMSOXD
 70
     0
  9
$DIMSAH
 70
     0
  9
$DIMBLK1
  1

  9
$DIMBLK2
  1

  9
$DIMSTYLE
  2
STANDARD
  9
$DIMCLRD
 70
     0
  9
$DIMCLRE
 70
     0
  9
$DIMCLRT
 70
     0
  9
$DIMTFAC
 40
1.0
  9
$DIMGAP
 40
0.75
  9
$DIMJUST
 70
     0
  9
$DIMSD1
 70
     0
  9
$DIMSD2
 70
     0
  9
$DIMTOLJ
 70
     1
  9
$DIMTZIN
 70
     0
  9
$DIMALTZ
 70
     0
  9
$DIMALTTZ
 70
     0
  9
$DIMFIT
 70
     3
  9
$DIMUPT
 70
     0
  9
$DIMUNIT
 70
     8
  9
$DIMDEC
 70
     2
  9
$DIMTDEC
 70
     2
  9
$DIMALTU
 70
     8
  9
$DIMALTTD
 70
     4
  9
$DIMTXSTY
  7
STANDARD
  9
$DIMAUNIT
 70
     0
  9
$LUNITS
 70
     2
  9
$LUPREC
 70
     3
  9
$SKETCHINC
 40
1.0
  9
$FILLETRAD
 40
10.0
  9
$AUNITS
 70
     0
  9
$AUPREC
 70
     2
  9
$MENU
  1
.
  9
$ELEVATION
 40
0.0
  9
$PELEVATION
 40
0.0
  9
$THICKNESS
 40
0.0
  9
$LIMCHECK
 70
     0
  9
$BLIPMODE
 70
     0
  9
$CHAMFERA
 40
0.0
  9
$CHAMFERB
 40
0.0
  9
$CHAMFERC
 40
20.0
  9
$CHAMFERD
 40
0.0
  9
$SKPOLY
 70
     0
  9
$TDCREATE
 40
2453753.555724282
  9
$TDUPDATE
 40
2454399.558502604
  9
$TDINDWG
 40
0.2975587500
  9
$TDUSRTIMER
 40
0.2975587500
  9
$USRTIMER
 70
     1
  9
$ANGBASE
 50
0.0
  9
$ANGDIR
 70
     0
  9
$PDMODE
 70
     0
  9
$PDSIZE
 40
-10.0
  9
$PLINEWID
 40
0.0
  9
$COORDS
 70
     1
  9
$SPLFRAME
 70
     0
  9
$SPLINETYPE
 70
     6
  9
$SPLINESEGS
 70
     8
  9
$ATTDIA
 70
     0
  9
$ATTREQ
 70
     1
  9
$HANDLING
 70
-16383
  9
$HANDSEED
  5
184A
  9
$SURFTAB1
 70
     6
  9
$SURFTAB2
 70
     6
  9
$SURFTYPE
 70
     6
  9
$SURFU
 70
     6
  9
$SURFV
 70
     6
  9
$UCSNAME
  2

  9
$UCSORG
 10
0.0
 20
0.0
 30
0.0
  9
$UCSXDIR
 10
1.0
 20
0.0
 30
0.0
  9
$UCSYDIR
 10
0.0
 20
1.0
 30
0.0
  9
$PUCSNAME
  2

  9
$PUCSORG
 10
0.0
 20
0.0
 30
0.0
  9
$PUCSXDIR
 10
1.0
 20
0.0
 30
0.0
  9
$PUCSYDIR
 10
0.0
 20
1.0
 30
0.0
  9
$USERI1
 70
     0
  9
$USERI2
 70
     0
  9
$USERI3
 70
     0
  9
$USERI4
 70
     0
  9
$USERI5
 70
     0
  9
$USERR1
 40
0.0
  9
$USERR2
 40
0.0
  9
$USERR3
 40
0.0
  9
$USERR4
 40
0.0
  9
$USERR5
 40
0.0
  9
$WORLDVIEW
 70
     1
  9
$SHADEDGE
 70
     3
  9
$SHADEDIF
 70
    70
  9
$TILEMODE
 70
     1
  9
$MAXACTVP
 70
    48
  9
$PINSBASE
 10
0.0
 20
0.0
 30
0.0
  9
$PLIMCHECK
 70
     0
  9
$PEXTMIN
 10
0.0
 20
0.0
 30
0.0
  9
$PEXTMAX
 10
0.0
 20
0.0
 30
0.0
  9
$PLIMMIN
 10
0.0
 20
0.0
  9
$PLIMMAX
 10
12.0
 20
9.0
  9
$UNITMODE
 70
     0
  9
$VISRETAIN
 70
     1
  9
$PLINEGEN
 70
     0
  9
$PSLTSCALE
 70
     1
  9
$TREEDEPTH
 70
  3020
  9
$PICKSTYLE
 70
     1
  9
$CMLSTYLE
  2
STANDARD
  9
$CMLJUST
 70
     0
  9
$CMLSCALE
 40
1.0
  9
$PROXYGRAPHICS
 70
     1
  9
$MEASUREMENT
 70
     0
  0
ENDSEC
  0
SECTION
  2
CLASSES
  0
CLASS
  1
DICTIONARYVAR
  2
AcDbDictionaryVar
  3
AutoCAD 2000
 90
        0
280
     0
281
     0
  0
CLASS
  1
ACDBDICTIONARYWDFLT
  2
AcDbDictionaryWithDefault
  3
AutoCAD 2000
 90
        0
280
     0
281
     0
  0
CLASS
  1
ACDBPLACEHOLDER
  2
AcDbPlaceHolder
  3
AutoCAD 2000
 90
        0
280
     0
281
     0
  0
CLASS
  1
LAYOUT
  2
AcDbLayout
  3
AutoCAD 2000
 90
        0
280
     0
281
     0
  0
CLASS
  1
LONG_TRANSACTION
  2
AcDbLongTransaction
  3
AutoCAD 2000
 90
        0
280
     0
281
     0
  0
CLASS
  1
LWPOLYLINE
  2
AcDbPolyline
  3
AutoCAD 2000
 90
        0
280
     0
281
     1
  0
CLASS
  1
HATCH
  2
AcDbHatch
  3
AutoCAD 2000
 90
        0
280
     0
281
     1
  0
CLASS
  1
XRECORD
  2
AcDbXrecord
  3
AutoCAD 2000
 90
        0
280
     0
281
     0
  0
ENDSEC
  0
SECTION
  2
TABLES
  0
TABLE
  2
VPORT
  5
6E
330
0
100
AcDbSymbolTable
 70
     2
  0
VPORT
  5
1824
330
6E
100
AcDbSymbolTableRecord
100
AcDbViewportTableRecord
  2
*ACTIVE
 70
     0
 10
0.0
 20
0.0
 11
1.0
 21
1.0
 12
243.2887020585821
 22
178.3112807149632
 13
0.0
 23
0.0
 14
10.0
 24
10.0
 15
10.0
 25
10.0
 16
0.0
 26
0.0
 36
1.0
 17
0.0
 27
0.0
 37
0.0
 40
317.5946617221167
 41
1.540920716112531
 42
50.0
 43
0.0
 44
0.0
 50
0.0
 51
0.0
 71
     0
 72
   100
 73
     1
 74
     3
 75
     0
 76
     0
 77
     0
 78
     0
  0
ENDTAB
  0
TABLE
  2
LTYPE
  5
69
330
0
100
AcDbSymbolTable
 70
     4
  0
LTYPE
  5
6A
330
69
100
AcDbSymbolTableRecord
100
AcDbLinetypeTableRecord
  2
BYBLOCK
 70
     0
  3

 72
    65
 73
     0
 40
0.0
  0
LTYPE
  5
6B
330
69
100
AcDbSymbolTableRecord
100
AcDbLinetypeTableRecord
  2
BYLAYER
 70
     0
  3

 72
    65
 73
     0
 40
0.0
  0
LTYPE
  5
8
330
69
100
AcDbSymbolTableRecord
100
AcDbLinetypeTableRecord
  2
CONTINUOUS
 70
     0
  3
Solid line
 72
    65
 73
     0
 40
0.0
  0
LTYPE
  5
27C
330
69
100
AcDbSymbolTableRecord
100
AcDbLinetypeTableRecord
  2
SEKKEI_A2_
 70
     0
  3
center(A2)  ____ _ ____ _ ____ _ ____ _ ____ _ 
 72
    65
 73
     4
 40
14.28749999999999
 49
9.525
 74
     0
 49
-1.587499999999999
 74
     0
 49
1.587499999999999
 74
     0
 49
-1.587499999999999
 74
     0
  0
LTYPE
  5
2B4
330
69
100
AcDbSymbolTableRecord
100
AcDbLinetypeTableRecord
  2
HIDDEN2
 70
     0
  3
Hidden (.5x) _ _ _ _ _ _ _ _ _ _ _ _ _ _ _ _ _
 72
    65
 73
     2
 40
4.762499999999999
 49
3.174999999999999
 74
     0
 49
-1.587499999999999
 74
     0
  0
LTYPE
  5
48F
330
69
100
AcDbSymbolTableRecord
100
AcDbLinetypeTableRecord
  2
SEKKEI_H
 70
     0
  3
Hidden-S _ _ _ _ _ _ _ _ _ _ _ _ _ _ _ _ _
 72
    65
 73
     2
 40
2.381249999999999
 49
1.587499999999999
 74
     0
 49
-0.79375
 74
     0
  0
ENDTAB
  0
TABLE
  2
LAYER
  5
66
330
0
100
AcDbSymbolTable
 70
     9
  0
LAYER
  5
5E
330
66
100
AcDbSymbolTableRecord
100
AcDbLayerTableRecord
  2
0
 70
     0
 62
     7
  6
CONTINUOUS
  0
LAYER
  5
3E
330
66
100
AcDbSymbolTableRecord
100
AcDbLayerTableRecord
  2
CENTER
 70
     0
 62
     3
  6
SEKKEI_A2_
  0
LAYER
  5
2B5
330
66
100
AcDbSymbolTableRecord
100
AcDbLayerTableRecord
  2
HIDS
 70
     0
 62
     1
  6
HIDDEN2
  0
LAYER
  5
2BA
330
66
100
AcDbSymbolTableRecord
100
AcDbLayerTableRecord
  2
HOJO
 70
     0
 62
     4
  6
CONTINUOUS
  0
LAYER
  5
3FA
330
66
100
AcDbSymbolTableRecord
100
AcDbLayerTableRecord
  2
TITLE
 70
     0
 62
     4
  6
CONTINUOUS
  0
ENDTAB
  0
TABLE
  2
STYLE
  5
67
330
0
100
AcDbSymbolTable
 70
     1
  0
STYLE
  5
16
330
67
100
AcDbSymbolTableRecord
100
AcDbTextStyleTableRecord
  2
STANDARD
 70
     0
 40
0.0
 41
1.0
 50
0.0
 71
     0
 42
2.0
  3
simplex.shx
  4
extfont.shx
  0
ENDTAB
  0
TABLE
  2
VIEW
  5
6C
330
0
100
AcDbSymbolTable
 70
     0
  0
ENDTAB
  0
TABLE
  2
UCS
  5
6D
330
0
100
AcDbSymbolTable
 70
     0
  0
ENDTAB
  0
TABLE
  2
APPID
  5
70
330
0
100
AcDbSymbolTable
 70
     1
  0
APPID
  5
71
330
70
100
AcDbSymbolTableRecord
100
AcDbRegAppTableRecord
  2
ACAD
 70
     0
  0
ENDTAB
  0
TABLE
  2
DIMSTYLE
  5
72
330
0
100
AcDbSymbolTable
 70
     1
  0
DIMSTYLE
105
73
330
72
100
AcDbSymbolTableRecord
100
AcDbDimStyleTableRecord
  2
STANDARD
 70
     0
  3

  4

  5

  6

  7

 40
2.0
 41
1.8
 42
0.625
 43
3.75
 44
0.8
 45
0.0
 46
0.0
 47
0.0
 48
0.0
140
1.8
141
2.5
142
0.0
143
0.0394
144
1.0
145
0.0
146
1.0
147
0.75
 71
     0
 72
     0
 73
     0
 74
     0
 75
     0
 76
     0
 77
     1
 78
     8
170
     0
171
     4
172
     1
173
     0
174
     0
175
     0
176
     0
177
     0
178
     0
270
     8
271
     2
272
     2
273
     8
274
     4
340
16
275
     0
280
     0
281
     0
282
     0
283
     1
284
     0
285
     0
286
     0
287
     3
288
     0
  0
ENDTAB
  0
TABLE
  2
BLOCK_RECORD
  5
1
330
0
100
AcDbSymbolTable
 70
    56
  0
BLOCK_RECORD
  5
2
102
{ACAD_XDICTIONARY
360
1846
102
}
330
1
100
AcDbSymbolTableRecord
100
AcDbBlockTableRecord
  2
*MODEL_SPACE
  0
BLOCK_RECORD
  5
181F
102
{ACAD_XDICTIONARY
360
1848
102
}
330
1
100
AcDbSymbolTableRecord
100
AcDbBlockTableRecord
  2
*PAPER_SPACE
  0
ENDTAB
  0
ENDSEC
  0
SECTION
  2
BLOCKS
  0
BLOCK
  5
5D
330
2
100
AcDbEntity
  8
0
100
AcDbBlockBegin
  2
*MODEL_SPACE
 70
     0
 10
0.0
 20
0.0
 30
0.0
  3
*MODEL_SPACE
  1

  0
ENDBLK
  5
5F
330
2
100
AcDbEntity
  8
0
100
AcDbBlockEnd
  0
BLOCK
  5
1821
330
181F
100
AcDbEntity
 67
     1
  8
0
100
AcDbBlockBegin
  2
*PAPER_SPACE
 70
     0
 10
0.0
 20
0.0
 30
0.0
  3
*PAPER_SPACE
  1

  0
ENDBLK
  5
1822
330
181F
100
AcDbEntity
 67
     1
  8
0
100
AcDbBlockEnd
  0
ENDSEC
  0
SECTION
  2
ENTITIES
  0
LINE
  5
618
330
2
100
AcDbEntity
  8
0
100
AcDbLine
 10
220.2597046708709
 20
328.8907759558532
 30
0.0
 11
258.9912256708708
 21
328.8907759558532
 31
0.0
  0
LINE
  5
619
330
2
100
AcDbEntity
  8
0
100
AcDbLine
 10
239.2597046708709
 20
246.8907909558532
 30
0.0
 11
201.2597046708709
 21
246.8907909558532
 31
0.0
  0
LINE
  5
61A
330
2
100
AcDbEntity
  8
0
100
AcDbLine
 10
211.7597046708709
 20
244.8907909558532
 30
0.0
 11
228.7597046708709
 21
244.8907909558532
 31
0.0
  0
LINE
  5
61B
330
2
100
AcDbEntity
  8
0
100
AcDbLine
 10
212.7597046708709
 20
217.8907909558532
 30
0.0
 11
229.7597046708709
 21
217.8907909558532
 31
0.0
  0
LINE
  5
61C
330
2
100
AcDbEntity
  8
0
100
AcDbLine
 10
180.2662046708709
 20
250.8907909558532
 30
0.0
 11
260.2532046708708
 21
250.8907909558532
 31
0.0
  0
LINE
  5
61D
330
2
100
AcDbEntity
  8
0
100
AcDbLine
 10
180.2662046708709
 20
312.8907909558532
 30
0.0
 11
260.2532046708708
 21
312.8907909558532
 31
0.0
  0
LINE
  5
61E
330
2
100
AcDbEntity
  8
CENTER
100
AcDbLine
 10
39.75970267087097
 20
281.8907909558532
 30
0.0
 11
269.7597046708709
 21
281.8907909558531
 31
0.0
  0
LINE
  5
61F
330
2
100
AcDbEntity
  8
0
100
AcDbLine
 10
226.6347046708709
 20
88.46644238451853
 30
0.0
 11
227.1078036708709
 21
88.46644238451853
 31
0.0
  0
LINE
  5
620
330
2
100
AcDbEntity
  8
0
100
AcDbLine
 10
228.6392976708709
 20
80.07435238451853
 30
0.0
 11
226.6347046708709
 21
80.07435238451853
 31
0.0
  0
LINE
  5
621
330
2
100
AcDbEntity
  8
0
100
AcDbLine
 10
226.6347046708709
 20
81.07044238451852
 30
0.0
 11
227.1078036708709
 21
81.07044238451852
 31
0.0
  0
LINE
  5
622
330
2
100
AcDbEntity
  8
0
100
AcDbLine
 10
226.6347046708709
 20
89.63685238451853
 30
0.0
 11
230.4571986708709
 21
89.63685238451853
 31
0.0
  0
CIRCLE
  5
623
330
2
100
AcDbEntity
  8
0
100
AcDbCircle
 10
220.2597046708709
 20
116.0743563845185
 30
0.0
 40
20.0
  0
ARC
  5
624
330
2
100
AcDbEntity
  8
0
100
AcDbCircle
 10
220.2597046708709
 20
116.0743563845185
 30
0.0
 40
7.5
100
AcDbArc
 50
19.47121000000005
 51
340.5288089999999
  0
LINE
  5
625
330
2
100
AcDbEntity
  8
0
100
AcDbLine
 10
224.7597046708709
 20
113.5743563845185
 30
0.0
 11
229.7597046708709
 21
113.5743563845185
 31
0.0
  0
LINE
  5
626
330
2
100
AcDbEntity
  8
0
100
AcDbLine
 10
224.7597046708709
 20
118.5743563845185
 30
0.0
 11
229.7597046708709
 21
118.5743563845185
 31
0.0
  0
ARC
  5
627
330
2
100
AcDbEntity
  8
0
100
AcDbCircle
 10
220.2597046708709
 20
103.0743523845185
 30
0.0
 40
42.5
100
AcDbArc
 50
19.749901
 51
160.2501069999997
  0
ARC
  5
628
330
2
100
AcDbEntity
  8
0
100
AcDbCircle
 10
220.2597046708709
 20
103.0743523845185
 30
0.0
 40
42.5
100
AcDbArc
 50
199.7498930000002
 51
340.2500920000002
  0
LINE
  5
629
330
2
100
AcDbEntity
  8
0
100
AcDbLine
 10
179.7597046708709
 20
59.07435338451853
 30
0.0
 11
260.7597046708709
 21
59.07435338451853
 31
0.0
  0
LINE
  5
62A
330
2
100
AcDbEntity
  8
0
100
AcDbLine
 10
206.8392026708709
 20
148.6743553845185
 30
0.0
 11
233.6802066708709
 21
148.6743553845185
 31
0.0
  0
LINE
  5
62B
330
2
100
AcDbEntity
  8
0
100
AcDbLine
 10
177.7597046708709
 20
51.07435338451853
 30
0.0
 11
262.7597046708709
 21
51.07435338451853
 31
0.0
  0
LINE
  5
62C
330
2
100
AcDbEntity
  8
CENTER
100
AcDbLine
 10
193.5097671784689
 20
116.0743563845185
 30
0.0
 11
247.509642163273
 21
116.0743563845185
 31
0.0
  0
LINE
  5
62D
330
2
100
AcDbEntity
  8
0
100
AcDbLine
 10
105.2596506708709
 20
63.77435338451852
 30
0.0
 11
177.7597046708709
 21
63.77435338451852
 31
0.0
  0
LINE
  5
62E
330
2
100
AcDbEntity
  8
0
100
AcDbLine
 10
105.2596506708709
 20
123.7743533845185
 30
0.0
 11
177.7597046708709
 21
123.7743533845185
 31
0.0
  0
LINE
  5
62F
330
2
100
AcDbEntity
  8
0
100
AcDbLine
 10
105.2597046708709
 20
55.77435338451852
 30
0.0
 11
177.7597046708709
 21
55.77435338451852
 31
0.0
  0
LINE
  5
630
330
2
100
AcDbEntity
  8
0
100
AcDbLine
 10
105.2597046708709
 20
131.7743533845185
 30
0.0
 11
181.1793976708709
 21
131.7743533845185
 31
0.0
  0
LINE
  5
631
330
2
100
AcDbEntity
  8
CENTER
100
AcDbLine
 10
39.75970267087097
 20
93.77435338451851
 30
0.0
 11
197.0097046708709
 21
93.77435338451851
 31
0.0
  0
LINE
  5
632
330
2
100
AcDbEntity
  8
0
100
AcDbLine
 10
105.2597046708709
 20
55.77435338451852
 30
0.0
 11
105.2597046708709
 21
131.7743533845185
 31
0.0
  0
LINE
  5
633
330
2
100
AcDbEntity
  8
0
100
AcDbLine
 10
46.75970267087092
 20
58.77435338451852
 30
0.0
 11
46.75970267087092
 21
128.7743533845185
 31
0.0
  0
LINE
  5
634
330
2
100
AcDbEntity
  8
0
100
AcDbLine
 10
95.75970467087097
 20
53.77435338451852
 30
0.0
 11
95.75970467087097
 21
133.7743533845185
 31
0.0
  0
ARC
  5
635
330
2
100
AcDbEntity
  8
0
100
AcDbCircle
 10
51.75970267087092
 20
58.77435338451852
 30
0.0
 40
5.0
100
AcDbArc
 50
180.0
 51
270.0
  0
LINE
  5
637
330
2
100
AcDbEntity
  8
0
100
AcDbLine
 10
49.25970267087092
 20
69.77435338451852
 30
0.0
 11
95.75970467087097
 21
69.77435338451852
 31
0.0
  0
LINE
  5
638
330
2
100
AcDbEntity
  8
0
100
AcDbLine
 10
51.75970367087092
 20
53.77435338451852
 30
0.0
 11
95.75970467087097
 21
53.77435338451852
 31
0.0
  0
LINE
  5
639
330
2
100
AcDbEntity
  8
0
100
AcDbLine
 10
95.75970467087097
 20
63.52535238451853
 30
0.0
 11
105.2597046708709
 21
63.52535238451853
 31
0.0
  0
LINE
  5
63A
330
2
100
AcDbEntity
  8
0
100
AcDbLine
 10
95.75970467087097
 20
55.77435338451852
 30
0.0
 11
105.2597046708709
 21
55.77435338451852
 31
0.0
  0
ARC
  5
63B
330
2
100
AcDbEntity
  8
0
100
AcDbCircle
 10
51.75972767087092
 20
128.7743763845185
 30
0.0
 40
5.0
100
AcDbArc
 50
90.0
 51
180.0
  0
LINE
  5
63C
330
2
100
AcDbEntity
  8
0
100
AcDbLine
 10
104.9597016708709
 20
145.6493533845185
 30
0.0
 11
104.9597016708709
 21
133.2743533845185
 31
0.0
  0
LINE
  5
63D
330
2
100
AcDbEntity
  8
0
100
AcDbLine
 10
99.55970367087093
 20
144.8368533845185
 30
0.0
 11
99.55970367087093
 21
133.2743533845185
 31
0.0
  0
LINE
  5
63E
330
2
100
AcDbEntity
  8
0
100
AcDbLine
 10
101.3597026708709
 20
146.8993533845185
 30
0.0
 11
101.3597026708709
 21
133.2743533845185
 31
0.0
  0
LINE
  5
63F
330
2
100
AcDbEntity
  8
0
100
AcDbLine
 10
103.1597136708709
 20
146.2743533845185
 30
0.0
 11
103.1597136708709
 21
133.2743533845185
 31
0.0
  0
LINE
  5
640
330
2
100
AcDbEntity
  8
0
100
AcDbLine
 10
49.25970267087092
 20
119.7743533845185
 30
0.0
 11
95.75970467087097
 21
119.7743533845185
 31
0.0
  0
LINE
  5
641
330
2
100
AcDbEntity
  8
0
100
AcDbLine
 10
51.75970267087092
 20
133.7743533845185
 30
0.0
 11
95.75970467087097
 21
133.7743533845185
 31
0.0
  0
ARC
  5
642
330
2
100
AcDbEntity
  8
0
100
AcDbCircle
 10
95.75970467087097
 20
116.3993533845185
 30
0.0
 40
4.5
100
AcDbArc
 50
0.0
 51
90.0
  0
ARC
  5
643
330
2
100
AcDbEntity
  8
0
100
AcDbCircle
 10
95.75970467087097
 20
116.3993533845185
 30
0.0
 40
3.0
100
AcDbArc
 50
0.0
 51
90.0
  0
LINE
  5
644
330
2
100
AcDbEntity
  8
HOJO
100
AcDbLine
 10
98.75970467087098
 20
112.3972553845185
 30
0.0
 11
100.2597046708709
 21
113.1764533845185
 31
0.0
  0
LINE
  5
645
330
2
100
AcDbEntity
  8
0
100
AcDbLine
 10
98.75970467087098
 20
116.3993533845185
 30
0.0
 11
98.75970467087098
 21
111.3625563845185
 31
0.0
  0
LINE
  5
646
330
2
100
AcDbEntity
  8
0
100
AcDbLine
 10
97.25970467087098
 20
116.3993533845185
 30
0.0
 11
97.25970467087098
 21
112.1567543845185
 31
0.0
  0
LINE
  5
647
330
2
100
AcDbEntity
  8
HOJO
100
AcDbLine
 10
97.26210367087094
 20
112.1612553845185
 30
0.0
 11
98.75970467087098
 21
111.3625563845185
 31
0.0
  0
ARC
  5
648
330
2
100
AcDbEntity
  8
0
100
AcDbCircle
 10
95.75970467087097
 20
116.3993533845185
 30
0.0
 40
1.5
100
AcDbArc
 50
0.0
 51
90.0
  0
LINE
  5
649
330
2
100
AcDbEntity
  8
0
100
AcDbLine
 10
100.2597046708709
 20
116.3993533845185
 30
0.0
 11
100.2597046708709
 21
113.1764533845185
 31
0.0
  0
LINE
  5
64A
330
2
100
AcDbEntity
  8
0
100
AcDbLine
 10
95.75970467087097
 20
124.0233543845185
 30
0.0
 11
105.2597046708709
 21
124.0233543845185
 31
0.0
  0
LINE
  5
64B
330
2
100
AcDbEntity
  8
0
100
AcDbLine
 10
98.75970467087098
 20
133.2743533845185
 30
0.0
 11
105.7597046708709
 21
133.2743533845185
 31
0.0
  0
LINE
  5
64C
330
2
100
AcDbEntity
  8
0
100
AcDbLine
 10
95.75970467087097
 20
131.7743533845185
 30
0.0
 11
105.2597046708709
 21
131.7743533845185
 31
0.0
  0
LINE
  5
64D
330
2
100
AcDbEntity
  8
0
100
AcDbLine
 10
98.75970467087098
 20
133.2743533845185
 30
0.0
 11
98.75970467087098
 21
131.7743533845185
 31
0.0
  0
LINE
  5
64E
330
2
100
AcDbEntity
  8
0
100
AcDbLine
 10
105.7597046708709
 20
133.2743533845185
 30
0.0
 11
105.7597046708709
 21
131.7743533845185
 31
0.0
  0
LINE
  5
64F
330
2
100
AcDbEntity
  8
HOJO
100
AcDbLine
 10
101.3597026708709
 20
146.8993533845185
 30
0.0
 11
103.1597136708709
 21
146.2743533845185
 31
0.0
  0
LINE
  5
650
330
2
100
AcDbEntity
  8
HOJO
100
AcDbLine
 10
99.55970367087093
 20
144.8368533845185
 30
0.0
 11
101.3597026708709
 21
145.4618533845185
 31
0.0
  0
LINE
  5
651
330
2
100
AcDbEntity
  8
HOJO
100
AcDbLine
 10
104.9597016708709
 20
145.6493533845185
 30
0.0
 11
103.1607126708709
 21
145.2016453845185
 31
0.0
  0
LINE
  5
652
330
2
100
AcDbEntity
  8
0
100
AcDbLine
 10
180.2597046708709
 20
117.4356233845185
 30
0.0
 11
180.2597046708709
 21
88.7128143845185
 31
0.0
  0
LINE
  5
653
330
2
100
AcDbEntity
  8
CENTER
100
AcDbLine
 10
220.2597046708709
 20
155.6743553845184
 30
0.0
 11
220.2597046708709
 21
44.07435338451853
 31
0.0
  0
LINE
  5
654
330
2
100
AcDbEntity
  8
0
100
AcDbLine
 10
177.7597046708709
 20
126.7749563845185
 30
0.0
 11
177.7597046708709
 21
51.07435338451853
 31
0.0
  0
LINE
  5
655
330
2
100
AcDbEntity
  8
HIDS
  6
SEKKEI_H
100
AcDbLine
 10
183.0097046708709
 20
59.07435338451853
 30
0.0
 11
183.0097046708709
 21
51.07435338451853
 31
0.0
  0
LINE
  5
656
330
2
100
AcDbEntity
  8
HIDS
  6
SEKKEI_H
100
AcDbLine
 10
189.5097046708709
 20
59.07435338451853
 30
0.0
 11
189.5097046708709
 21
51.07435338451853
 31
0.0
  0
LINE
  5
657
330
2
100
AcDbEntity
  8
CENTER
100
AcDbLine
 10
186.2597046708709
 20
62.57435338451853
 30
0.0
 11
186.2597046708709
 21
47.57435338451853
 31
0.0
  0
ARC
  5
658
330
2
100
AcDbEntity
  8
0
100
AcDbCircle
 10
179.7597046708709
 20
57.0743633845185
 30
0.0
 40
2.0
100
AcDbArc
 50
90.0
 51
180.0
  0
LINE
  5
659
330
2
100
AcDbEntity
  8
0
100
AcDbLine
 10
211.2949066708709
 20
85.62757538451851
 30
0.0
 11
213.8847046708709
 21
85.62757538451851
 31
0.0
  0
LINE
  5
65A
330
2
100
AcDbEntity
  8
0
100
AcDbLine
 10
208.7395016708709
 20
80.07435238451853
 30
0.0
 11
212.0548096708709
 21
80.07435238451853
 31
0.0
  0
ARC
  5
65B
330
2
100
AcDbEntity
  8
0
100
AcDbCircle
 10
210.9710996708709
 20
83.18714138451852
 30
0.0
 40
1.992186999999999
100
AcDbArc
 50
270.0002139999998
 51
0.0001089999998967
  0
LINE
  5
65C
330
2
100
AcDbEntity
  8
0
100
AcDbLine
 10
212.9633026708709
 20
84.58167638451852
 30
0.0
 11
211.2949066708709
 21
84.58167638451852
 31
0.0
  0
LINE
  5
65D
330
2
100
AcDbEntity
  8
0
100
AcDbLine
 10
208.6670986708709
 20
89.63685238451853
 30
0.0
 11
212.9537046708709
 21
89.63685238451853
 31
0.0
  0
LINE
  5
65E
330
2
100
AcDbEntity
  8
0
100
AcDbLine
 10
212.3722076708709
 20
88.36683338451852
 30
0.0
 11
209.3003076708709
 21
88.36683338451852
 31
0.0
  0
LINE
  5
65F
330
2
100
AcDbEntity
  8
0
100
AcDbLine
 10
208.5805056708709
 20
87.47433138451851
 30
0.0
 11
208.5805056708709
 21
81.96527538451851
 31
0.0
  0
LINE
  5
660
330
2
100
AcDbEntity
  8
0
100
AcDbLine
 10
207.5097046708709
 20
88.15485438451853
 30
0.0
 11
207.5097046708709
 21
81.31521238451853
 31
0.0
  0
LINE
  5
661
330
2
100
AcDbEntity
  8
0
100
AcDbLine
 10
207.5097046708709
 20
81.31521238451853
 30
0.0
 11
208.7395016708709
 21
80.07435238451853
 31
0.0
  0
LINE
  5
662
330
2
100
AcDbEntity
  8
0
100
AcDbLine
 10
211.2949066708709
 20
85.62757538451851
 30
0.0
 11
211.2949066708709
 21
84.58167638451852
 31
0.0
  0
LINE
  5
663
330
2
100
AcDbEntity
  8
0
100
AcDbLine
 10
210.9710996708709
 20
81.19495438451853
 30
0.0
 11
209.3117976708709
 21
81.19495438451853
 31
0.0
  0
LINE
  5
664
330
2
100
AcDbEntity
  8
0
100
AcDbLine
 10
208.5805056708709
 20
81.96527538451851
 30
0.0
 11
209.3117976708709
 21
81.19495438451853
 31
0.0
  0
LINE
  5
665
330
2
100
AcDbEntity
  8
0
100
AcDbLine
 10
208.6670986708709
 20
89.63685238451853
 30
0.0
 11
207.5097046708709
 21
88.15485438451853
 31
0.0
  0
LINE
  5
666
330
2
100
AcDbEntity
  8
0
100
AcDbLine
 10
209.3003076708709
 20
88.36683338451852
 30
0.0
 11
208.5805056708709
 21
87.47433138451851
 31
0.0
  0
LINE
  5
667
330
2
100
AcDbEntity
  8
0
100
AcDbLine
 10
220.8325046708709
 20
88.46644238451853
 30
0.0
 11
220.8325046708709
 21
81.12025438451851
 31
0.0
  0
LINE
  5
668
330
2
100
AcDbEntity
  8
0
100
AcDbLine
 10
219.6370996708709
 20
88.46644238451853
 30
0.0
 11
219.6370996708709
 21
81.12025438451851
 31
0.0
  0
LINE
  5
669
330
2
100
AcDbEntity
  8
0
100
AcDbLine
 10
219.1640016708709
 20
81.12025438451851
 30
0.0
 11
219.6370996708709
 21
81.12025438451851
 31
0.0
  0
LINE
  5
66A
330
2
100
AcDbEntity
  8
0
100
AcDbLine
 10
219.1640016708709
 20
80.07435238451853
 30
0.0
 11
221.2308956708709
 21
80.07435238451853
 31
0.0
  0
LINE
  5
66B
330
2
100
AcDbEntity
  8
0
100
AcDbLine
 10
219.1640016708709
 20
81.12025438451851
 30
0.0
 11
219.1640016708709
 21
80.07435238451853
 31
0.0
  0
LINE
  5
66C
330
2
100
AcDbEntity
  8
0
100
AcDbLine
 10
212.9633026708709
 20
80.8366133845185
 30
0.0
 11
212.0548096708709
 21
80.07435238451853
 31
0.0
  0
LINE
  5
66D
330
2
100
AcDbEntity
  8
0
100
AcDbLine
 10
212.9633026708709
 20
80.8366133845185
 30
0.0
 11
212.9633026708709
 21
80.07435238451853
 31
0.0
  0
LINE
  5
66E
330
2
100
AcDbEntity
  8
0
100
AcDbLine
 10
213.8847046708709
 20
85.62757538451851
 30
0.0
 11
213.8847046708709
 21
80.07435238451853
 31
0.0
  0
LINE
  5
66F
330
2
100
AcDbEntity
  8
0
100
AcDbLine
 10
212.9633026708709
 20
80.07435238451853
 30
0.0
 11
213.8847046708709
 21
80.07435238451853
 31
0.0
  0
LINE
  5
670
330
2
100
AcDbEntity
  8
0
100
AcDbLine
 10
212.9633026708709
 20
84.58167638451852
 30
0.0
 11
212.9633026708709
 21
83.18714138451852
 31
0.0
  0
LINE
  5
671
330
2
100
AcDbEntity
  8
0
100
AcDbLine
 10
212.9633026708709
 20
83.58558338451851
 30
0.0
 11
212.9633026708709
 21
84.38245838451852
 31
0.0
  0
LINE
  5
672
330
2
100
AcDbEntity
  8
0
100
AcDbLine
 10
226.6347046708709
 20
81.07044238451852
 30
0.0
 11
226.6347046708709
 21
80.07435238451853
 31
0.0
  0
LINE
  5
673
330
2
100
AcDbEntity
  8
0
100
AcDbLine
 10
221.2308956708709
 20
81.12025438451851
 30
0.0
 11
221.2308956708709
 21
80.07435238451853
 31
0.0
  0
LINE
  5
674
330
2
100
AcDbEntity
  8
0
100
AcDbLine
 10
220.8325046708709
 20
81.12025438451851
 30
0.0
 11
221.2308956708709
 21
81.12025438451851
 31
0.0
  0
LINE
  5
675
330
2
100
AcDbEntity
  8
0
100
AcDbLine
 10
219.6370996708709
 20
88.46644238451853
 30
0.0
 11
218.1222076708709
 21
88.46644238451853
 31
0.0
  0
LINE
  5
676
330
2
100
AcDbEntity
  8
0
100
AcDbLine
 10
217.0722046708709
 20
89.63685238451853
 30
0.0
 11
223.4472046708709
 21
89.63685238451853
 31
0.0
  0
LINE
  5
677
330
2
100
AcDbEntity
  8
0
100
AcDbLine
 10
212.9633026708709
 20
87.79538738451851
 30
0.0
 11
212.9633026708709
 21
87.64466538451854
 31
0.0
  0
LINE
  5
678
330
2
100
AcDbEntity
  8
0
100
AcDbLine
 10
213.8847046708709
 20
88.60371038451853
 30
0.0
 11
213.8847046708709
 21
87.64466538451854
 31
0.0
  0
LINE
  5
679
330
2
100
AcDbEntity
  8
0
100
AcDbLine
 10
212.9633026708709
 20
87.64466538451854
 30
0.0
 11
213.8847046708709
 21
87.64466538451854
 31
0.0
  0
LINE
  5
67A
330
2
100
AcDbEntity
  8
0
100
AcDbLine
 10
212.9537046708709
 20
89.63685238451853
 30
0.0
 11
213.8847046708709
 21
88.60371038451853
 31
0.0
  0
LINE
  5
67B
330
2
100
AcDbEntity
  8
0
100
AcDbLine
 10
212.9633026708709
 20
87.79538738451851
 30
0.0
 11
212.3601076708709
 21
88.36683338451852
 31
0.0
  0
LINE
  5
67C
330
2
100
AcDbEntity
  8
0
100
AcDbLine
 10
218.1222076708709
 20
88.46644238451853
 30
0.0
 11
217.7798006708709
 21
87.64466538451854
 31
0.0
  0
LINE
  5
67D
330
2
100
AcDbEntity
  8
0
100
AcDbLine
 10
217.0722046708709
 20
87.64466538451854
 30
0.0
 11
217.7798006708709
 21
87.64466538451854
 31
0.0
  0
LINE
  5
67E
330
2
100
AcDbEntity
  8
0
100
AcDbLine
 10
217.0722046708709
 20
87.64466538451854
 30
0.0
 11
217.0722046708709
 21
89.63685238451853
 31
0.0
  0
LINE
  5
67F
330
2
100
AcDbEntity
  8
0
100
AcDbLine
 10
222.7821956708709
 20
87.64466538451854
 30
0.0
 11
223.4472046708709
 21
87.64466538451854
 31
0.0
  0
LINE
  5
680
330
2
100
AcDbEntity
  8
0
100
AcDbLine
 10
220.8325046708709
 20
88.46644238451853
 30
0.0
 11
222.4934996708709
 21
88.46644238451853
 31
0.0
  0
LINE
  5
681
330
2
100
AcDbEntity
  8
0
100
AcDbLine
 10
222.4934996708709
 20
88.46644238451853
 30
0.0
 11
222.7821956708709
 21
87.64466538451854
 31
0.0
  0
LINE
  5
682
330
2
100
AcDbEntity
  8
0
100
AcDbLine
 10
226.6347046708709
 20
89.63685238451853
 30
0.0
 11
226.6347046708709
 21
88.46644238451853
 31
0.0
  0
LINE
  5
683
330
2
100
AcDbEntity
  8
0
100
AcDbLine
 10
223.4472046708709
 20
87.64466538451854
 30
0.0
 11
223.4472046708709
 21
89.63685238451853
 31
0.0
  0
LINE
  5
684
330
2
100
AcDbEntity
  8
0
100
AcDbLine
 10
179.8874056708709
 20
130.8676153845184
 30
0.0
 11
203.9667966708709
 21
147.7670063845185
 31
0.0
  0
ARC
  5
685
330
2
100
AcDbEntity
  8
0
100
AcDbCircle
 10
182.7597046708709
 20
126.7749713845185
 30
0.0
 40
5.0
100
AcDbArc
 50
125.0623019999999
 51
180.0
  0
LINE
  5
686
330
2
100
AcDbEntity
  8
0
100
AcDbLine
 10
224.7597046708709
 20
113.5743563845185
 30
0.0
 11
224.7597046708709
 21
118.5743563845185
 31
0.0
  0
ARC
  5
688
330
2
100
AcDbEntity
  8
0
100
AcDbCircle
 10
206.8392026708709
 20
143.6743623845185
 30
0.0
 40
5.0
100
AcDbArc
 50
90.0
 51
125.0622019999999
  0
LINE
  5
689
330
2
100
AcDbEntity
  8
0
100
AcDbLine
 10
105.2597046708709
 20
258.8907909558532
 30
0.0
 11
181.1793826708709
 21
258.8907909558532
 31
0.0
  0
LINE
  5
68A
330
2
100
AcDbEntity
  8
0
100
AcDbLine
 10
105.2597046708709
 20
243.8907909558532
 30
0.0
 11
175.7597046708709
 21
243.8907909558532
 31
0.0
  0
LINE
  5
68B
330
2
100
AcDbEntity
  8
0
100
AcDbLine
 10
105.2597046708709
 20
304.8907909558532
 30
0.0
 11
181.1793826708709
 21
304.8907909558532
 31
0.0
  0
LINE
  5
68C
330
2
100
AcDbEntity
  8
0
100
AcDbLine
 10
175.7597046708709
 20
319.8907759558532
 30
0.0
 11
105.2597046708709
 21
319.8907759558532
 31
0.0
  0
LINE
  5
68D
330
2
100
AcDbEntity
  8
0
100
AcDbLine
 10
46.75970267087092
 20
246.8907909558532
 30
0.0
 11
46.75970267087092
 21
316.8907759558532
 31
0.0
  0
LINE
  5
68E
330
2
100
AcDbEntity
  8
0
100
AcDbLine
 10
95.75970467087097
 20
241.8907909558532
 30
0.0
 11
95.75970467087097
 21
321.8907759558532
 31
0.0
  0
LINE
  5
68F
330
2
100
AcDbEntity
  8
0
100
AcDbLine
 10
101.2597046708709
 20
278.3907909558532
 30
0.0
 11
101.2597046708709
 21
285.3907909558532
 31
0.0
  0
LINE
  5
690
330
2
100
AcDbEntity
  8
0
100
AcDbLine
 10
103.2597046708709
 20
278.3907909558532
 30
0.0
 11
103.2597046708709
 21
285.3907909558532
 31
0.0
  0
LINE
  5
691
330
2
100
AcDbEntity
  8
0
100
AcDbLine
 10
105.7597046708709
 20
275.8907909558532
 30
0.0
 11
105.7597046708709
 21
287.8907909558532
 31
0.0
  0
LINE
  5
692
330
2
100
AcDbEntity
  8
0
100
AcDbLine
 10
98.75970467087098
 20
275.8907909558532
 30
0.0
 11
98.75970467087098
 21
287.8907909558532
 31
0.0
  0
ARC
  5
693
330
2
100
AcDbEntity
  8
0
100
AcDbCircle
 10
51.75970267087092
 20
246.8907909558532
 30
0.0
 40
5.0
100
AcDbArc
 50
180.0
 51
270.0
  0
LINE
  5
694
330
2
100
AcDbEntity
  8
0
100
AcDbLine
 10
49.25970267087092
 20
255.8907909558532
 30
0.0
 11
95.75970467087097
 21
255.8907909558532
 31
0.0
  0
LINE
  5
695
330
2
100
AcDbEntity
  8
0
100
AcDbLine
 10
51.75970267087092
 20
241.8907909558532
 30
0.0
 11
95.75970467087097
 21
241.8907909558532
 31
0.0
  0
LINE
  5
696
330
2
100
AcDbEntity
  8
0
100
AcDbLine
 10
105.2597046708709
 20
243.8907909558532
 30
0.0
 11
105.2597046708709
 21
275.0247629558533
 31
0.0
  0
ARC
  5
697
330
2
100
AcDbEntity
  8
0
100
AcDbCircle
 10
95.75970467087097
 20
250.1148509558532
 30
0.0
 40
4.5
100
AcDbArc
 50
0.0
 51
90.0
  0
ARC
  5
698
330
2
100
AcDbEntity
  8
0
100
AcDbCircle
 10
95.75970467087097
 20
250.1148509558532
 30
0.0
 40
3.0
100
AcDbArc
 50
0.0
 51
90.0
  0
ARC
  5
699
330
2
100
AcDbEntity
  8
0
100
AcDbCircle
 10
95.75970467087097
 20
250.1148509558532
 30
0.0
 40
1.5
100
AcDbArc
 50
0.0
 51
90.0
  0
LINE
  5
69A
330
2
100
AcDbEntity
  8
HOJO
100
AcDbLine
 10
98.75970467087098
 20
246.1127449558533
 30
0.0
 11
100.2597046708709
 21
246.8919509558532
 31
0.0
  0
LINE
  5
69B
330
2
100
AcDbEntity
  8
0
100
AcDbLine
 10
95.75970467087097
 20
243.8907909558532
 30
0.0
 11
105.2597046708709
 21
243.8907909558532
 31
0.0
  0
LINE
  5
69C
330
2
100
AcDbEntity
  8
0
100
AcDbLine
 10
98.75970467087098
 20
250.1148509558532
 30
0.0
 11
98.75970467087098
 21
245.0780469558532
 31
0.0
  0
LINE
  5
69D
330
2
100
AcDbEntity
  8
0
100
AcDbLine
 10
97.25970467087098
 20
250.1148509558532
 30
0.0
 11
97.25970467087098
 21
245.8722519558532
 31
0.0
  0
LINE
  5
69E
330
2
100
AcDbEntity
  8
HOJO
100
AcDbLine
 10
97.26210367087094
 20
245.8767529558532
 30
0.0
 11
98.75970467087098
 21
245.0780469558532
 31
0.0
  0
LINE
  5
69F
330
2
100
AcDbEntity
  8
0
100
AcDbLine
 10
100.2597046708709
 20
250.1148509558532
 30
0.0
 11
100.2597046708709
 21
246.8919509558532
 31
0.0
  0
LINE
  5
6A0
330
2
100
AcDbEntity
  8
0
100
AcDbLine
 10
95.75970467087097
 20
258.8907909558532
 30
0.0
 11
105.2597046708709
 21
258.8907909558532
 31
0.0
  0
ARC
  5
6A1
330
2
100
AcDbEntity
  8
0
100
AcDbCircle
 10
99.75970467087098
 20
275.8907909558532
 30
0.0
 40
1.0
100
AcDbArc
 50
180.0
 51
270.0
  0
ARC
  5
6A2
330
2
100
AcDbEntity
  8
0
100
AcDbCircle
 10
102.2597046708709
 20
278.3907909558532
 30
0.0
 40
1.0
100
AcDbArc
 50
270.0
 51
0.0
  0
LINE
  5
6A3
330
2
100
AcDbEntity
  8
0
100
AcDbLine
 10
104.7597046708709
 20
274.8907909558532
 30
0.0
 11
99.75970467087098
 21
274.8907909558532
 31
0.0
  0
ARC
  5
6A4
330
2
100
AcDbEntity
  8
0
100
AcDbCircle
 10
102.2597046708709
 20
278.3907909558532
 30
0.0
 40
1.0
100
AcDbArc
 50
180.0
 51
270.0
  0
ARC
  5
6A5
330
2
100
AcDbEntity
  8
0
100
AcDbCircle
 10
104.7597046708709
 20
275.8907909558532
 30
0.0
 40
1.0
100
AcDbArc
 50
270.0
 51
0.0
  0
ARC
  5
6A6
330
2
100
AcDbEntity
  8
0
100
AcDbCircle
 10
51.75972267087093
 20
316.8908059558532
 30
0.0
 40
5.0
100
AcDbArc
 50
90.0
 51
180.0
  0
LINE
  5
6A7
330
2
100
AcDbEntity
  8
0
100
AcDbLine
 10
49.25970267087092
 20
305.8907909558532
 30
0.0
 11
95.75970467087097
 21
305.8907909558532
 31
0.0
  0
LINE
  5
6A8
330
2
100
AcDbEntity
  8
0
100
AcDbLine
 10
51.75970267087092
 20
321.8907759558532
 30
0.0
 11
95.75970467087097
 21
321.8907759558532
 31
0.0
  0
LINE
  5
6A9
330
2
100
AcDbEntity
  8
0
100
AcDbLine
 10
105.2597046708709
 20
288.7568189558532
 30
0.0
 11
105.2597046708709
 21
319.8907759558532
 31
0.0
  0
ARC
  5
6AA
330
2
100
AcDbEntity
  8
0
100
AcDbCircle
 10
99.75970467087098
 20
287.8907909558532
 30
0.0
 40
1.0
100
AcDbArc
 50
90.0
 51
180.0
  0
ARC
  5
6AB
330
2
100
AcDbEntity
  8
0
100
AcDbCircle
 10
102.2597046708709
 20
285.3907909558532
 30
0.0
 40
1.0
100
AcDbArc
 50
0.0
 51
90.0
  0
LINE
  5
6AC
330
2
100
AcDbEntity
  8
0
100
AcDbLine
 10
99.75970467087098
 20
288.8907909558532
 30
0.0
 11
104.7597046708709
 21
288.8907909558532
 31
0.0
  0
ARC
  5
6AD
330
2
100
AcDbEntity
  8
0
100
AcDbCircle
 10
102.2597046708709
 20
285.3907909558532
 30
0.0
 40
1.0
100
AcDbArc
 50
90.0
 51
180.0
  0
ARC
  5
6AE
330
2
100
AcDbEntity
  8
0
100
AcDbCircle
 10
104.7597046708709
 20
287.8907909558532
 30
0.0
 40
1.0
100
AcDbArc
 50
0.0
 51
90.0
  0
LINE
  5
6AF
330
2
100
AcDbEntity
  8
0
100
AcDbLine
 10
95.75970467087097
 20
304.8907909558532
 30
0.0
 11
105.2597046708709
 21
304.8907909558532
 31
0.0
  0
LINE
  5
6B0
330
2
100
AcDbEntity
  8
0
100
AcDbLine
 10
95.75970467087097
 20
319.8907759558532
 30
0.0
 11
105.2597046708709
 21
319.8907759558532
 31
0.0
  0
LINE
  5
6B1
330
2
100
AcDbEntity
  8
0
100
AcDbLine
 10
181.1793826708709
 20
260.8907909558532
 30
0.0
 11
181.1793826708709
 21
302.8910659558532
 31
0.0
  0
LINE
  5
6B2
330
2
100
AcDbEntity
  8
0
100
AcDbLine
 10
205.2597046708709
 20
310.9256879558532
 30
0.0
 11
205.2597046708709
 21
252.8558789558532
 31
0.0
  0
LINE
  5
6B3
330
2
100
AcDbEntity
  8
CENTER
100
AcDbLine
 10
220.2597046708709
 20
335.8907759558532
 30
0.0
 11
220.2597046708709
 21
210.8907909558532
 31
0.0
  0
LINE
  5
6B4
330
2
100
AcDbEntity
  8
0
100
AcDbLine
 10
212.7597046708709
 20
217.8907909558532
 30
0.0
 11
212.7597046708709
 21
244.8907909558532
 31
0.0
  0
CIRCLE
  5
6B5
330
2
100
AcDbEntity
  8
0
100
AcDbCircle
 10
186.2597046708709
 20
241.8907909558532
 30
0.0
 40
3.25
  0
LINE
  5
6B7
330
2
100
AcDbEntity
  8
0
100
AcDbLine
 10
178.5285186708709
 20
237.8384379558533
 30
0.0
 11
178.3041536708709
 21
250.6948829558532
 31
0.0
  0
LINE
  5
6B8
330
2
100
AcDbEntity
  8
0
100
AcDbLine
 10
181.5280606708709
 20
234.8907909558533
 30
0.0
 11
212.7597046708709
 21
234.8907909558533
 31
0.0
  0
ARC
  5
6B9
330
2
100
AcDbEntity
  8
0
100
AcDbCircle
 10
181.5280606708709
 20
237.8907909558532
 30
0.0
 40
3.0
100
AcDbArc
 50
180.9998470000002
 51
270.0
  0
ARC
  5
6BB
330
2
100
AcDbEntity
  8
0
100
AcDbCircle
 10
180.2662046708709
 20
252.8907909558532
 30
0.0
 40
2.0
100
AcDbArc
 50
181.0000000000001
 51
270.0
  0
LINE
  5
6BC
330
2
100
AcDbEntity
  8
0
100
AcDbLine
 10
177.7597046708709
 20
245.8907909558532
 30
0.0
 11
177.7597046708709
 21
249.5386329558533
 31
0.0
  0
ARC
  5
6BD
330
2
100
AcDbEntity
  8
0
100
AcDbCircle
 10
175.7597046708709
 20
245.8907909558532
 30
0.0
 40
2.0
100
AcDbArc
 50
270.0
 51
0.0
  0
ARC
  5
6BE
330
2
100
AcDbEntity
  8
0
100
AcDbCircle
 10
179.2597046708709
 20
249.5386329558533
 30
0.0
 40
1.5
100
AcDbArc
 50
73.28735399999994
 51
180.0
  0
LINE
  5
6BF
330
2
100
AcDbEntity
  8
0
100
AcDbLine
 10
178.2664336708709
 20
252.8558939558532
 30
0.0
 11
178.1611026708709
 21
258.8907909558532
 31
0.0
  0
ARC
  5
6C0
330
2
100
AcDbEntity
  8
0
100
AcDbCircle
 10
201.2597046708709
 20
247.8907909558532
 30
0.0
 40
1.0
100
AcDbArc
 50
180.0
 51
270.0
  0
LINE
  5
6C1
330
2
100
AcDbEntity
  8
0
100
AcDbLine
 10
200.2597046708709
 20
247.8907909558532
 30
0.0
 11
200.2597046708709
 21
248.890790955853
 31
0.0
  0
LINE
  5
6C2
330
2
100
AcDbEntity
  8
0
100
AcDbLine
 10
211.7597046708709
 20
244.8907909558532
 30
0.0
 11
211.7597046708709
 21
246.8907909558532
 31
0.0
  0
ARC
  5
6C4
330
2
100
AcDbEntity
  8
0
100
AcDbCircle
 10
181.5280606708709
 20
325.8907759558532
 30
0.0
 40
3.0
100
AcDbArc
 50
90.0
 51
179.0001529999997
  0
LINE
  5
6C5
330
2
100
AcDbEntity
  8
0
100
AcDbLine
 10
178.2664336708709
 20
310.9256879558532
 30
0.0
 11
178.1611026708709
 21
304.8907909558532
 31
0.0
  0
LINE
  5
6C7
330
2
100
AcDbEntity
  8
0
100
AcDbLine
 10
177.7597046708709
 20
317.8907759558532
 30
0.0
 11
177.7597046708709
 21
314.2429489558532
 31
0.0
  0
LINE
  5
6C8
330
2
100
AcDbEntity
  8
0
100
AcDbLine
 10
178.5285186708709
 20
325.9431439558532
 30
0.0
 11
178.3041536708709
 21
313.0866989558532
 31
0.0
  0
ARC
  5
6C9
330
2
100
AcDbEntity
  8
0
100
AcDbCircle
 10
180.2662046708709
 20
310.8907909558532
 30
0.0
 40
2.0
100
AcDbArc
 50
90.0
 51
178.9999999999998
  0
ARC
  5
6CA
330
2
100
AcDbEntity
  8
0
100
AcDbCircle
 10
179.2597046708709
 20
314.2429489558532
 30
0.0
 40
1.5
100
AcDbArc
 50
180.0
 51
286.712646
  0
ARC
  5
6CB
330
2
100
AcDbEntity
  8
0
100
AcDbCircle
 10
175.7597046708709
 20
317.8907759558532
 30
0.0
 40
2.0
100
AcDbArc
 50
0.0
 51
90.0
  0
CIRCLE
  5
6CC
330
2
100
AcDbEntity
  8
0
100
AcDbCircle
 10
186.2597046708709
 20
321.8907759558532
 30
0.0
 40
3.25
  0
LINE
  5
6CD
330
2
100
AcDbEntity
  8
0
100
AcDbLine
 10
181.5280606708709
 20
328.8907759558532
 30
0.0
 11
220.2597046708709
 21
328.8907759558532
 31
0.0
  0
LINE
  5
6CE
330
2
100
AcDbEntity
  8
CENTER
100
AcDbLine
 10
362.7482468585068
 20
93.77435338451849
 30
0.0
 11
456.7482468585068
 21
93.77435338451851
 31
0.0
  0
LINE
  5
6CF
330
2
100
AcDbEntity
  8
0
100
AcDbLine
 10
439.1785438585069
 20
129.3743673845185
 30
0.0
 11
380.2667398585068
 21
129.3743673845185
 31
0.0
  0
LINE
  5
6D0
330
2
100
AcDbEntity
  8
0
100
AcDbLine
 10
380.7133338585068
 20
148.1675643845185
 30
0.0
 11
409.7482468585068
 21
148.6743623845185
 31
0.0
  0
LINE
  5
6D1
330
2
100
AcDbEntity
  8
0
100
AcDbLine
 10
456.7482468585068
 20
51.07435338451853
 30
0.0
 11
362.7482468585068
 21
51.07435338451853
 31
0.0
  0
LINE
  5
6D2
330
2
100
AcDbEntity
  8
CENTER
100
AcDbLine
 10
456.7344567661584
 20
116.0743563845185
 30
0.0
 11
338.7482468585067
 21
116.0743563845185
 31
0.0
  0
LINE
  5
6D3
330
2
100
AcDbEntity
  8
0
100
AcDbLine
 10
369.7482468585068
 20
71.84542338451854
 30
0.0
 11
369.7482468585068
 21
108.5743523845185
 31
0.0
  0
ARC
  5
6D4
330
2
100
AcDbEntity
  8
0
100
AcDbCircle
 10
409.7482468585068
 20
93.77435338451851
 30
0.0
 40
38.0
100
AcDbArc
 50
158.7057950000002
 51
215.3954929999994
  0
ARC
  5
6D5
330
2
100
AcDbEntity
  8
0
100
AcDbCircle
 10
375.7482468585068
 20
97.07434838451852
 30
0.0
 40
1.0
100
AcDbArc
 50
180.0
 51
270.0
  0
LINE
  5
6D6
330
2
100
AcDbEntity
  8
0
100
AcDbLine
 10
378.7482468585068
 20
62.07435238451854
 30
0.0
 11
378.7482468585068
 21
146.1678623845185
 31
0.0
  0
LINE
  5
6D7
330
2
100
AcDbEntity
  8
0
100
AcDbLine
 10
260.2597046708709
 20
117.4357533845185
 30
0.0
 11
260.2597046708709
 21
88.71321538451852
 31
0.0
  0
LINE
  5
6D8
330
2
100
AcDbEntity
  8
0
100
AcDbLine
 10
262.7597046708709
 20
126.7749333845185
 30
0.0
 11
262.7597046708709
 21
51.07435338451853
 31
0.0
  0
LINE
  5
6D9
330
2
100
AcDbEntity
  8
HIDS
  6
SEKKEI_H
100
AcDbLine
 10
251.0097046708709
 20
59.07435338451853
 30
0.0
 11
251.0097046708709
 21
51.07435338451853
 31
0.0
  0
LINE
  5
6DA
330
2
100
AcDbEntity
  8
HIDS
  6
SEKKEI_H
100
AcDbLine
 10
257.5097046708709
 20
59.07435338451853
 30
0.0
 11
257.5097046708709
 21
51.07435338451853
 31
0.0
  0
LINE
  5
6DB
330
2
100
AcDbEntity
  8
CENTER
100
AcDbLine
 10
254.259704670871
 20
62.57435338451853
 30
0.0
 11
254.259704670871
 21
47.57435338451853
 31
0.0
  0
LINE
  5
6DC
330
2
100
AcDbEntity
  8
0
100
AcDbLine
 10
228.2035066708709
 20
88.46644238451853
 30
0.0
 11
228.2035066708709
 21
85.54018838451851
 31
0.0
  0
ARC
  5
6DD
330
2
100
AcDbEntity
  8
0
100
AcDbCircle
 10
230.4571986708709
 20
87.08436238451852
 30
0.0
 40
1.557193
100
AcDbArc
 50
277.4147259999995
 51
62.41184999999949
  0
ARC
  5
6DE
330
2
100
AcDbEntity
  8
0
100
AcDbCircle
 10
230.4571986708709
 20
87.08436238451852
 30
0.0
 40
2.55249
100
AcDbArc
 50
286.0181269999995
 51
90.00350999999964
  0
LINE
  5
6DF
330
2
100
AcDbEntity
  8
0
100
AcDbLine
 10
227.1078036708709
 20
88.46644238451853
 30
0.0
 11
227.1078036708709
 21
81.07044238451852
 31
0.0
  0
LINE
  5
6E0
330
2
100
AcDbEntity
  8
0
100
AcDbLine
 10
228.6392976708709
 20
81.07044238451852
 30
0.0
 11
228.6392976708709
 21
80.07435238451853
 31
0.0
  0
LINE
  5
6E1
330
2
100
AcDbEntity
  8
0
100
AcDbLine
 10
231.5404966708709
 20
81.07044238451852
 30
0.0
 11
231.5404966708709
 21
80.07435238451853
 31
0.0
  0
LINE
  5
6E2
330
2
100
AcDbEntity
  8
0
100
AcDbLine
 10
233.0097046708709
 20
81.07044238451852
 30
0.0
 11
233.0097046708709
 21
80.07435238451853
 31
0.0
  0
LINE
  5
6E3
330
2
100
AcDbEntity
  8
0
100
AcDbLine
 10
231.5404966708709
 20
80.07435238451853
 30
0.0
 11
233.0097046708709
 21
80.07435238451853
 31
0.0
  0
LINE
  5
6E4
330
2
100
AcDbEntity
  8
0
100
AcDbLine
 10
230.2440036708709
 20
84.54432338451852
 30
0.0
 11
231.7389986708709
 21
81.07044238451852
 31
0.0
  0
LINE
  5
6E5
330
2
100
AcDbEntity
  8
0
100
AcDbLine
 10
228.2035066708709
 20
84.54432338451852
 30
0.0
 11
230.2440036708709
 21
84.54432338451852
 31
0.0
  0
LINE
  5
6E6
330
2
100
AcDbEntity
  8
0
100
AcDbLine
 10
228.2035066708709
 20
85.54018838451851
 30
0.0
 11
230.6582026708709
 21
85.54018838451851
 31
0.0
  0
LINE
  5
6E7
330
2
100
AcDbEntity
  8
0
100
AcDbLine
 10
228.2035066708709
 20
81.07044238451852
 30
0.0
 11
228.6392976708709
 21
81.07044238451852
 31
0.0
  0
LINE
  5
6E8
330
2
100
AcDbEntity
  8
0
100
AcDbLine
 10
228.2035066708709
 20
84.54432338451852
 30
0.0
 11
228.2035066708709
 21
81.07044238451852
 31
0.0
  0
LINE
  5
6E9
330
2
100
AcDbEntity
  8
0
100
AcDbLine
 10
232.7414096708709
 20
81.07044238451852
 30
0.0
 11
233.0097046708709
 21
81.07044238451852
 31
0.0
  0
LINE
  5
6EA
330
2
100
AcDbEntity
  8
0
100
AcDbLine
 10
231.5404966708709
 20
81.07044238451852
 30
0.0
 11
231.7389986708709
 21
81.07044238451852
 31
0.0
  0
LINE
  5
6EB
330
2
100
AcDbEntity
  8
0
100
AcDbLine
 10
231.1614986708709
 20
84.63097438451853
 30
0.0
 11
232.7414096708709
 21
81.07044238451852
 31
0.0
  0
LINE
  5
6EC
330
2
100
AcDbEntity
  8
0
100
AcDbLine
 10
228.2035066708709
 20
88.46644238451853
 30
0.0
 11
231.1784056708709
 21
88.46450438451853
 31
0.0
  0
ARC
  5
6ED
330
2
100
AcDbEntity
  8
0
100
AcDbCircle
 10
260.7597046708709
 20
57.0743433845185
 30
0.0
 40
2.0
100
AcDbArc
 50
0.0
 51
90.0
  0
LINE
  5
6EE
330
2
100
AcDbEntity
  8
HIDS
  6
SEKKEI_H
100
AcDbLine
 10
372.9982468585068
 20
59.07435338451853
 30
0.0
 11
372.9982468585068
 21
51.07435338451853
 31
0.0
  0
LINE
  5
6EF
330
2
100
AcDbEntity
  8
HIDS
  6
SEKKEI_H
100
AcDbLine
 10
366.4982468585068
 20
59.07435338451853
 30
0.0
 11
366.4982468585068
 21
51.07435338451853
 31
0.0
  0
LINE
  5
6F0
330
2
100
AcDbEntity
  8
CENTER
100
AcDbLine
 10
369.7482468585068
 20
62.57435338451853
 30
0.0
 11
369.7482468585068
 21
47.57435338451853
 31
0.0
  0
LINE
  5
6F1
330
2
100
AcDbEntity
  8
0
100
AcDbLine
 10
362.7482468585068
 20
57.07435338451853
 30
0.0
 11
362.7482468585068
 21
51.07435338451853
 31
0.0
  0
ARC
  5
6F2
330
2
100
AcDbEntity
  8
0
100
AcDbCircle
 10
374.7482468585068
 20
71.84545338451852
 30
0.0
 40
5.0
100
AcDbArc
 50
180.0
 51
225.0003970000001
  0
LINE
  5
6F3
330
2
100
AcDbEntity
  8
0
100
AcDbLine
 10
375.7482468585068
 20
59.07435338451853
 30
0.0
 11
364.7482468585068
 21
59.07435338451853
 31
0.0
  0
ARC
  5
6F4
330
2
100
AcDbEntity
  8
0
100
AcDbCircle
 10
364.7482468585068
 20
57.0743433845185
 30
0.0
 40
2.0
100
AcDbArc
 50
90.0
 51
180.0
  0
LINE
  5
6F5
330
2
100
AcDbEntity
  8
0
100
AcDbLine
 10
371.2127548585068
 20
68.30988338451851
 30
0.0
 11
378.5418558585068
 21
60.98078338451853
 31
0.0
  0
ARC
  5
6F6
330
2
100
AcDbEntity
  8
0
100
AcDbCircle
 10
375.7482468585068
 20
62.07434338451853
 30
0.0
 40
3.0
100
AcDbArc
 50
270.0
 51
0.0
  0
LINE
  5
6F7
330
2
100
AcDbEntity
  8
0
100
AcDbLine
 10
375.7482468585068
 20
96.07435238451854
 30
0.0
 11
376.7522468565017
 21
96.07435238451854
 31
0.0
  0
LINE
  5
6F8
330
2
100
AcDbEntity
  8
0
100
AcDbLine
 10
260.6320036708709
 20
130.8676153845184
 30
0.0
 11
236.5525056708709
 21
147.7670143845185
 31
0.0
  0
LINE
  5
6F9
330
2
100
AcDbEntity
  8
0
100
AcDbLine
 10
229.7597046708709
 20
118.5743563845185
 30
0.0
 11
229.7597046708709
 21
113.5743563845185
 31
0.0
  0
ARC
  5
6FA
330
2
100
AcDbEntity
  8
0
100
AcDbCircle
 10
257.7597046708709
 20
126.7749333845185
 30
0.0
 40
5.0
100
AcDbArc
 50
0.0
 51
54.93836999999954
  0
ARC
  5
6FB
330
2
100
AcDbEntity
  8
0
100
AcDbCircle
 10
233.6802976708709
 20
143.6743393845185
 30
0.0
 40
5.0
100
AcDbArc
 50
54.93843100000013
 51
90.0
  0
LINE
  5
6FC
330
2
100
AcDbEntity
  8
0
100
AcDbLine
 10
345.7482468585068
 20
113.5743563845185
 30
0.0
 11
367.2482468585068
 21
113.5743563845185
 31
0.0
  0
LINE
  5
6FD
330
2
100
AcDbEntity
  8
0
100
AcDbLine
 10
345.7482468585068
 20
118.5743563845185
 30
0.0
 11
367.2482468585068
 21
118.5743563845185
 31
0.0
  0
LINE
  5
6FE
330
2
100
AcDbEntity
  8
0
100
AcDbLine
 10
345.7482468585068
 20
108.5743523845185
 30
0.0
 11
372.7482468585068
 21
108.5743523845185
 31
0.0
  0
LINE
  5
6FF
330
2
100
AcDbEntity
  8
0
100
AcDbLine
 10
345.7482468585068
 20
123.5743563845185
 30
0.0
 11
372.7482468585068
 21
123.5743563845185
 31
0.0
  0
LINE
  5
700
330
2
100
AcDbEntity
  8
0
100
AcDbLine
 10
345.7482468585068
 20
123.5743563845185
 30
0.0
 11
345.7482468585068
 21
108.5743523845185
 31
0.0
  0
ARC
  5
701
330
2
100
AcDbEntity
  8
0
100
AcDbCircle
 10
367.2482468585068
 20
116.0743413845185
 30
0.0
 40
2.5
100
AcDbArc
 50
0.0
 51
90.0
  0
LINE
  5
702
330
2
100
AcDbEntity
  8
0
100
AcDbLine
 10
372.7482468585068
 20
124.5743563845185
 30
0.0
 11
372.7482468585068
 21
107.5743523845185
 31
0.0
  0
LINE
  5
703
330
2
100
AcDbEntity
  8
0
100
AcDbLine
 10
374.7482468585068
 20
97.07435238451854
 30
0.0
 11
374.7482468585068
 21
135.0743563845185
 31
0.0
  0
ARC
  5
704
330
2
100
AcDbEntity
  8
0
100
AcDbCircle
 10
367.2482468585068
 20
116.0743563845185
 30
0.0
 40
2.5
100
AcDbArc
 50
270.0
 51
0.0
  0
LINE
  5
705
330
2
100
AcDbEntity
  8
0
100
AcDbLine
 10
372.7482468585068
 20
107.5743523845185
 30
0.0
 11
374.7482468585068
 21
107.5743523845185
 31
0.0
  0
LINE
  5
706
330
2
100
AcDbEntity
  8
0
100
AcDbLine
 10
372.7482468585068
 20
124.5743563845185
 30
0.0
 11
374.7482468585068
 21
124.5743563845185
 31
0.0
  0
LINE
  5
707
330
2
100
AcDbEntity
  8
0
100
AcDbLine
 10
375.7482468585068
 20
136.0743563845185
 30
0.0
 11
376.7482468585067
 21
136.0743563845185
 31
0.0
  0
ARC
  5
708
330
2
100
AcDbEntity
  8
0
100
AcDbCircle
 10
375.7482468585068
 20
135.0743563845185
 30
0.0
 40
1.0
100
AcDbArc
 50
90.0
 51
180.0
  0
ARC
  5
709
330
2
100
AcDbEntity
  8
0
100
AcDbCircle
 10
380.7482468585068
 20
146.1678623845185
 30
0.0
 40
2.0
100
AcDbArc
 50
90.99986299999994
 51
180.0
  0
LINE
  5
70A
330
2
100
AcDbEntity
  8
0
100
AcDbLine
 10
449.7482468585068
 20
115.7032853845185
 30
0.0
 11
449.7482468585068
 21
70.77435338451852
 31
0.0
  0
ARC
  5
70B
330
2
100
AcDbEntity
  8
0
100
AcDbCircle
 10
443.7482468585068
 20
97.07434838451852
 30
0.0
 40
1.0
100
AcDbArc
 50
270.0
 51
0.0
  0
ARC
  5
70C
330
2
100
AcDbEntity
  8
0
100
AcDbCircle
 10
409.7482468585068
 20
93.77435338451851
 30
0.0
 40
38.0
100
AcDbArc
 50
324.6655999999999
 51
22.91949100000018
  0
LINE
  5
70D
330
2
100
AcDbEntity
  8
0
100
AcDbLine
 10
440.7482468585068
 20
62.07435238451854
 30
0.0
 11
440.7482468585068
 21
146.1677553845185
 31
0.0
  0
LINE
  5
70E
330
2
100
AcDbEntity
  8
CENTER
100
AcDbLine
 10
409.7482468585067
 20
44.07435338451853
 30
0.0
 11
409.7482468585067
 21
155.6743623845185
 31
0.0
  0
LINE
  5
70F
330
2
100
AcDbEntity
  8
0
100
AcDbLine
 10
446.7482468585068
 20
67.77435338451851
 30
0.0
 11
443.1452498585068
 21
67.77435338451851
 31
0.0
  0
LINE
  5
710
330
2
100
AcDbEntity
  8
0
100
AcDbLine
 10
443.7482468585068
 20
59.07435338451853
 30
0.0
 11
454.7482468585068
 21
59.07435338451853
 31
0.0
  0
ARC
  5
711
330
2
100
AcDbEntity
  8
0
100
AcDbCircle
 10
443.7482468585068
 20
62.07435238451854
 30
0.0
 40
3.0
100
AcDbArc
 50
180.0
 51
270.0
  0
LINE
  5
712
330
2
100
AcDbEntity
  8
0
100
AcDbLine
 10
440.7482468585068
 20
65.37737338451854
 30
0.0
 11
443.1452498585068
 21
67.77435338451851
 31
0.0
  0
LINE
  5
713
330
2
100
AcDbEntity
  8
0
100
AcDbLine
 10
443.7482468585068
 20
96.07435238451854
 30
0.0
 11
442.7442468605118
 21
96.07435238451854
 31
0.0
  0
LINE
  5
714
330
2
100
AcDbEntity
  8
HIDS
  6
SEKKEI_H
100
AcDbLine
 10
452.9982468585068
 20
59.07435338451853
 30
0.0
 11
452.9982468585068
 21
51.07435338451853
 31
0.0
  0
LINE
  5
715
330
2
100
AcDbEntity
  8
HIDS
  6
SEKKEI_H
100
AcDbLine
 10
446.4982468585068
 20
59.07435338451853
 30
0.0
 11
446.4982468585068
 21
51.07435338451853
 31
0.0
  0
LINE
  5
716
330
2
100
AcDbEntity
  8
CENTER
100
AcDbLine
 10
449.7482468585068
 20
62.57435338451853
 30
0.0
 11
449.7482468585068
 21
47.57435338451853
 31
0.0
  0
LINE
  5
717
330
2
100
AcDbEntity
  8
0
100
AcDbLine
 10
456.7482468585068
 20
57.07435338451853
 30
0.0
 11
456.7482468585068
 21
51.07435338451853
 31
0.0
  0
ARC
  5
718
330
2
100
AcDbEntity
  8
0
100
AcDbCircle
 10
454.7482468585068
 20
57.0743633845185
 30
0.0
 40
2.0
100
AcDbArc
 50
0.0
 51
90.0
  0
ARC
  5
719
330
2
100
AcDbEntity
  8
0
100
AcDbCircle
 10
446.7482468585068
 20
70.77434338451851
 30
0.0
 40
3.0
100
AcDbArc
 50
270.0
 51
0.0
  0
LINE
  5
71A
330
2
100
AcDbEntity
  8
0
100
AcDbLine
 10
448.2837378585069
 20
119.2388233845185
 30
0.0
 11
444.7482468585068
 21
122.7743303845185
 31
0.0
  0
LINE
  5
71B
330
2
100
AcDbEntity
  8
0
100
AcDbLine
 10
444.7482468585068
 20
97.07435238451854
 30
0.0
 11
444.7482468585068
 21
135.0743563845185
 31
0.0
  0
ARC
  5
71C
330
2
100
AcDbEntity
  8
0
100
AcDbCircle
 10
443.7482468585068
 20
135.0743563845185
 30
0.0
 40
1.0
100
AcDbArc
 50
0.0
 51
90.0
  0
LINE
  5
71D
330
2
100
AcDbEntity
  8
0
100
AcDbLine
 10
443.7482468585068
 20
136.0743563845185
 30
0.0
 11
442.7482468585067
 21
136.0743563845185
 31
0.0
  0
LINE
  5
71E
330
2
100
AcDbEntity
  8
0
100
AcDbLine
 10
438.7831588585068
 20
148.1674503845185
 30
0.0
 11
409.7482468585068
 21
148.6743623845185
 31
0.0
  0
ARC
  5
71F
330
2
100
AcDbEntity
  8
0
100
AcDbCircle
 10
438.7482468585068
 20
146.1677633845185
 30
0.0
 40
2.0
100
AcDbArc
 50
0.0
 51
88.99935899999954
  0
ARC
  5
720
330
2
100
AcDbEntity
  8
0
100
AcDbCircle
 10
444.7482468585068
 20
115.7032623845184
 30
0.0
 40
5.0
100
AcDbArc
 50
0.0
 51
45.00025199999998
  0
LINE
  5
722
330
2
100
AcDbEntity
  8
0
100
AcDbLine
 10
235.2597046708709
 20
310.9256879558532
 30
0.0
 11
235.2597046708709
 21
252.8558789558532
 31
0.0
  0
LINE
  5
723
330
2
100
AcDbEntity
  8
0
100
AcDbLine
 10
261.9907686708709
 20
325.9431439558532
 30
0.0
 11
262.7597046708709
 21
281.8907909558532
 31
0.0
  0
LINE
  5
724
330
2
100
AcDbEntity
  8
0
100
AcDbLine
 10
227.3307036708709
 20
241.8907909558532
 30
0.0
 11
227.3307036708709
 21
217.8907909558532
 31
0.0
  0
LINE
  5
725
330
2
100
AcDbEntity
  8
0
100
AcDbLine
 10
229.7597046708709
 20
241.8907909558532
 30
0.0
 11
229.7597046708709
 21
217.8907909558532
 31
0.0
  0
CIRCLE
  5
726
330
2
100
AcDbEntity
  8
0
100
AcDbCircle
 10
254.259704670871
 20
241.8907909558532
 30
0.0
 40
3.25
  0
LINE
  5
728
330
2
100
AcDbEntity
  8
0
100
AcDbLine
 10
261.9907686708709
 20
237.8384379558533
 30
0.0
 11
262.7597046708709
 21
281.8907909558532
 31
0.0
  0
LINE
  5
729
330
2
100
AcDbEntity
  8
0
100
AcDbLine
 10
229.7597046708709
 20
234.8907909558533
 30
0.0
 11
258.9912256708708
 21
234.8907909558533
 31
0.0
  0
ARC
  5
72A
330
2
100
AcDbEntity
  8
0
100
AcDbCircle
 10
258.9912256708708
 20
237.8907909558532
 30
0.0
 40
3.0
100
AcDbArc
 50
270.0
 51
358.9999999999998
  0
LINE
  5
72C
330
2
100
AcDbEntity
  8
0
100
AcDbLine
 10
228.7597046708709
 20
244.8907909558532
 30
0.0
 11
228.7597046708709
 21
246.8907909558532
 31
0.0
  0
LINE
  5
72D
330
2
100
AcDbEntity
  8
0
100
AcDbLine
 10
227.7597046708709
 20
241.8907909558532
 30
0.0
 11
227.7597046708709
 21
244.8907909558532
 31
0.0
  0
LINE
  5
72E
330
2
100
AcDbEntity
  8
0
100
AcDbLine
 10
227.3307036708709
 20
241.8907909558532
 30
0.0
 11
229.7597046708709
 21
241.8907909558532
 31
0.0
  0
ARC
  5
72F
330
2
100
AcDbEntity
  8
0
100
AcDbCircle
 10
239.2597046708709
 20
247.8907909558532
 30
0.0
 40
1.0
100
AcDbArc
 50
270.0
 51
0.0
  0
LINE
  5
730
330
2
100
AcDbEntity
  8
0
100
AcDbLine
 10
240.2597046708709
 20
247.8907909558532
 30
0.0
 11
240.2597046708709
 21
248.890790955853
 31
0.0
  0
ARC
  5
731
330
2
100
AcDbEntity
  8
0
100
AcDbCircle
 10
260.2532046708708
 20
252.8907909558532
 30
0.0
 40
2.0
100
AcDbArc
 50
270.0
 51
358.9999999999998
  0
LINE
  5
732
330
2
100
AcDbEntity
  8
CENTER
100
AcDbLine
 10
254.259704670871
 20
327.8182892010294
 30
0.0
 11
254.259704670871
 21
315.9632627106771
 31
0.0
  0
ARC
  5
733
330
2
100
AcDbEntity
  8
0
100
AcDbCircle
 10
258.9912256708708
 20
325.8907759558532
 30
0.0
 40
3.0
100
AcDbArc
 50
1.000000000000147
 51
90.0
  0
LINE
  5
734
330
2
100
AcDbEntity
  8
CENTER
100
AcDbLine
 10
248.3321914256948
 20
321.8907759558532
 30
0.0
 11
260.1872179160471
 21
321.8907759558532
 31
0.0
  0
CIRCLE
  5
735
330
2
100
AcDbEntity
  8
0
100
AcDbCircle
 10
254.259704670871
 20
321.8907759558532
 30
0.0
 40
3.25
  0
ARC
  5
736
330
2
100
AcDbEntity
  8
0
100
AcDbCircle
 10
260.2532046708708
 20
310.8907909558532
 30
0.0
 40
2.0
100
AcDbArc
 50
1.000000000000147
 51
90.0
  0
LINE
  5
743
330
2
100
AcDbEntity
  8
CENTER
100
AcDbLine
 10
180.3321914256947
 20
321.8907759558532
 30
0.0
 11
192.187217916047
 21
321.8907759558532
 31
0.0
  0
LINE
  5
744
330
2
100
AcDbEntity
  8
CENTER
100
AcDbLine
 10
186.2597046708709
 20
327.8182892010294
 30
0.0
 11
186.2597046708709
 21
315.9632627106771
 31
0.0
  0
LINE
  5
745
330
2
100
AcDbEntity
  8
CENTER
100
AcDbLine
 10
180.3321914256947
 20
241.8907909558532
 30
0.0
 11
192.187217916047
 21
241.8907909558532
 31
0.0
  0
LINE
  5
746
330
2
100
AcDbEntity
  8
CENTER
100
AcDbLine
 10
186.2597046708709
 20
247.8183042010294
 30
0.0
 11
186.2597046708709
 21
235.9632777106771
 31
0.0
  0
LINE
  5
747
330
2
100
AcDbEntity
  8
CENTER
100
AcDbLine
 10
248.3321914256948
 20
241.8907909558532
 30
0.0
 11
260.1872179160471
 21
241.8907909558532
 31
0.0
  0
LINE
  5
748
330
2
100
AcDbEntity
  8
CENTER
100
AcDbLine
 10
254.259704670871
 20
247.8183042010294
 30
0.0
 11
254.259704670871
 21
235.9632777106771
 31
0.0
  0
TEXT
  5
75F
330
2
100
AcDbEntity
  8
TITLE
100
AcDbText
 10
379.7283688003147
 20
261.261827297881
 30
0.0
 40
5.0
  1
HLMN-15R-10~120-S40W
 41
0.8
100
AcDbText
  0
TEXT
  5
760
330
2
100
AcDbEntity
  8
TITLE
100
AcDbText
 10
379.7283688003147
 20
277.2618272978809
 30
0.0
 40
5.0
  1
HLMN-15R-10~240-S25W
 41
0.8
100
AcDbText
  0
TEXT
  5
761
330
2
100
AcDbEntity
  8
TITLE
100
AcDbText
 10
379.7283688003147
 20
269.2618272978809
 30
0.0
 40
5.0
  1
HLMN-15R-10~120-S40
 41
0.8
100
AcDbText
  0
TEXT
  5
762
330
2
100
AcDbEntity
  8
TITLE
100
AcDbText
 10
379.7283688003147
 20
285.2618272978809
 30
0.0
 40
5.0
  1
HLMN-15R-10~240-S25
 41
0.8
100
AcDbText
  0
TEXT
  5
763
330
2
100
AcDbEntity
  8
TITLE
100
AcDbText
 10
379.7283688003147
 20
293.2618272978809
 30
0.0
 40
5.0
  1
HLMN-15R-10~240-S15W
 41
0.8
100
AcDbText
  0
TEXT
  5
764
330
2
100
AcDbEntity
  8
TITLE
100
AcDbText
 10
379.7283688003147
 20
301.261827297881
 30
0.0
 40
5.0
  1
HLMN-15R-10~240-S15
 41
0.8
100
AcDbText
  0
TEXT
  5
765
330
2
100
AcDbEntity
  8
TITLE
100
AcDbText
 10
286.8263325911513
 20
261.261827297881
 30
0.0
 40
5.0
  1
HLMN-15R-10~120-T40W
 41
0.8
100
AcDbText
  0
TEXT
  5
766
330
2
100
AcDbEntity
  8
TITLE
100
AcDbText
 10
286.8263325911513
 20
253.261827297881
 30
0.0
 40
5.0
  1
HLMN-15R-10~60-T60
 41
0.8
100
AcDbText
  0
TEXT
  5
767
330
2
100
AcDbEntity
  8
TITLE
100
AcDbText
 10
286.8263325911513
 20
269.2618272978809
 30
0.0
 40
5.0
  1
HLMN-15R-10~120-T40
 41
0.8
100
AcDbText
  0
TEXT
  5
768
330
2
100
AcDbEntity
  8
TITLE
100
AcDbText
 10
286.8263325911513
 20
277.2618272978809
 30
0.0
 40
5.0
  1
HLMN-15R-10~240-T25W
 41
0.8
100
AcDbText
  0
TEXT
  5
769
330
2
100
AcDbEntity
  8
TITLE
100
AcDbText
 10
286.8263325911513
 20
293.2618272978809
 30
0.0
 40
5.0
  1
HLMN-15R-10~240-T15W
 41
0.8
100
AcDbText
  0
TEXT
  5
76A
330
2
100
AcDbEntity
  8
TITLE
100
AcDbText
 10
286.8263325911513
 20
285.2618272978809
 30
0.0
 40
5.0
  1
HLMN-15R-10~240-T25
 41
0.8
100
AcDbText
  0
TEXT
  5
76B
330
2
100
AcDbEntity
  8
TITLE
100
AcDbText
 10
286.8263325911513
 20
301.261827297881
 30
0.0
 40
5.0
  1
HLMN-15R-10~240-T15
 41
0.8
100
AcDbText
  0
ARC
  5
17DE
330
2
100
AcDbEntity
  8
0
100
AcDbCircle
 10
442.7482468585067
 20
138.0743563845185
 30
0.0
 40
2.0
100
AcDbArc
 50
180.0
 51
270.0
  0
ARC
  5
17DF
330
2
100
AcDbEntity
  8
0
100
AcDbCircle
 10
442.7482468585067
 20
94.07435638451852
 30
0.0
 40
2.0
100
AcDbArc
 50
90.00000000000003
 51
180.0
  0
ARC
  5
17E0
330
2
100
AcDbEntity
  8
0
100
AcDbCircle
 10
376.7482468585067
 20
94.07435638451852
 30
0.0
 40
2.0
100
AcDbArc
 50
0.000000000000007
 51
89.99999999999998
  0
ARC
  5
17E1
330
2
100
AcDbEntity
  8
0
100
AcDbCircle
 10
376.7482468585067
 20
138.0743563845185
 30
0.0
 40
2.0
100
AcDbArc
 50
270.0
 51
0.000000000000007
  0
LINE
  5
17E2
330
2
100
AcDbEntity
  8
0
100
AcDbLine
 10
239.2597086708709
 20
316.8907909558532
 30
0.0
 11
201.2597046708709
 21
316.8907909558532
 31
0.0
  0
ARC
  5
17E3
330
2
100
AcDbEntity
  8
0
100
AcDbCircle
 10
242.2597046708709
 20
314.8907909558532
 30
0.0
 40
2.0
100
AcDbArc
 50
180.0
 51
270.0
  0
LINE
  5
17E4
330
2
100
AcDbEntity
  8
0
100
AcDbLine
 10
240.2597086708709
 20
315.8907909558532
 30
0.0
 11
240.2597086708709
 21
314.8867909578582
 31
0.0
  0
ARC
  5
17E5
330
2
100
AcDbEntity
  8
0
100
AcDbCircle
 10
239.259712670871
 20
315.8907909558532
 30
0.0
 40
1.0
100
AcDbArc
 50
0.0
 51
90.0
  0
ARC
  5
17E6
330
2
100
AcDbEntity
  8
0
100
AcDbCircle
 10
201.259704670871
 20
315.8907909558532
 30
0.0
 40
1.0
100
AcDbArc
 50
90.0
 51
180.0
  0
ARC
  5
17E7
330
2
100
AcDbEntity
  8
0
100
AcDbCircle
 10
198.259704670871
 20
314.8907909558532
 30
0.0
 40
2.0
100
AcDbArc
 50
270.0
 51
0.0
  0
LINE
  5
17E8
330
2
100
AcDbEntity
  8
0
100
AcDbLine
 10
200.2597046708709
 20
315.8907909558532
 30
0.0
 11
200.2597046708709
 21
314.8907909558532
 31
0.0
  0
ARC
  5
17E9
330
2
100
AcDbEntity
  8
0
100
AcDbCircle
 10
198.259704670871
 20
248.890790955853
 30
0.0
 40
2.0
100
AcDbArc
 50
0.0
 51
90.00000000000003
  0
ARC
  5
17EA
330
2
100
AcDbEntity
  8
0
100
AcDbCircle
 10
242.2597046708709
 20
248.890790955853
 30
0.0
 40
2.0
100
AcDbArc
 50
90.00000000000003
 51
179.9999999999999
  0
ENDSEC
  0
SECTION
  2
OBJECTS
  0
DICTIONARY
  5
7
330
0
100
AcDbDictionary
  3
ACAD_GROUP
350
75
  3
ACAD_LAYOUT
350
61
  3
ACAD_MLINESTYLE
350
76
  3
ACAD_PLOTSETTINGS
350
77
  3
ACAD_PLOTSTYLENAME
350
6
  3
ACADDIM
350
480
  3
ACDBHEADERROUNDTRIPXREC
350
1825
  3
ACDBVARIABLEDICTIONARY
350
102
  3
DWGPROPS
350
3D2
  0
DICTIONARY
  5
1846
330
2
100
AcDbDictionary
280
     1
  3
ACAD_LAYOUTSELFREF
360
1847
  0
DICTIONARY
  5
1848
330
181F
100
AcDbDictionary
280
     1
  3
ACAD_LAYOUTSELFREF
360
1849
  0
DICTIONARY
  5
75
102
{ACAD_REACTORS
330
7
102
}
330
7
100
AcDbDictionary
  0
DICTIONARY
  5
61
102
{ACAD_REACTORS
330
7
102
}
330
7
100
AcDbDictionary
  0
DICTIONARY
  5
76
102
{ACAD_REACTORS
330
7
102
}
330
7
100
AcDbDictionary
  3
STANDARD
350
78
  0
DICTIONARY
  5
77
102
{ACAD_REACTORS
330
7
102
}
330
7
100
AcDbDictionary
  0
ACDBDICTIONARYWDFLT
  5
6
102
{ACAD_REACTORS
330
7
102
}
330
7
100
AcDbDictionary
281
     1
  3
Normal
350
5
100
AcDbDictionaryWithDefault
340
5
  0
XRECORD
  5
480
102
{ACAD_REACTORS
330
7
102
}
330
7
100
AcDbXrecord
 90
   990106
  3

 60
     0
 61
     0
 62
     1
 63
     3
 64
     1
 65
     0
 66
     0
 67
     3
 68
     1
 69
     0
 70
     0
 71
     0
 72
     0
 40
0.0
170
     2
340
0
  0
DICTIONARY
  5
1825
102
{ACAD_REACTORS
330
7
102
}
330
7
100
AcDbDictionary
  3
CEPSNTYPE
350
182F
  3
DIMSTYLEDATA
350
1833
  3
FINGERPRINTGUID
350
1830
  3
HYPERLINKBASE
350
1828
  3
INSUNITS
350
182E
  3
LAYOUTDICT
350
182A
  3
LWETCUNION
350
182D
  3
PLOTSETDICT
350
182B
  3
PLOTSTYLNAMDICT
350
182C
  3
PSVPSCALE
350
1832
  3
PUCSBASE
350
1836
  3
PUCSORGBACK
350
183C
  3
PUCSORGBOTTOM
350
1838
  3
PUCSORGFRONT
350
183B
  3
PUCSORGLEFT
350
1839
  3
PUCSORGRIGHT
350
183A
  3
PUCSORGTOP
350
1837
  3
PUCSORTHOREF
350
1834
  3
PUCSORTHOVIEW
350
1835
  3
STYLESHEET
350
1829
  3
TSTACKALIGN
350
1826
  3
TSTACKSIZE
350
1827
  3
UCSBASE
350
183F
  3
UCSORGBACK
350
1845
  3
UCSORGBOTTOM
350
1841
  3
UCSORGFRONT
350
1844
  3
UCSORGLEFT
350
1842
  3
UCSORGRIGHT
350
1843
  3
UCSORGTOP
350
1840
  3
UCSORTHOREF
350
183D
  3
UCSORTHOVIEW
350
183E
  3
VERSIONGUID
350
1831
  0
DICTIONARY
  5
102
102
{ACAD_REACTORS
330
7
102
}
330
7
100
AcDbDictionary
  3
DIMASSOC
350
103
  0
XRECORD
  5
3D2
102
{ACAD_REACTORS
330
7
102
}
330
7
100
AcDbXrecord
  1
DWGPROPS COOKIE
  2

  3

  4

  6

  7

  8

  9

300
=
301
=
302
=
303
=
304
=
305
=
306
=
307
=
308
=
309
=
 40
0.5353330671296296
 41
2452052.431989363
 42
2453406.550756377
  1

 90
        0
  0
XRECORD
  5
1847
102
{ACAD_REACTORS
330
1846
102
}
330
1846
100
AcDbXrecord
340
2
  0
XRECORD
  5
1849
102
{ACAD_REACTORS
330
1848
102
}
330
1848
100
AcDbXrecord
340
181F
  0
MLINESTYLE
  5
78
102
{ACAD_REACTORS
330
76
102
}
330
76
100
AcDbMlineStyle
  2
STANDARD
 70
     0
  3

 62
     0
 51
90.0
 52
90.0
 71
     2
 49
0.5
 62
   256
  6
BYLAYER
 49
-0.5
 62
   256
  6
BYLAYER
  0
ACDBPLACEHOLDER
  5
5
102
{ACAD_REACTORS
330
6
102
}
330
6
100
AcDbPlaceHolder
280
     0
  0
XRECORD
  5
182F
102
{ACAD_REACTORS
330
1825
102
}
330
1825
100
AcDbXrecord
 90
        0
  0
XRECORD
  5
1833
102
{ACAD_REACTORS
330
1825
102
}
330
1825
100
AcDbXrecord
1000
DSTYLE
1002
{
1070
   179
 70
     2
1070
   277
 70
     6
1002
}
  0
XRECORD
  5
1830
102
{ACAD_REACTORS
330
1825
102
}
330
1825
100
AcDbXrecord
  1
{6385560B-F4B1-4644-A7C2-A3E32AC3D232}
  0
XRECORD
  5
1828
102
{ACAD_REACTORS
330
1825
102
}
330
1825
100
AcDbXrecord
  1

  0
XRECORD
  5
182E
102
{ACAD_REACTORS
330
1825
102
}
330
1825
100
AcDbXrecord
 90
        0
  0
XRECORD
  5
182A
102
{ACAD_REACTORS
330
1825
102
}
330
1825
100
AcDbXrecord
340
61
  0
XRECORD
  5
182D
102
{ACAD_REACTORS
330
1825
102
}
330
1825
100
AcDbXrecord
 90
    10781
  0
XRECORD
  5
182B
102
{ACAD_REACTORS
330
1825
102
}
330
1825
100
AcDbXrecord
340
77
  0
XRECORD
  5
182C
102
{ACAD_REACTORS
330
1825
102
}
330
1825
100
AcDbXrecord
340
6
  0
XRECORD
  5
1832
102
{ACAD_REACTORS
330
1825
102
}
330
1825
100
AcDbXrecord
 40
0.0
  0
XRECORD
  5
1836
102
{ACAD_REACTORS
330
1825
102
}
330
1825
100
AcDbXrecord
340
0
  0
XRECORD
  5
183C
102
{ACAD_REACTORS
330
1825
102
}
330
1825
100
AcDbXrecord
 10
0.0
 20
0.0
 30
0.0
  0
XRECORD
  5
1838
102
{ACAD_REACTORS
330
1825
102
}
330
1825
100
AcDbXrecord
 10
0.0
 20
0.0
 30
0.0
  0
XRECORD
  5
183B
102
{ACAD_REACTORS
330
1825
102
}
330
1825
100
AcDbXrecord
 10
0.0
 20
0.0
 30
0.0
  0
XRECORD
  5
1839
102
{ACAD_REACTORS
330
1825
102
}
330
1825
100
AcDbXrecord
 10
0.0
 20
0.0
 30
0.0
  0
XRECORD
  5
183A
102
{ACAD_REACTORS
330
1825
102
}
330
1825
100
AcDbXrecord
 10
0.0
 20
0.0
 30
0.0
  0
XRECORD
  5
1837
102
{ACAD_REACTORS
330
1825
102
}
330
1825
100
AcDbXrecord
 10
0.0
 20
0.0
 30
0.0
  0
XRECORD
  5
1834
102
{ACAD_REACTORS
330
1825
102
}
330
1825
100
AcDbXrecord
340
0
  0
XRECORD
  5
1835
102
{ACAD_REACTORS
330
1825
102
}
330
1825
100
AcDbXrecord
 70
     0
  0
XRECORD
  5
1829
102
{ACAD_REACTORS
330
1825
102
}
330
1825
100
AcDbXrecord
  1
Sekkei.ctb
  0
XRECORD
  5
1826
102
{ACAD_REACTORS
330
1825
102
}
330
1825
100
AcDbXrecord
 90
        1
  0
XRECORD
  5
1827
102
{ACAD_REACTORS
330
1825
102
}
330
1825
100
AcDbXrecord
 90
       70
  0
XRECORD
  5
183F
102
{ACAD_REACTORS
330
1825
102
}
330
1825
100
AcDbXrecord
340
0
  0
XRECORD
  5
1845
102
{ACAD_REACTORS
330
1825
102
}
330
1825
100
AcDbXrecord
 10
0.0
 20
0.0
 30
0.0
  0
XRECORD
  5
1841
102
{ACAD_REACTORS
330
1825
102
}
330
1825
100
AcDbXrecord
 10
0.0
 20
0.0
 30
0.0
  0
XRECORD
  5
1844
102
{ACAD_REACTORS
330
1825
102
}
330
1825
100
AcDbXrecord
 10
0.0
 20
0.0
 30
0.0
  0
XRECORD
  5
1842
102
{ACAD_REACTORS
330
1825
102
}
330
1825
100
AcDbXrecord
 10
0.0
 20
0.0
 30
0.0
  0
XRECORD
  5
1843
102
{ACAD_REACTORS
330
1825
102
}
330
1825
100
AcDbXrecord
 10
0.0
 20
0.0
 30
0.0
  0
XRECORD
  5
1840
102
{ACAD_REACTORS
330
1825
102
}
330
1825
100
AcDbXrecord
 10
0.0
 20
0.0
 30
0.0
  0
XRECORD
  5
183D
102
{ACAD_REACTORS
330
1825
102
}
330
1825
100
AcDbXrecord
340
0
  0
XRECORD
  5
183E
102
{ACAD_REACTORS
330
1825
102
}
330
1825
100
AcDbXrecord
 70
     0
  0
XRECORD
  5
1831
102
{ACAD_REACTORS
330
1825
102
}
330
1825
100
AcDbXrecord
  1
{4AEC58CA-75D4-434E-AD79-9BBE7A95AB45}
  0
DICTIONARYVAR
  5
103
102
{ACAD_REACTORS
330
102
102
}
330
102
100
DictionaryVariables
280
     0
  1
1
  0
ENDSEC
  0
EOF
