  0
SECTION
  2
HEADER
  9
$ACADVER
  1
AC1014
  9
$ACADMAINTVER
 70
     9
  9
$DWGCODEPAGE
  3
ANSI_932
  9
$INSBASE
 10
0.0
 20
0.0
 30
0.0
  9
$EXTMIN
 10
39.75970267087097
 20
44.07435338451853
 30
0.0
  9
$EXTMAX
 10
463.5378926098389
 20
365.8907759558532
 30
0.0
  9
$LIMMIN
 10
0.0
 20
0.0
  9
$LIMMAX
 10
297.0
 20
210.0
  9
$ORTHOMODE
 70
     1
  9
$REGENMODE
 70
     1
  9
$FILLMODE
 70
     1
  9
$QTEXTMODE
 70
     0
  9
$MIRRTEXT
 70
     0
  9
$DRAGMODE
 70
     2
  9
$LTSCALE
 40
2.0
  9
$OSMODE
 70
    37
  9
$ATTMODE
 70
     1
  9
$TEXTSIZE
 40
2.0
  9
$TRACEWID
 40
1.0
  9
$TEXTSTYLE
  7
STANDARD
  9
$CLAYER
  8
0
  9
$CELTYPE
  6
BYLAYER
  9
$CECOLOR
 62
   256
  9
$CELTSCALE
 40
1.0
  9
$DELOBJ
 70
     1
  9
$DISPSILH
 70
     0
  9
$DIMSCALE
 40
2.0
  9
$DIMASZ
 40
1.8
  9
$DIMEXO
 40
0.625
  9
$DIMDLI
 40
3.75
  9
$DIMRND
 40
0.0
  9
$DIMDLE
 40
0.0
  9
$DIMEXE
 40
0.8
  9
$DIMTP
 40
0.0
  9
$DIMTM
 40
0.0
  9
$DIMTXT
 40
1.8
  9
$DIMCEN
 40
2.5
  9
$DIMTSZ
 40
0.0
  9
$DIMTOL
 70
     0
  9
$DIMLIM
 70
     0
  9
$DIMTIH
 70
     0
  9
$DIMTOH
 70
     0
  9
$DIMSE1
 70
     0
  9
$DIMSE2
 70
     0
  9
$DIMTAD
 70
     1
  9
$DIMZIN
 70
     8
  9
$DIMBLK
  1

  9
$DIMASO
 70
     1
  9
$DIMSHO
 70
     1
  9
$DIMPOST
  1

  9
$DIMAPOST
  1

  9
$DIMALT
 70
     0
  9
$DIMALTD
 70
     4
  9
$DIMALTF
 40
0.0394
  9
$DIMLFAC
 40
1.0
  9
$DIMTOFL
 70
     1
  9
$DIMTVP
 40
0.0
  9
$DIMTIX
 70
     0
  9
$DIMSOXD
 70
     0
  9
$DIMSAH
 70
     0
  9
$DIMBLK1
  1

  9
$DIMBLK2
  1

  9
$DIMSTYLE
  2
STANDARD
  9
$DIMCLRD
 70
     0
  9
$DIMCLRE
 70
     0
  9
$DIMCLRT
 70
     0
  9
$DIMTFAC
 40
1.0
  9
$DIMGAP
 40
0.75
  9
$DIMJUST
 70
     0
  9
$DIMSD1
 70
     0
  9
$DIMSD2
 70
     0
  9
$DIMTOLJ
 70
     1
  9
$DIMTZIN
 70
     0
  9
$DIMALTZ
 70
     0
  9
$DIMALTTZ
 70
     0
  9
$DIMFIT
 70
     3
  9
$DIMUPT
 70
     0
  9
$DIMUNIT
 70
     8
  9
$DIMDEC
 70
     2
  9
$DIMTDEC
 70
     2
  9
$DIMALTU
 70
     8
  9
$DIMALTTD
 70
     4
  9
$DIMTXSTY
  7
STANDARD
  9
$DIMAUNIT
 70
     0
  9
$LUNITS
 70
     2
  9
$LUPREC
 70
     3
  9
$SKETCHINC
 40
1.0
  9
$FILLETRAD
 40
10.0
  9
$AUNITS
 70
     0
  9
$AUPREC
 70
     2
  9
$MENU
  1
.
  9
$ELEVATION
 40
0.0
  9
$PELEVATION
 40
0.0
  9
$THICKNESS
 40
0.0
  9
$LIMCHECK
 70
     0
  9
$BLIPMODE
 70
     0
  9
$CHAMFERA
 40
0.0
  9
$CHAMFERB
 40
0.0
  9
$CHAMFERC
 40
20.0
  9
$CHAMFERD
 40
0.0
  9
$SKPOLY
 70
     0
  9
$TDCREATE
 40
2453753.555724282
  9
$TDUPDATE
 40
2454399.560158055
  9
$TDINDWG
 40
0.3576079398
  9
$TDUSRTIMER
 40
0.3576079398
  9
$USRTIMER
 70
     1
  9
$ANGBASE
 50
0.0
  9
$ANGDIR
 70
     0
  9
$PDMODE
 70
     0
  9
$PDSIZE
 40
-10.0
  9
$PLINEWID
 40
0.0
  9
$COORDS
 70
     1
  9
$SPLFRAME
 70
     0
  9
$SPLINETYPE
 70
     6
  9
$SPLINESEGS
 70
     8
  9
$ATTDIA
 70
     0
  9
$ATTREQ
 70
     1
  9
$HANDLING
 70
-16383
  9
$HANDSEED
  5
1C75
  9
$SURFTAB1
 70
     6
  9
$SURFTAB2
 70
     6
  9
$SURFTYPE
 70
     6
  9
$SURFU
 70
     6
  9
$SURFV
 70
     6
  9
$UCSNAME
  2

  9
$UCSORG
 10
0.0
 20
0.0
 30
0.0
  9
$UCSXDIR
 10
1.0
 20
0.0
 30
0.0
  9
$UCSYDIR
 10
0.0
 20
1.0
 30
0.0
  9
$PUCSNAME
  2

  9
$PUCSORG
 10
0.0
 20
0.0
 30
0.0
  9
$PUCSXDIR
 10
1.0
 20
0.0
 30
0.0
  9
$PUCSYDIR
 10
0.0
 20
1.0
 30
0.0
  9
$USERI1
 70
     0
  9
$USERI2
 70
     0
  9
$USERI3
 70
     0
  9
$USERI4
 70
     0
  9
$USERI5
 70
     0
  9
$USERR1
 40
0.0
  9
$USERR2
 40
0.0
  9
$USERR3
 40
0.0
  9
$USERR4
 40
0.0
  9
$USERR5
 40
0.0
  9
$WORLDVIEW
 70
     1
  9
$SHADEDGE
 70
     3
  9
$SHADEDIF
 70
    70
  9
$TILEMODE
 70
     1
  9
$MAXACTVP
 70
    48
  9
$PINSBASE
 10
0.0
 20
0.0
 30
0.0
  9
$PLIMCHECK
 70
     0
  9
$PEXTMIN
 10
0.0
 20
0.0
 30
0.0
  9
$PEXTMAX
 10
0.0
 20
0.0
 30
0.0
  9
$PLIMMIN
 10
0.0
 20
0.0
  9
$PLIMMAX
 10
12.0
 20
9.0
  9
$UNITMODE
 70
     0
  9
$VISRETAIN
 70
     1
  9
$PLINEGEN
 70
     0
  9
$PSLTSCALE
 70
     1
  9
$TREEDEPTH
 70
  3020
  9
$PICKSTYLE
 70
     1
  9
$CMLSTYLE
  2
STANDARD
  9
$CMLJUST
 70
     0
  9
$CMLSCALE
 40
1.0
  9
$PROXYGRAPHICS
 70
     1
  9
$MEASUREMENT
 70
     0
  0
ENDSEC
  0
SECTION
  2
CLASSES
  0
CLASS
  1
DICTIONARYVAR
  2
AcDbDictionaryVar
  3
AutoCAD 2000
 90
        0
280
     0
281
     0
  0
CLASS
  1
ACDBDICTIONARYWDFLT
  2
AcDbDictionaryWithDefault
  3
AutoCAD 2000
 90
        0
280
     0
281
     0
  0
CLASS
  1
ACDBPLACEHOLDER
  2
AcDbPlaceHolder
  3
AutoCAD 2000
 90
        0
280
     0
281
     0
  0
CLASS
  1
LAYOUT
  2
AcDbLayout
  3
AutoCAD 2000
 90
        0
280
     0
281
     0
  0
CLASS
  1
LONG_TRANSACTION
  2
AcDbLongTransaction
  3
AutoCAD 2000
 90
        0
280
     0
281
     0
  0
CLASS
  1
LWPOLYLINE
  2
AcDbPolyline
  3
AutoCAD 2000
 90
        0
280
     0
281
     1
  0
CLASS
  1
HATCH
  2
AcDbHatch
  3
AutoCAD 2000
 90
        0
280
     0
281
     1
  0
CLASS
  1
XRECORD
  2
AcDbXrecord
  3
AutoCAD 2000
 90
        0
280
     0
281
     0
  0
ENDSEC
  0
SECTION
  2
TABLES
  0
TABLE
  2
VPORT
  5
6E
330
0
100
AcDbSymbolTable
 70
     2
  0
VPORT
  5
1C4F
330
6E
100
AcDbSymbolTableRecord
100
AcDbViewportTableRecord
  2
*ACTIVE
 70
     0
 10
0.0
 20
0.0
 11
1.0
 21
1.0
 12
244.9955077508389
 22
193.3019469076561
 13
0.0
 23
0.0
 14
10.0
 24
10.0
 15
10.0
 25
10.0
 16
0.0
 26
0.0
 36
1.0
 17
0.0
 27
0.0
 37
0.0
 40
347.8452026675864
 41
1.540920716112531
 42
50.0
 43
0.0
 44
0.0
 50
0.0
 51
0.0
 71
     0
 72
   100
 73
     1
 74
     3
 75
     0
 76
     0
 77
     0
 78
     0
  0
ENDTAB
  0
TABLE
  2
LTYPE
  5
69
330
0
100
AcDbSymbolTable
 70
     4
  0
LTYPE
  5
6A
330
69
100
AcDbSymbolTableRecord
100
AcDbLinetypeTableRecord
  2
BYBLOCK
 70
     0
  3

 72
    65
 73
     0
 40
0.0
  0
LTYPE
  5
6B
330
69
100
AcDbSymbolTableRecord
100
AcDbLinetypeTableRecord
  2
BYLAYER
 70
     0
  3

 72
    65
 73
     0
 40
0.0
  0
LTYPE
  5
8
330
69
100
AcDbSymbolTableRecord
100
AcDbLinetypeTableRecord
  2
CONTINUOUS
 70
     0
  3
Solid line
 72
    65
 73
     0
 40
0.0
  0
LTYPE
  5
27C
330
69
100
AcDbSymbolTableRecord
100
AcDbLinetypeTableRecord
  2
SEKKEI_A2_
 70
     0
  3
center(A2)  ____ _ ____ _ ____ _ ____ _ ____ _ 
 72
    65
 73
     4
 40
14.28749999999999
 49
9.525
 74
     0
 49
-1.587499999999999
 74
     0
 49
1.587499999999999
 74
     0
 49
-1.587499999999999
 74
     0
  0
LTYPE
  5
2B4
330
69
100
AcDbSymbolTableRecord
100
AcDbLinetypeTableRecord
  2
HIDDEN2
 70
     0
  3
Hidden (.5x) _ _ _ _ _ _ _ _ _ _ _ _ _ _ _ _ _
 72
    65
 73
     2
 40
4.762499999999999
 49
3.174999999999999
 74
     0
 49
-1.587499999999999
 74
     0
  0
LTYPE
  5
48F
330
69
100
AcDbSymbolTableRecord
100
AcDbLinetypeTableRecord
  2
SEKKEI_H
 70
     0
  3
Hidden-S _ _ _ _ _ _ _ _ _ _ _ _ _ _ _ _ _
 72
    65
 73
     2
 40
2.381249999999999
 49
1.587499999999999
 74
     0
 49
-0.79375
 74
     0
  0
ENDTAB
  0
TABLE
  2
LAYER
  5
66
330
0
100
AcDbSymbolTable
 70
     9
  0
LAYER
  5
5E
330
66
100
AcDbSymbolTableRecord
100
AcDbLayerTableRecord
  2
0
 70
     0
 62
     7
  6
CONTINUOUS
  0
LAYER
  5
3E
330
66
100
AcDbSymbolTableRecord
100
AcDbLayerTableRecord
  2
CENTER
 70
     0
 62
     3
  6
SEKKEI_A2_
  0
LAYER
  5
2B5
330
66
100
AcDbSymbolTableRecord
100
AcDbLayerTableRecord
  2
HIDS
 70
     0
 62
     1
  6
HIDDEN2
  0
LAYER
  5
2BA
330
66
100
AcDbSymbolTableRecord
100
AcDbLayerTableRecord
  2
HOJO
 70
     0
 62
     4
  6
CONTINUOUS
  0
LAYER
  5
3FA
330
66
100
AcDbSymbolTableRecord
100
AcDbLayerTableRecord
  2
TITLE
 70
     0
 62
     4
  6
CONTINUOUS
  0
ENDTAB
  0
TABLE
  2
STYLE
  5
67
330
0
100
AcDbSymbolTable
 70
     1
  0
STYLE
  5
16
330
67
100
AcDbSymbolTableRecord
100
AcDbTextStyleTableRecord
  2
STANDARD
 70
     0
 40
0.0
 41
1.0
 50
0.0
 71
     0
 42
2.0
  3
simplex.shx
  4
extfont.shx
  0
ENDTAB
  0
TABLE
  2
VIEW
  5
6C
330
0
100
AcDbSymbolTable
 70
     0
  0
ENDTAB
  0
TABLE
  2
UCS
  5
6D
330
0
100
AcDbSymbolTable
 70
     0
  0
ENDTAB
  0
TABLE
  2
APPID
  5
70
330
0
100
AcDbSymbolTable
 70
     1
  0
APPID
  5
71
330
70
100
AcDbSymbolTableRecord
100
AcDbRegAppTableRecord
  2
ACAD
 70
     0
  0
ENDTAB
  0
TABLE
  2
DIMSTYLE
  5
72
330
0
100
AcDbSymbolTable
 70
     1
  0
DIMSTYLE
105
73
330
72
100
AcDbSymbolTableRecord
100
AcDbDimStyleTableRecord
  2
STANDARD
 70
     0
  3

  4

  5

  6

  7

 40
2.0
 41
1.8
 42
0.625
 43
3.75
 44
0.8
 45
0.0
 46
0.0
 47
0.0
 48
0.0
140
1.8
141
2.5
142
0.0
143
0.0394
144
1.0
145
0.0
146
1.0
147
0.75
 71
     0
 72
     0
 73
     0
 74
     0
 75
     0
 76
     0
 77
     1
 78
     8
170
     0
171
     4
172
     1
173
     0
174
     0
175
     0
176
     0
177
     0
178
     0
270
     8
271
     2
272
     2
273
     8
274
     4
340
16
275
     0
280
     0
281
     0
282
     0
283
     1
284
     0
285
     0
286
     0
287
     3
288
     0
  0
ENDTAB
  0
TABLE
  2
BLOCK_RECORD
  5
1
330
0
100
AcDbSymbolTable
 70
    60
  0
BLOCK_RECORD
  5
2
102
{ACAD_XDICTIONARY
360
1C71
102
}
330
1
100
AcDbSymbolTableRecord
100
AcDbBlockTableRecord
  2
*MODEL_SPACE
  0
BLOCK_RECORD
  5
1C4A
102
{ACAD_XDICTIONARY
360
1C73
102
}
330
1
100
AcDbSymbolTableRecord
100
AcDbBlockTableRecord
  2
*PAPER_SPACE
  0
ENDTAB
  0
ENDSEC
  0
SECTION
  2
BLOCKS
  0
BLOCK
  5
5D
330
2
100
AcDbEntity
  8
0
100
AcDbBlockBegin
  2
*MODEL_SPACE
 70
     0
 10
0.0
 20
0.0
 30
0.0
  3
*MODEL_SPACE
  1

  0
ENDBLK
  5
5F
330
2
100
AcDbEntity
  8
0
100
AcDbBlockEnd
  0
BLOCK
  5
1C4C
330
1C4A
100
AcDbEntity
 67
     1
  8
0
100
AcDbBlockBegin
  2
*PAPER_SPACE
 70
     0
 10
0.0
 20
0.0
 30
0.0
  3
*PAPER_SPACE
  1

  0
ENDBLK
  5
1C4D
330
1C4A
100
AcDbEntity
 67
     1
  8
0
100
AcDbBlockEnd
  0
ENDSEC
  0
SECTION
  2
ENTITIES
  0
LINE
  5
618
330
2
100
AcDbEntity
  8
0
100
AcDbLine
 10
181.5280606708709
 20
358.8907759558532
 30
0.0
 11
258.9912256708708
 21
358.8907759558532
 31
0.0
  0
LINE
  5
619
330
2
100
AcDbEntity
  8
0
100
AcDbLine
 10
239.2597046708709
 20
276.8907909558532
 30
0.0
 11
201.2597046708709
 21
276.8907909558532
 31
0.0
  0
LINE
  5
61A
330
2
100
AcDbEntity
  8
0
100
AcDbLine
 10
211.7597046708709
 20
274.8907909558532
 30
0.0
 11
228.7597046708709
 21
274.8907909558532
 31
0.0
  0
LINE
  5
61B
330
2
100
AcDbEntity
  8
0
100
AcDbLine
 10
212.7597046708709
 20
247.8907909558532
 30
0.0
 11
229.7597046708709
 21
247.8907909558532
 31
0.0
  0
LINE
  5
61C
330
2
100
AcDbEntity
  8
0
100
AcDbLine
 10
180.2662046708709
 20
280.8907909558532
 30
0.0
 11
260.2532046708708
 21
280.8907909558532
 31
0.0
  0
LINE
  5
61D
330
2
100
AcDbEntity
  8
0
100
AcDbLine
 10
180.2662046708709
 20
342.8907909558532
 30
0.0
 11
260.2532046708708
 21
342.8907909558532
 31
0.0
  0
LINE
  5
61E
330
2
100
AcDbEntity
  8
CENTER
100
AcDbLine
 10
39.75970267087097
 20
311.8907909558533
 30
0.0
 11
269.7597046708709
 21
311.8907909558531
 31
0.0
  0
LINE
  5
61F
330
2
100
AcDbEntity
  8
0
100
AcDbLine
 10
226.6347046708709
 20
88.46644238451853
 30
0.0
 11
227.1078036708709
 21
88.46644238451853
 31
0.0
  0
LINE
  5
620
330
2
100
AcDbEntity
  8
0
100
AcDbLine
 10
228.6392976708709
 20
80.07435238451853
 30
0.0
 11
226.6347046708709
 21
80.07435238451853
 31
0.0
  0
LINE
  5
621
330
2
100
AcDbEntity
  8
0
100
AcDbLine
 10
226.6347046708709
 20
81.07044238451852
 30
0.0
 11
227.1078036708709
 21
81.07044238451852
 31
0.0
  0
LINE
  5
622
330
2
100
AcDbEntity
  8
0
100
AcDbLine
 10
226.6347046708709
 20
89.63685238451853
 30
0.0
 11
230.4571986708709
 21
89.63685238451853
 31
0.0
  0
CIRCLE
  5
623
330
2
100
AcDbEntity
  8
0
100
AcDbCircle
 10
220.2597046708709
 20
116.0743563845185
 30
0.0
 40
20.0
  0
ARC
  5
624
330
2
100
AcDbEntity
  8
0
100
AcDbCircle
 10
220.2597046708709
 20
116.0743563845185
 30
0.0
 40
7.5
100
AcDbArc
 50
19.47121000000005
 51
340.5288089999999
  0
LINE
  5
625
330
2
100
AcDbEntity
  8
0
100
AcDbLine
 10
224.7597046708709
 20
113.5743563845185
 30
0.0
 11
229.7597046708709
 21
113.5743563845185
 31
0.0
  0
LINE
  5
626
330
2
100
AcDbEntity
  8
0
100
AcDbLine
 10
224.7597046708709
 20
118.5743563845185
 30
0.0
 11
229.7597046708709
 21
118.5743563845185
 31
0.0
  0
ARC
  5
627
330
2
100
AcDbEntity
  8
0
100
AcDbCircle
 10
220.2597046708709
 20
103.0743523845185
 30
0.0
 40
42.5
100
AcDbArc
 50
19.749901
 51
160.2501069999997
  0
ARC
  5
628
330
2
100
AcDbEntity
  8
0
100
AcDbCircle
 10
220.2597046708709
 20
103.0743523845185
 30
0.0
 40
42.5
100
AcDbArc
 50
199.7498930000002
 51
340.2500920000002
  0
LINE
  5
629
330
2
100
AcDbEntity
  8
0
100
AcDbLine
 10
179.7597046708709
 20
59.07435338451853
 30
0.0
 11
260.7597046708709
 21
59.07435338451853
 31
0.0
  0
LINE
  5
62A
330
2
100
AcDbEntity
  8
0
100
AcDbLine
 10
206.8392026708709
 20
148.6743553845185
 30
0.0
 11
233.6802066708709
 21
148.6743553845185
 31
0.0
  0
LINE
  5
62B
330
2
100
AcDbEntity
  8
0
100
AcDbLine
 10
177.7597046708709
 20
51.07435338451853
 30
0.0
 11
262.7597046708709
 21
51.07435338451853
 31
0.0
  0
LINE
  5
62C
330
2
100
AcDbEntity
  8
CENTER
100
AcDbLine
 10
193.5097671784689
 20
116.0743563845185
 30
0.0
 11
247.509642163273
 21
116.0743563845185
 31
0.0
  0
LINE
  5
62D
330
2
100
AcDbEntity
  8
0
100
AcDbLine
 10
105.2596506708709
 20
63.77435338451852
 30
0.0
 11
177.7597046708709
 21
63.77435338451852
 31
0.0
  0
LINE
  5
62E
330
2
100
AcDbEntity
  8
0
100
AcDbLine
 10
105.2596506708709
 20
123.7743533845185
 30
0.0
 11
177.7597046708709
 21
123.7743533845185
 31
0.0
  0
LINE
  5
62F
330
2
100
AcDbEntity
  8
0
100
AcDbLine
 10
105.2597046708709
 20
55.77435338451852
 30
0.0
 11
177.7597046708709
 21
55.77435338451852
 31
0.0
  0
LINE
  5
630
330
2
100
AcDbEntity
  8
0
100
AcDbLine
 10
105.2597046708709
 20
131.7743533845185
 30
0.0
 11
181.1793976708709
 21
131.7743533845185
 31
0.0
  0
LINE
  5
631
330
2
100
AcDbEntity
  8
CENTER
100
AcDbLine
 10
39.75970267087097
 20
93.77435338451851
 30
0.0
 11
197.0097046708709
 21
93.77435338451851
 31
0.0
  0
LINE
  5
632
330
2
100
AcDbEntity
  8
0
100
AcDbLine
 10
105.2597046708709
 20
55.77435338451852
 30
0.0
 11
105.2597046708709
 21
131.7743533845185
 31
0.0
  0
LINE
  5
633
330
2
100
AcDbEntity
  8
0
100
AcDbLine
 10
46.75970267087092
 20
58.77435338451852
 30
0.0
 11
46.75970267087092
 21
128.7743533845185
 31
0.0
  0
LINE
  5
634
330
2
100
AcDbEntity
  8
0
100
AcDbLine
 10
95.75970467087097
 20
53.77435338451852
 30
0.0
 11
95.75970467087097
 21
133.7743533845185
 31
0.0
  0
ARC
  5
635
330
2
100
AcDbEntity
  8
0
100
AcDbCircle
 10
51.75970267087092
 20
58.77435338451852
 30
0.0
 40
5.0
100
AcDbArc
 50
180.0
 51
270.0
  0
LINE
  5
637
330
2
100
AcDbEntity
  8
0
100
AcDbLine
 10
49.25970267087092
 20
69.77435338451852
 30
0.0
 11
95.75970467087097
 21
69.77435338451852
 31
0.0
  0
LINE
  5
638
330
2
100
AcDbEntity
  8
0
100
AcDbLine
 10
51.75970367087092
 20
53.77435338451852
 30
0.0
 11
95.75970467087097
 21
53.77435338451852
 31
0.0
  0
LINE
  5
639
330
2
100
AcDbEntity
  8
0
100
AcDbLine
 10
95.75970467087097
 20
63.52535238451853
 30
0.0
 11
105.2597046708709
 21
63.52535238451853
 31
0.0
  0
LINE
  5
63A
330
2
100
AcDbEntity
  8
0
100
AcDbLine
 10
95.75970467087097
 20
55.77435338451852
 30
0.0
 11
105.2597046708709
 21
55.77435338451852
 31
0.0
  0
ARC
  5
63B
330
2
100
AcDbEntity
  8
0
100
AcDbCircle
 10
51.75972767087092
 20
128.7743763845185
 30
0.0
 40
5.0
100
AcDbArc
 50
90.0
 51
180.0
  0
LINE
  5
640
330
2
100
AcDbEntity
  8
0
100
AcDbLine
 10
49.25970267087092
 20
119.7743533845185
 30
0.0
 11
95.75970467087097
 21
119.7743533845185
 31
0.0
  0
LINE
  5
641
330
2
100
AcDbEntity
  8
0
100
AcDbLine
 10
51.75970267087092
 20
133.7743533845185
 30
0.0
 11
95.75970467087097
 21
133.7743533845185
 31
0.0
  0
ARC
  5
642
330
2
100
AcDbEntity
  8
0
100
AcDbCircle
 10
95.75970467087097
 20
116.3993533845185
 30
0.0
 40
4.5
100
AcDbArc
 50
0.0
 51
90.0
  0
ARC
  5
643
330
2
100
AcDbEntity
  8
0
100
AcDbCircle
 10
95.75970467087097
 20
116.3993533845185
 30
0.0
 40
3.0
100
AcDbArc
 50
0.0
 51
90.0
  0
LINE
  5
644
330
2
100
AcDbEntity
  8
HOJO
100
AcDbLine
 10
98.75970467087098
 20
112.3972553845185
 30
0.0
 11
100.2597046708709
 21
113.1764533845185
 31
0.0
  0
LINE
  5
645
330
2
100
AcDbEntity
  8
0
100
AcDbLine
 10
98.75970467087098
 20
116.3993533845185
 30
0.0
 11
98.75970467087098
 21
111.3625563845185
 31
0.0
  0
LINE
  5
646
330
2
100
AcDbEntity
  8
0
100
AcDbLine
 10
97.25970467087098
 20
116.3993533845185
 30
0.0
 11
97.25970467087098
 21
112.1567543845185
 31
0.0
  0
LINE
  5
647
330
2
100
AcDbEntity
  8
HOJO
100
AcDbLine
 10
97.26210367087094
 20
112.1612553845185
 30
0.0
 11
98.75970467087098
 21
111.3625563845185
 31
0.0
  0
ARC
  5
648
330
2
100
AcDbEntity
  8
0
100
AcDbCircle
 10
95.75970467087097
 20
116.3993533845185
 30
0.0
 40
1.5
100
AcDbArc
 50
0.0
 51
90.0
  0
LINE
  5
649
330
2
100
AcDbEntity
  8
0
100
AcDbLine
 10
100.2597046708709
 20
116.3993533845185
 30
0.0
 11
100.2597046708709
 21
113.1764533845185
 31
0.0
  0
LINE
  5
64A
330
2
100
AcDbEntity
  8
0
100
AcDbLine
 10
95.75970467087097
 20
124.0233543845185
 30
0.0
 11
105.2597046708709
 21
124.0233543845185
 31
0.0
  0
LINE
  5
64C
330
2
100
AcDbEntity
  8
0
100
AcDbLine
 10
95.75970467087097
 20
131.7743533845185
 30
0.0
 11
105.2597046708709
 21
131.7743533845185
 31
0.0
  0
LINE
  5
652
330
2
100
AcDbEntity
  8
0
100
AcDbLine
 10
180.2597046708709
 20
117.4356233845185
 30
0.0
 11
180.2597046708709
 21
88.7128143845185
 31
0.0
  0
LINE
  5
653
330
2
100
AcDbEntity
  8
CENTER
100
AcDbLine
 10
220.2597046708709
 20
155.6743553845184
 30
0.0
 11
220.2597046708709
 21
44.07435338451853
 31
0.0
  0
LINE
  5
654
330
2
100
AcDbEntity
  8
0
100
AcDbLine
 10
177.7597046708709
 20
126.7749563845185
 30
0.0
 11
177.7597046708709
 21
51.07435338451853
 31
0.0
  0
LINE
  5
655
330
2
100
AcDbEntity
  8
HIDS
  6
SEKKEI_H
100
AcDbLine
 10
183.0097046708709
 20
59.07435338451853
 30
0.0
 11
183.0097046708709
 21
51.07435338451853
 31
0.0
  0
LINE
  5
656
330
2
100
AcDbEntity
  8
HIDS
  6
SEKKEI_H
100
AcDbLine
 10
189.5097046708709
 20
59.07435338451853
 30
0.0
 11
189.5097046708709
 21
51.07435338451853
 31
0.0
  0
LINE
  5
657
330
2
100
AcDbEntity
  8
CENTER
100
AcDbLine
 10
186.2597046708709
 20
62.57435338451853
 30
0.0
 11
186.2597046708709
 21
47.57435338451853
 31
0.0
  0
ARC
  5
658
330
2
100
AcDbEntity
  8
0
100
AcDbCircle
 10
179.7597046708709
 20
57.0743633845185
 30
0.0
 40
2.0
100
AcDbArc
 50
90.0
 51
180.0
  0
LINE
  5
659
330
2
100
AcDbEntity
  8
0
100
AcDbLine
 10
211.2949066708709
 20
85.62757538451851
 30
0.0
 11
213.8847046708709
 21
85.62757538451851
 31
0.0
  0
LINE
  5
65A
330
2
100
AcDbEntity
  8
0
100
AcDbLine
 10
208.7395016708709
 20
80.07435238451853
 30
0.0
 11
212.0548096708709
 21
80.07435238451853
 31
0.0
  0
ARC
  5
65B
330
2
100
AcDbEntity
  8
0
100
AcDbCircle
 10
210.9710996708709
 20
83.18714138451852
 30
0.0
 40
1.992186999999999
100
AcDbArc
 50
270.0002139999998
 51
0.0001089999998967
  0
LINE
  5
65C
330
2
100
AcDbEntity
  8
0
100
AcDbLine
 10
212.9633026708709
 20
84.58167638451852
 30
0.0
 11
211.2949066708709
 21
84.58167638451852
 31
0.0
  0
LINE
  5
65D
330
2
100
AcDbEntity
  8
0
100
AcDbLine
 10
208.6670986708709
 20
89.63685238451853
 30
0.0
 11
212.9537046708709
 21
89.63685238451853
 31
0.0
  0
LINE
  5
65E
330
2
100
AcDbEntity
  8
0
100
AcDbLine
 10
212.3722076708709
 20
88.36683338451852
 30
0.0
 11
209.3003076708709
 21
88.36683338451852
 31
0.0
  0
LINE
  5
65F
330
2
100
AcDbEntity
  8
0
100
AcDbLine
 10
208.5805056708709
 20
87.47433138451851
 30
0.0
 11
208.5805056708709
 21
81.96527538451851
 31
0.0
  0
LINE
  5
660
330
2
100
AcDbEntity
  8
0
100
AcDbLine
 10
207.5097046708709
 20
88.15485438451853
 30
0.0
 11
207.5097046708709
 21
81.31521238451853
 31
0.0
  0
LINE
  5
661
330
2
100
AcDbEntity
  8
0
100
AcDbLine
 10
207.5097046708709
 20
81.31521238451853
 30
0.0
 11
208.7395016708709
 21
80.07435238451853
 31
0.0
  0
LINE
  5
662
330
2
100
AcDbEntity
  8
0
100
AcDbLine
 10
211.2949066708709
 20
85.62757538451851
 30
0.0
 11
211.2949066708709
 21
84.58167638451852
 31
0.0
  0
LINE
  5
663
330
2
100
AcDbEntity
  8
0
100
AcDbLine
 10
210.9710996708709
 20
81.19495438451853
 30
0.0
 11
209.3117976708709
 21
81.19495438451853
 31
0.0
  0
LINE
  5
664
330
2
100
AcDbEntity
  8
0
100
AcDbLine
 10
208.5805056708709
 20
81.96527538451851
 30
0.0
 11
209.3117976708709
 21
81.19495438451853
 31
0.0
  0
LINE
  5
665
330
2
100
AcDbEntity
  8
0
100
AcDbLine
 10
208.6670986708709
 20
89.63685238451853
 30
0.0
 11
207.5097046708709
 21
88.15485438451853
 31
0.0
  0
LINE
  5
666
330
2
100
AcDbEntity
  8
0
100
AcDbLine
 10
209.3003076708709
 20
88.36683338451852
 30
0.0
 11
208.5805056708709
 21
87.47433138451851
 31
0.0
  0
LINE
  5
667
330
2
100
AcDbEntity
  8
0
100
AcDbLine
 10
220.8325046708709
 20
88.46644238451853
 30
0.0
 11
220.8325046708709
 21
81.12025438451851
 31
0.0
  0
LINE
  5
668
330
2
100
AcDbEntity
  8
0
100
AcDbLine
 10
219.6370996708709
 20
88.46644238451853
 30
0.0
 11
219.6370996708709
 21
81.12025438451851
 31
0.0
  0
LINE
  5
669
330
2
100
AcDbEntity
  8
0
100
AcDbLine
 10
219.1640016708709
 20
81.12025438451851
 30
0.0
 11
219.6370996708709
 21
81.12025438451851
 31
0.0
  0
LINE
  5
66A
330
2
100
AcDbEntity
  8
0
100
AcDbLine
 10
219.1640016708709
 20
80.07435238451853
 30
0.0
 11
221.2308956708709
 21
80.07435238451853
 31
0.0
  0
LINE
  5
66B
330
2
100
AcDbEntity
  8
0
100
AcDbLine
 10
219.1640016708709
 20
81.12025438451851
 30
0.0
 11
219.1640016708709
 21
80.07435238451853
 31
0.0
  0
LINE
  5
66C
330
2
100
AcDbEntity
  8
0
100
AcDbLine
 10
212.9633026708709
 20
80.8366133845185
 30
0.0
 11
212.0548096708709
 21
80.07435238451853
 31
0.0
  0
LINE
  5
66D
330
2
100
AcDbEntity
  8
0
100
AcDbLine
 10
212.9633026708709
 20
80.8366133845185
 30
0.0
 11
212.9633026708709
 21
80.07435238451853
 31
0.0
  0
LINE
  5
66E
330
2
100
AcDbEntity
  8
0
100
AcDbLine
 10
213.8847046708709
 20
85.62757538451851
 30
0.0
 11
213.8847046708709
 21
80.07435238451853
 31
0.0
  0
LINE
  5
66F
330
2
100
AcDbEntity
  8
0
100
AcDbLine
 10
212.9633026708709
 20
80.07435238451853
 30
0.0
 11
213.8847046708709
 21
80.07435238451853
 31
0.0
  0
LINE
  5
670
330
2
100
AcDbEntity
  8
0
100
AcDbLine
 10
212.9633026708709
 20
84.58167638451852
 30
0.0
 11
212.9633026708709
 21
83.18714138451852
 31
0.0
  0
LINE
  5
671
330
2
100
AcDbEntity
  8
0
100
AcDbLine
 10
212.9633026708709
 20
83.58558338451851
 30
0.0
 11
212.9633026708709
 21
84.38245838451852
 31
0.0
  0
LINE
  5
672
330
2
100
AcDbEntity
  8
0
100
AcDbLine
 10
226.6347046708709
 20
81.07044238451852
 30
0.0
 11
226.6347046708709
 21
80.07435238451853
 31
0.0
  0
LINE
  5
673
330
2
100
AcDbEntity
  8
0
100
AcDbLine
 10
221.2308956708709
 20
81.12025438451851
 30
0.0
 11
221.2308956708709
 21
80.07435238451853
 31
0.0
  0
LINE
  5
674
330
2
100
AcDbEntity
  8
0
100
AcDbLine
 10
220.8325046708709
 20
81.12025438451851
 30
0.0
 11
221.2308956708709
 21
81.12025438451851
 31
0.0
  0
LINE
  5
675
330
2
100
AcDbEntity
  8
0
100
AcDbLine
 10
219.6370996708709
 20
88.46644238451853
 30
0.0
 11
218.1222076708709
 21
88.46644238451853
 31
0.0
  0
LINE
  5
676
330
2
100
AcDbEntity
  8
0
100
AcDbLine
 10
217.0722046708709
 20
89.63685238451853
 30
0.0
 11
223.4472046708709
 21
89.63685238451853
 31
0.0
  0
LINE
  5
677
330
2
100
AcDbEntity
  8
0
100
AcDbLine
 10
212.9633026708709
 20
87.79538738451851
 30
0.0
 11
212.9633026708709
 21
87.64466538451854
 31
0.0
  0
LINE
  5
678
330
2
100
AcDbEntity
  8
0
100
AcDbLine
 10
213.8847046708709
 20
88.60371038451853
 30
0.0
 11
213.8847046708709
 21
87.64466538451854
 31
0.0
  0
LINE
  5
679
330
2
100
AcDbEntity
  8
0
100
AcDbLine
 10
212.9633026708709
 20
87.64466538451854
 30
0.0
 11
213.8847046708709
 21
87.64466538451854
 31
0.0
  0
LINE
  5
67A
330
2
100
AcDbEntity
  8
0
100
AcDbLine
 10
212.9537046708709
 20
89.63685238451853
 30
0.0
 11
213.8847046708709
 21
88.60371038451853
 31
0.0
  0
LINE
  5
67B
330
2
100
AcDbEntity
  8
0
100
AcDbLine
 10
212.9633026708709
 20
87.79538738451851
 30
0.0
 11
212.3601076708709
 21
88.36683338451852
 31
0.0
  0
LINE
  5
67C
330
2
100
AcDbEntity
  8
0
100
AcDbLine
 10
218.1222076708709
 20
88.46644238451853
 30
0.0
 11
217.7798006708709
 21
87.64466538451854
 31
0.0
  0
LINE
  5
67D
330
2
100
AcDbEntity
  8
0
100
AcDbLine
 10
217.0722046708709
 20
87.64466538451854
 30
0.0
 11
217.7798006708709
 21
87.64466538451854
 31
0.0
  0
LINE
  5
67E
330
2
100
AcDbEntity
  8
0
100
AcDbLine
 10
217.0722046708709
 20
87.64466538451854
 30
0.0
 11
217.0722046708709
 21
89.63685238451853
 31
0.0
  0
LINE
  5
67F
330
2
100
AcDbEntity
  8
0
100
AcDbLine
 10
222.7821956708709
 20
87.64466538451854
 30
0.0
 11
223.4472046708709
 21
87.64466538451854
 31
0.0
  0
LINE
  5
680
330
2
100
AcDbEntity
  8
0
100
AcDbLine
 10
220.8325046708709
 20
88.46644238451853
 30
0.0
 11
222.4934996708709
 21
88.46644238451853
 31
0.0
  0
LINE
  5
681
330
2
100
AcDbEntity
  8
0
100
AcDbLine
 10
222.4934996708709
 20
88.46644238451853
 30
0.0
 11
222.7821956708709
 21
87.64466538451854
 31
0.0
  0
LINE
  5
682
330
2
100
AcDbEntity
  8
0
100
AcDbLine
 10
226.6347046708709
 20
89.63685238451853
 30
0.0
 11
226.6347046708709
 21
88.46644238451853
 31
0.0
  0
LINE
  5
683
330
2
100
AcDbEntity
  8
0
100
AcDbLine
 10
223.4472046708709
 20
87.64466538451854
 30
0.0
 11
223.4472046708709
 21
89.63685238451853
 31
0.0
  0
LINE
  5
684
330
2
100
AcDbEntity
  8
0
100
AcDbLine
 10
179.8874056708709
 20
130.8676153845184
 30
0.0
 11
203.9667966708709
 21
147.7670063845185
 31
0.0
  0
ARC
  5
685
330
2
100
AcDbEntity
  8
0
100
AcDbCircle
 10
182.7597046708709
 20
126.7749713845185
 30
0.0
 40
5.0
100
AcDbArc
 50
125.0623019999999
 51
180.0
  0
LINE
  5
686
330
2
100
AcDbEntity
  8
0
100
AcDbLine
 10
224.7597046708709
 20
113.5743563845185
 30
0.0
 11
224.7597046708709
 21
118.5743563845185
 31
0.0
  0
ARC
  5
688
330
2
100
AcDbEntity
  8
0
100
AcDbCircle
 10
206.8392026708709
 20
143.6743623845185
 30
0.0
 40
5.0
100
AcDbArc
 50
90.0
 51
125.0622019999999
  0
LINE
  5
689
330
2
100
AcDbEntity
  8
0
100
AcDbLine
 10
146.259506670871
 20
288.8907909558532
 30
0.0
 11
181.1793826708709
 21
288.8907909558532
 31
0.0
  0
LINE
  5
68A
330
2
100
AcDbEntity
  8
0
100
AcDbLine
 10
105.2597046708709
 20
273.8907909558532
 30
0.0
 11
175.7597046708709
 21
273.8907909558532
 31
0.0
  0
LINE
  5
68B
330
2
100
AcDbEntity
  8
0
100
AcDbLine
 10
146.2597046708709
 20
334.8907909558532
 30
0.0
 11
181.1793826708709
 21
334.8907909558532
 31
0.0
  0
LINE
  5
68C
330
2
100
AcDbEntity
  8
0
100
AcDbLine
 10
175.7597046708709
 20
349.8907759558532
 30
0.0
 11
105.2597046708709
 21
349.8907759558532
 31
0.0
  0
LINE
  5
68D
330
2
100
AcDbEntity
  8
0
100
AcDbLine
 10
46.75970267087092
 20
276.8907909558532
 30
0.0
 11
46.75970267087092
 21
346.8907759558532
 31
0.0
  0
LINE
  5
68E
330
2
100
AcDbEntity
  8
0
100
AcDbLine
 10
95.75970467087097
 20
271.8907909558532
 30
0.0
 11
95.75970467087097
 21
351.8907759558532
 31
0.0
  0
ARC
  5
693
330
2
100
AcDbEntity
  8
0
100
AcDbCircle
 10
51.75970267087092
 20
276.8907909558532
 30
0.0
 40
5.0
100
AcDbArc
 50
180.0
 51
270.0
  0
LINE
  5
694
330
2
100
AcDbEntity
  8
0
100
AcDbLine
 10
49.25970267087092
 20
285.8907909558532
 30
0.0
 11
95.75970467087097
 21
285.8907909558532
 31
0.0
  0
LINE
  5
695
330
2
100
AcDbEntity
  8
0
100
AcDbLine
 10
51.75970267087092
 20
271.8907909558532
 30
0.0
 11
95.75970467087097
 21
271.8907909558532
 31
0.0
  0
LINE
  5
696
330
2
100
AcDbEntity
  8
0
100
AcDbLine
 10
105.2597046708709
 20
273.8907909558532
 30
0.0
 11
105.2597046708709
 21
286.8907909558533
 31
0.0
  0
ARC
  5
697
330
2
100
AcDbEntity
  8
0
100
AcDbCircle
 10
95.75970467087097
 20
280.1148509558532
 30
0.0
 40
4.5
100
AcDbArc
 50
0.0
 51
90.0
  0
ARC
  5
698
330
2
100
AcDbEntity
  8
0
100
AcDbCircle
 10
95.75970467087097
 20
280.1148509558532
 30
0.0
 40
3.0
100
AcDbArc
 50
0.0
 51
90.0
  0
ARC
  5
699
330
2
100
AcDbEntity
  8
0
100
AcDbCircle
 10
95.75970467087097
 20
280.1148509558532
 30
0.0
 40
1.5
100
AcDbArc
 50
0.0
 51
90.0
  0
LINE
  5
69A
330
2
100
AcDbEntity
  8
HOJO
100
AcDbLine
 10
98.75970467087098
 20
276.1127449558533
 30
0.0
 11
100.2597046708709
 21
276.8919509558532
 31
0.0
  0
LINE
  5
69B
330
2
100
AcDbEntity
  8
0
100
AcDbLine
 10
95.75970467087097
 20
273.8907909558532
 30
0.0
 11
105.2597046708709
 21
273.8907909558532
 31
0.0
  0
LINE
  5
69C
330
2
100
AcDbEntity
  8
0
100
AcDbLine
 10
98.75970467087098
 20
280.1148509558532
 30
0.0
 11
98.75970467087098
 21
275.0780469558532
 31
0.0
  0
LINE
  5
69D
330
2
100
AcDbEntity
  8
0
100
AcDbLine
 10
97.25970467087098
 20
280.1148509558532
 30
0.0
 11
97.25970467087098
 21
275.8722519558533
 31
0.0
  0
LINE
  5
69E
330
2
100
AcDbEntity
  8
HOJO
100
AcDbLine
 10
97.26210367087094
 20
275.8767529558533
 30
0.0
 11
98.75970467087098
 21
275.0780469558532
 31
0.0
  0
LINE
  5
69F
330
2
100
AcDbEntity
  8
0
100
AcDbLine
 10
100.2597046708709
 20
280.1148509558532
 30
0.0
 11
100.2597046708709
 21
276.8919509558532
 31
0.0
  0
LINE
  5
6A0
330
2
100
AcDbEntity
  8
0
100
AcDbLine
 10
95.75970467087097
 20
288.8907909558532
 30
0.0
 11
96.25959767087103
 21
288.8907909558532
 31
0.0
  0
ARC
  5
6A6
330
2
100
AcDbEntity
  8
0
100
AcDbCircle
 10
51.75972267087093
 20
346.8908059558533
 30
0.0
 40
5.0
100
AcDbArc
 50
90.0
 51
180.0
  0
LINE
  5
6A7
330
2
100
AcDbEntity
  8
0
100
AcDbLine
 10
49.25970267087092
 20
335.8907909558532
 30
0.0
 11
95.75970467087097
 21
335.8907909558532
 31
0.0
  0
LINE
  5
6A8
330
2
100
AcDbEntity
  8
0
100
AcDbLine
 10
51.75970267087092
 20
351.8907759558532
 30
0.0
 11
95.75970467087097
 21
351.8907759558532
 31
0.0
  0
LINE
  5
6A9
330
2
100
AcDbEntity
  8
0
100
AcDbLine
 10
105.2597046708709
 20
336.8907909558532
 30
0.0
 11
105.2597046708709
 21
349.8907759558532
 31
0.0
  0
LINE
  5
6AF
330
2
100
AcDbEntity
  8
0
100
AcDbLine
 10
95.75970467087097
 20
334.8907909558532
 30
0.0
 11
96.25959767087103
 21
334.8907909558532
 31
0.0
  0
LINE
  5
6B0
330
2
100
AcDbEntity
  8
0
100
AcDbLine
 10
95.75970467087097
 20
349.8907759558532
 30
0.0
 11
105.2597046708709
 21
349.8907759558532
 31
0.0
  0
LINE
  5
6B1
330
2
100
AcDbEntity
  8
0
100
AcDbLine
 10
181.1793826708709
 20
290.8907909558532
 30
0.0
 11
181.1793826708709
 21
332.8910659558532
 31
0.0
  0
LINE
  5
6B2
330
2
100
AcDbEntity
  8
0
100
AcDbLine
 10
205.2597046708709
 20
340.9256879558532
 30
0.0
 11
205.2597046708709
 21
282.8558789558532
 31
0.0
  0
LINE
  5
6B3
330
2
100
AcDbEntity
  8
CENTER
100
AcDbLine
 10
220.2597046708709
 20
365.8907759558532
 30
0.0
 11
220.2597046708709
 21
240.8907909558532
 31
0.0
  0
LINE
  5
6B4
330
2
100
AcDbEntity
  8
0
100
AcDbLine
 10
212.7597046708709
 20
247.8907909558532
 30
0.0
 11
212.7597046708709
 21
274.8907909558532
 31
0.0
  0
CIRCLE
  5
6B5
330
2
100
AcDbEntity
  8
0
100
AcDbCircle
 10
186.2597046708709
 20
271.8907909558532
 30
0.0
 40
3.25
  0
LINE
  5
6B7
330
2
100
AcDbEntity
  8
0
100
AcDbLine
 10
178.5285186708709
 20
267.8384379558532
 30
0.0
 11
178.3041536708709
 21
280.6948829558533
 31
0.0
  0
LINE
  5
6B8
330
2
100
AcDbEntity
  8
0
100
AcDbLine
 10
181.5280606708709
 20
264.8907909558532
 30
0.0
 11
212.7597046708709
 21
264.8907909558532
 31
0.0
  0
ARC
  5
6B9
330
2
100
AcDbEntity
  8
0
100
AcDbCircle
 10
181.5280606708709
 20
267.8907909558532
 30
0.0
 40
3.0
100
AcDbArc
 50
180.9998470000002
 51
270.0
  0
ARC
  5
6BB
330
2
100
AcDbEntity
  8
0
100
AcDbCircle
 10
180.2662046708709
 20
282.8907909558532
 30
0.0
 40
2.0
100
AcDbArc
 50
181.0000000000001
 51
270.0
  0
LINE
  5
6BC
330
2
100
AcDbEntity
  8
0
100
AcDbLine
 10
177.7597046708709
 20
275.8907909558532
 30
0.0
 11
177.7597046708709
 21
279.5386329558533
 31
0.0
  0
ARC
  5
6BD
330
2
100
AcDbEntity
  8
0
100
AcDbCircle
 10
175.7597046708709
 20
275.8907909558532
 30
0.0
 40
2.0
100
AcDbArc
 50
270.0
 51
0.0
  0
ARC
  5
6BE
330
2
100
AcDbEntity
  8
0
100
AcDbCircle
 10
179.2597046708709
 20
279.5386329558533
 30
0.0
 40
1.5
100
AcDbArc
 50
73.28735399999994
 51
180.0
  0
LINE
  5
6BF
330
2
100
AcDbEntity
  8
0
100
AcDbLine
 10
178.2664336708709
 20
282.8558939558532
 30
0.0
 11
178.1611026708709
 21
288.8907909558532
 31
0.0
  0
ARC
  5
6C0
330
2
100
AcDbEntity
  8
0
100
AcDbCircle
 10
201.2597046708709
 20
277.8907909558532
 30
0.0
 40
1.0
100
AcDbArc
 50
180.0
 51
270.0
  0
LINE
  5
6C1
330
2
100
AcDbEntity
  8
0
100
AcDbLine
 10
200.2597046708709
 20
277.8907909558532
 30
0.0
 11
200.2597046708709
 21
278.8907909558531
 31
0.0
  0
LINE
  5
6C2
330
2
100
AcDbEntity
  8
0
100
AcDbLine
 10
211.7597046708709
 20
274.8907909558532
 30
0.0
 11
211.7597046708709
 21
276.8907909558532
 31
0.0
  0
ARC
  5
6C4
330
2
100
AcDbEntity
  8
0
100
AcDbCircle
 10
181.5280606708709
 20
355.8907759558532
 30
0.0
 40
3.0
100
AcDbArc
 50
90.0
 51
179.0001529999997
  0
LINE
  5
6C5
330
2
100
AcDbEntity
  8
0
100
AcDbLine
 10
178.2664336708709
 20
340.9256879558532
 30
0.0
 11
178.1611026708709
 21
334.8907909558532
 31
0.0
  0
LINE
  5
6C7
330
2
100
AcDbEntity
  8
0
100
AcDbLine
 10
177.7597046708709
 20
347.8907759558532
 30
0.0
 11
177.7597046708709
 21
344.2429489558532
 31
0.0
  0
LINE
  5
6C8
330
2
100
AcDbEntity
  8
0
100
AcDbLine
 10
178.5285186708709
 20
355.9431439558532
 30
0.0
 11
178.3041536708709
 21
343.0866989558532
 31
0.0
  0
ARC
  5
6C9
330
2
100
AcDbEntity
  8
0
100
AcDbCircle
 10
180.2662046708709
 20
340.8907909558532
 30
0.0
 40
2.0
100
AcDbArc
 50
90.0
 51
178.9999999999998
  0
ARC
  5
6CA
330
2
100
AcDbEntity
  8
0
100
AcDbCircle
 10
179.2597046708709
 20
344.2429489558532
 30
0.0
 40
1.5
100
AcDbArc
 50
180.0
 51
286.712646
  0
ARC
  5
6CB
330
2
100
AcDbEntity
  8
0
100
AcDbCircle
 10
175.7597046708709
 20
347.8907759558532
 30
0.0
 40
2.0
100
AcDbArc
 50
0.0
 51
90.0
  0
CIRCLE
  5
6CC
330
2
100
AcDbEntity
  8
0
100
AcDbCircle
 10
186.2597046708709
 20
351.8907759558532
 30
0.0
 40
3.25
  0
LINE
  5
6CE
330
2
100
AcDbEntity
  8
CENTER
100
AcDbLine
 10
362.7482468585068
 20
93.77435338451849
 30
0.0
 11
456.7482468585068
 21
93.77435338451851
 31
0.0
  0
LINE
  5
6CF
330
2
100
AcDbEntity
  8
0
100
AcDbLine
 10
439.1785438585069
 20
129.3743673845185
 30
0.0
 11
380.2667398585068
 21
129.3743673845185
 31
0.0
  0
LINE
  5
6D0
330
2
100
AcDbEntity
  8
0
100
AcDbLine
 10
380.7133338585068
 20
148.1675643845185
 30
0.0
 11
409.7482468585068
 21
148.6743623845185
 31
0.0
  0
LINE
  5
6D1
330
2
100
AcDbEntity
  8
0
100
AcDbLine
 10
456.7482468585068
 20
51.07435338451853
 30
0.0
 11
362.7482468585068
 21
51.07435338451853
 31
0.0
  0
LINE
  5
6D2
330
2
100
AcDbEntity
  8
CENTER
100
AcDbLine
 10
456.7344567661584
 20
116.0743563845185
 30
0.0
 11
338.7482468585067
 21
116.0743563845185
 31
0.0
  0
LINE
  5
6D3
330
2
100
AcDbEntity
  8
0
100
AcDbLine
 10
369.7482468585068
 20
71.84542338451854
 30
0.0
 11
369.7482468585068
 21
108.5743523845185
 31
0.0
  0
ARC
  5
6D4
330
2
100
AcDbEntity
  8
0
100
AcDbCircle
 10
409.7482468585068
 20
93.77435338451851
 30
0.0
 40
38.0
100
AcDbArc
 50
158.7057950000002
 51
215.3954929999994
  0
ARC
  5
6D5
330
2
100
AcDbEntity
  8
0
100
AcDbCircle
 10
375.7482468585068
 20
97.07434838451852
 30
0.0
 40
1.0
100
AcDbArc
 50
180.0
 51
270.0
  0
LINE
  5
6D6
330
2
100
AcDbEntity
  8
0
100
AcDbLine
 10
378.7482468585068
 20
62.07435238451854
 30
0.0
 11
378.7482468585068
 21
146.1678623845185
 31
0.0
  0
LINE
  5
6D7
330
2
100
AcDbEntity
  8
0
100
AcDbLine
 10
260.2597046708709
 20
117.4357533845185
 30
0.0
 11
260.2597046708709
 21
88.71321538451852
 31
0.0
  0
LINE
  5
6D8
330
2
100
AcDbEntity
  8
0
100
AcDbLine
 10
262.7597046708709
 20
126.7749333845185
 30
0.0
 11
262.7597046708709
 21
51.07435338451853
 31
0.0
  0
LINE
  5
6D9
330
2
100
AcDbEntity
  8
HIDS
  6
SEKKEI_H
100
AcDbLine
 10
251.0097046708709
 20
59.07435338451853
 30
0.0
 11
251.0097046708709
 21
51.07435338451853
 31
0.0
  0
LINE
  5
6DA
330
2
100
AcDbEntity
  8
HIDS
  6
SEKKEI_H
100
AcDbLine
 10
257.5097046708709
 20
59.07435338451853
 30
0.0
 11
257.5097046708709
 21
51.07435338451853
 31
0.0
  0
LINE
  5
6DB
330
2
100
AcDbEntity
  8
CENTER
100
AcDbLine
 10
254.259704670871
 20
62.57435338451853
 30
0.0
 11
254.259704670871
 21
47.57435338451853
 31
0.0
  0
LINE
  5
6DC
330
2
100
AcDbEntity
  8
0
100
AcDbLine
 10
228.2035066708709
 20
88.46644238451853
 30
0.0
 11
228.2035066708709
 21
85.54018838451851
 31
0.0
  0
ARC
  5
6DD
330
2
100
AcDbEntity
  8
0
100
AcDbCircle
 10
230.4571986708709
 20
87.08436238451852
 30
0.0
 40
1.557193
100
AcDbArc
 50
277.4147259999995
 51
62.41184999999949
  0
ARC
  5
6DE
330
2
100
AcDbEntity
  8
0
100
AcDbCircle
 10
230.4571986708709
 20
87.08436238451852
 30
0.0
 40
2.55249
100
AcDbArc
 50
286.0181269999995
 51
90.00350999999964
  0
LINE
  5
6DF
330
2
100
AcDbEntity
  8
0
100
AcDbLine
 10
227.1078036708709
 20
88.46644238451853
 30
0.0
 11
227.1078036708709
 21
81.07044238451852
 31
0.0
  0
LINE
  5
6E0
330
2
100
AcDbEntity
  8
0
100
AcDbLine
 10
228.6392976708709
 20
81.07044238451852
 30
0.0
 11
228.6392976708709
 21
80.07435238451853
 31
0.0
  0
LINE
  5
6E1
330
2
100
AcDbEntity
  8
0
100
AcDbLine
 10
231.5404966708709
 20
81.07044238451852
 30
0.0
 11
231.5404966708709
 21
80.07435238451853
 31
0.0
  0
LINE
  5
6E2
330
2
100
AcDbEntity
  8
0
100
AcDbLine
 10
233.0097046708709
 20
81.07044238451852
 30
0.0
 11
233.0097046708709
 21
80.07435238451853
 31
0.0
  0
LINE
  5
6E3
330
2
100
AcDbEntity
  8
0
100
AcDbLine
 10
231.5404966708709
 20
80.07435238451853
 30
0.0
 11
233.0097046708709
 21
80.07435238451853
 31
0.0
  0
LINE
  5
6E4
330
2
100
AcDbEntity
  8
0
100
AcDbLine
 10
230.2440036708709
 20
84.54432338451852
 30
0.0
 11
231.7389986708709
 21
81.07044238451852
 31
0.0
  0
LINE
  5
6E5
330
2
100
AcDbEntity
  8
0
100
AcDbLine
 10
228.2035066708709
 20
84.54432338451852
 30
0.0
 11
230.2440036708709
 21
84.54432338451852
 31
0.0
  0
LINE
  5
6E6
330
2
100
AcDbEntity
  8
0
100
AcDbLine
 10
228.2035066708709
 20
85.54018838451851
 30
0.0
 11
230.6582026708709
 21
85.54018838451851
 31
0.0
  0
LINE
  5
6E7
330
2
100
AcDbEntity
  8
0
100
AcDbLine
 10
228.2035066708709
 20
81.07044238451852
 30
0.0
 11
228.6392976708709
 21
81.07044238451852
 31
0.0
  0
LINE
  5
6E8
330
2
100
AcDbEntity
  8
0
100
AcDbLine
 10
228.2035066708709
 20
84.54432338451852
 30
0.0
 11
228.2035066708709
 21
81.07044238451852
 31
0.0
  0
LINE
  5
6E9
330
2
100
AcDbEntity
  8
0
100
AcDbLine
 10
232.7414096708709
 20
81.07044238451852
 30
0.0
 11
233.0097046708709
 21
81.07044238451852
 31
0.0
  0
LINE
  5
6EA
330
2
100
AcDbEntity
  8
0
100
AcDbLine
 10
231.5404966708709
 20
81.07044238451852
 30
0.0
 11
231.7389986708709
 21
81.07044238451852
 31
0.0
  0
LINE
  5
6EB
330
2
100
AcDbEntity
  8
0
100
AcDbLine
 10
231.1614986708709
 20
84.63097438451853
 30
0.0
 11
232.7414096708709
 21
81.07044238451852
 31
0.0
  0
LINE
  5
6EC
330
2
100
AcDbEntity
  8
0
100
AcDbLine
 10
228.2035066708709
 20
88.46644238451853
 30
0.0
 11
231.1784056708709
 21
88.46450438451853
 31
0.0
  0
ARC
  5
6ED
330
2
100
AcDbEntity
  8
0
100
AcDbCircle
 10
260.7597046708709
 20
57.0743433845185
 30
0.0
 40
2.0
100
AcDbArc
 50
0.0
 51
90.0
  0
LINE
  5
6EE
330
2
100
AcDbEntity
  8
HIDS
  6
SEKKEI_H
100
AcDbLine
 10
372.9982468585068
 20
59.07435338451853
 30
0.0
 11
372.9982468585068
 21
51.07435338451853
 31
0.0
  0
LINE
  5
6EF
330
2
100
AcDbEntity
  8
HIDS
  6
SEKKEI_H
100
AcDbLine
 10
366.4982468585068
 20
59.07435338451853
 30
0.0
 11
366.4982468585068
 21
51.07435338451853
 31
0.0
  0
LINE
  5
6F0
330
2
100
AcDbEntity
  8
CENTER
100
AcDbLine
 10
369.7482468585068
 20
62.57435338451853
 30
0.0
 11
369.7482468585068
 21
47.57435338451853
 31
0.0
  0
LINE
  5
6F1
330
2
100
AcDbEntity
  8
0
100
AcDbLine
 10
362.7482468585068
 20
57.07435338451853
 30
0.0
 11
362.7482468585068
 21
51.07435338451853
 31
0.0
  0
ARC
  5
6F2
330
2
100
AcDbEntity
  8
0
100
AcDbCircle
 10
374.7482468585068
 20
71.84545338451852
 30
0.0
 40
5.0
100
AcDbArc
 50
180.0
 51
225.0003970000001
  0
LINE
  5
6F3
330
2
100
AcDbEntity
  8
0
100
AcDbLine
 10
375.7482468585068
 20
59.07435338451853
 30
0.0
 11
364.7482468585068
 21
59.07435338451853
 31
0.0
  0
ARC
  5
6F4
330
2
100
AcDbEntity
  8
0
100
AcDbCircle
 10
364.7482468585068
 20
57.0743433845185
 30
0.0
 40
2.0
100
AcDbArc
 50
90.0
 51
180.0
  0
LINE
  5
6F5
330
2
100
AcDbEntity
  8
0
100
AcDbLine
 10
371.2127548585068
 20
68.30988338451851
 30
0.0
 11
378.5418558585068
 21
60.98078338451853
 31
0.0
  0
ARC
  5
6F6
330
2
100
AcDbEntity
  8
0
100
AcDbCircle
 10
375.7482468585068
 20
62.07434338451853
 30
0.0
 40
3.0
100
AcDbArc
 50
270.0
 51
0.0
  0
LINE
  5
6F7
330
2
100
AcDbEntity
  8
0
100
AcDbLine
 10
375.7482468585068
 20
96.07435238451854
 30
0.0
 11
376.7522468565017
 21
96.07435238451854
 31
0.0
  0
LINE
  5
6F8
330
2
100
AcDbEntity
  8
0
100
AcDbLine
 10
260.6320036708709
 20
130.8676153845184
 30
0.0
 11
236.5525056708709
 21
147.7670143845185
 31
0.0
  0
LINE
  5
6F9
330
2
100
AcDbEntity
  8
0
100
AcDbLine
 10
229.7597046708709
 20
118.5743563845185
 30
0.0
 11
229.7597046708709
 21
113.5743563845185
 31
0.0
  0
ARC
  5
6FA
330
2
100
AcDbEntity
  8
0
100
AcDbCircle
 10
257.7597046708709
 20
126.7749333845185
 30
0.0
 40
5.0
100
AcDbArc
 50
0.0
 51
54.93836999999954
  0
ARC
  5
6FB
330
2
100
AcDbEntity
  8
0
100
AcDbCircle
 10
233.6802976708709
 20
143.6743393845185
 30
0.0
 40
5.0
100
AcDbArc
 50
54.93843100000013
 51
90.0
  0
LINE
  5
6FC
330
2
100
AcDbEntity
  8
0
100
AcDbLine
 10
345.7482468585068
 20
113.5743563845185
 30
0.0
 11
367.2482468585068
 21
113.5743563845185
 31
0.0
  0
LINE
  5
6FD
330
2
100
AcDbEntity
  8
0
100
AcDbLine
 10
345.7482468585068
 20
118.5743563845185
 30
0.0
 11
367.2482468585068
 21
118.5743563845185
 31
0.0
  0
LINE
  5
6FE
330
2
100
AcDbEntity
  8
0
100
AcDbLine
 10
345.7482468585068
 20
108.5743523845185
 30
0.0
 11
372.7482468585068
 21
108.5743523845185
 31
0.0
  0
LINE
  5
6FF
330
2
100
AcDbEntity
  8
0
100
AcDbLine
 10
345.7482468585068
 20
123.5743563845185
 30
0.0
 11
372.7482468585068
 21
123.5743563845185
 31
0.0
  0
LINE
  5
700
330
2
100
AcDbEntity
  8
0
100
AcDbLine
 10
345.7482468585068
 20
123.5743563845185
 30
0.0
 11
345.7482468585068
 21
108.5743523845185
 31
0.0
  0
ARC
  5
701
330
2
100
AcDbEntity
  8
0
100
AcDbCircle
 10
367.2482468585068
 20
116.0743413845185
 30
0.0
 40
2.5
100
AcDbArc
 50
0.0
 51
90.0
  0
LINE
  5
702
330
2
100
AcDbEntity
  8
0
100
AcDbLine
 10
372.7482468585068
 20
124.5743563845185
 30
0.0
 11
372.7482468585068
 21
107.5743523845185
 31
0.0
  0
LINE
  5
703
330
2
100
AcDbEntity
  8
0
100
AcDbLine
 10
374.7482468585068
 20
97.07435238451854
 30
0.0
 11
374.7482468585068
 21
135.0743563845185
 31
0.0
  0
ARC
  5
704
330
2
100
AcDbEntity
  8
0
100
AcDbCircle
 10
367.2482468585068
 20
116.0743563845185
 30
0.0
 40
2.5
100
AcDbArc
 50
270.0
 51
0.0
  0
LINE
  5
705
330
2
100
AcDbEntity
  8
0
100
AcDbLine
 10
372.7482468585068
 20
107.5743523845185
 30
0.0
 11
374.7482468585068
 21
107.5743523845185
 31
0.0
  0
LINE
  5
706
330
2
100
AcDbEntity
  8
0
100
AcDbLine
 10
372.7482468585068
 20
124.5743563845185
 30
0.0
 11
374.7482468585068
 21
124.5743563845185
 31
0.0
  0
LINE
  5
707
330
2
100
AcDbEntity
  8
0
100
AcDbLine
 10
375.7482468585068
 20
136.0743563845185
 30
0.0
 11
376.7482468585067
 21
136.0743563845185
 31
0.0
  0
ARC
  5
708
330
2
100
AcDbEntity
  8
0
100
AcDbCircle
 10
375.7482468585068
 20
135.0743563845185
 30
0.0
 40
1.0
100
AcDbArc
 50
90.0
 51
180.0
  0
ARC
  5
709
330
2
100
AcDbEntity
  8
0
100
AcDbCircle
 10
380.7482468585068
 20
146.1678623845185
 30
0.0
 40
2.0
100
AcDbArc
 50
90.99986299999994
 51
180.0
  0
LINE
  5
70A
330
2
100
AcDbEntity
  8
0
100
AcDbLine
 10
449.7482468585068
 20
115.7032853845185
 30
0.0
 11
449.7482468585068
 21
70.77435338451852
 31
0.0
  0
ARC
  5
70B
330
2
100
AcDbEntity
  8
0
100
AcDbCircle
 10
443.7482468585068
 20
97.07434838451852
 30
0.0
 40
1.0
100
AcDbArc
 50
270.0
 51
0.0
  0
ARC
  5
70C
330
2
100
AcDbEntity
  8
0
100
AcDbCircle
 10
409.7482468585068
 20
93.77435338451851
 30
0.0
 40
38.0
100
AcDbArc
 50
324.6655999999999
 51
22.91949100000018
  0
LINE
  5
70D
330
2
100
AcDbEntity
  8
0
100
AcDbLine
 10
440.7482468585068
 20
62.07435238451854
 30
0.0
 11
440.7482468585068
 21
146.1677553845185
 31
0.0
  0
LINE
  5
70E
330
2
100
AcDbEntity
  8
CENTER
100
AcDbLine
 10
409.7482468585067
 20
44.07435338451853
 30
0.0
 11
409.7482468585067
 21
183.6618683845185
 31
0.0
  0
LINE
  5
70F
330
2
100
AcDbEntity
  8
0
100
AcDbLine
 10
446.7482468585068
 20
67.77435338451851
 30
0.0
 11
443.1452498585068
 21
67.77435338451851
 31
0.0
  0
LINE
  5
710
330
2
100
AcDbEntity
  8
0
100
AcDbLine
 10
443.7482468585068
 20
59.07435338451853
 30
0.0
 11
454.7482468585068
 21
59.07435338451853
 31
0.0
  0
ARC
  5
711
330
2
100
AcDbEntity
  8
0
100
AcDbCircle
 10
443.7482468585068
 20
62.07435238451854
 30
0.0
 40
3.0
100
AcDbArc
 50
180.0
 51
270.0
  0
LINE
  5
712
330
2
100
AcDbEntity
  8
0
100
AcDbLine
 10
440.7482468585068
 20
65.37737338451854
 30
0.0
 11
443.1452498585068
 21
67.77435338451851
 31
0.0
  0
LINE
  5
713
330
2
100
AcDbEntity
  8
0
100
AcDbLine
 10
443.7482468585068
 20
96.07435238451854
 30
0.0
 11
442.7442468605118
 21
96.07435238451854
 31
0.0
  0
LINE
  5
714
330
2
100
AcDbEntity
  8
HIDS
  6
SEKKEI_H
100
AcDbLine
 10
452.9982468585068
 20
59.07435338451853
 30
0.0
 11
452.9982468585068
 21
51.07435338451853
 31
0.0
  0
LINE
  5
715
330
2
100
AcDbEntity
  8
HIDS
  6
SEKKEI_H
100
AcDbLine
 10
446.4982468585068
 20
59.07435338451853
 30
0.0
 11
446.4982468585068
 21
51.07435338451853
 31
0.0
  0
LINE
  5
716
330
2
100
AcDbEntity
  8
CENTER
100
AcDbLine
 10
449.7482468585068
 20
62.57435338451853
 30
0.0
 11
449.7482468585068
 21
47.57435338451853
 31
0.0
  0
LINE
  5
717
330
2
100
AcDbEntity
  8
0
100
AcDbLine
 10
456.7482468585068
 20
57.07435338451853
 30
0.0
 11
456.7482468585068
 21
51.07435338451853
 31
0.0
  0
ARC
  5
718
330
2
100
AcDbEntity
  8
0
100
AcDbCircle
 10
454.7482468585068
 20
57.0743633845185
 30
0.0
 40
2.0
100
AcDbArc
 50
0.0
 51
90.0
  0
ARC
  5
719
330
2
100
AcDbEntity
  8
0
100
AcDbCircle
 10
446.7482468585068
 20
70.77434338451851
 30
0.0
 40
3.0
100
AcDbArc
 50
270.0
 51
0.0
  0
LINE
  5
71A
330
2
100
AcDbEntity
  8
0
100
AcDbLine
 10
448.2837378585069
 20
119.2388233845185
 30
0.0
 11
444.7482468585068
 21
122.7743303845185
 31
0.0
  0
LINE
  5
71B
330
2
100
AcDbEntity
  8
0
100
AcDbLine
 10
444.7482468585068
 20
97.07435238451854
 30
0.0
 11
444.7482468585068
 21
135.0743563845185
 31
0.0
  0
ARC
  5
71C
330
2
100
AcDbEntity
  8
0
100
AcDbCircle
 10
443.7482468585068
 20
135.0743563845185
 30
0.0
 40
1.0
100
AcDbArc
 50
0.0
 51
90.0
  0
LINE
  5
71D
330
2
100
AcDbEntity
  8
0
100
AcDbLine
 10
443.7482468585068
 20
136.0743563845185
 30
0.0
 11
442.7482468585067
 21
136.0743563845185
 31
0.0
  0
LINE
  5
71E
330
2
100
AcDbEntity
  8
0
100
AcDbLine
 10
438.7831588585068
 20
148.1674503845185
 30
0.0
 11
409.7482468585068
 21
148.6743623845185
 31
0.0
  0
ARC
  5
71F
330
2
100
AcDbEntity
  8
0
100
AcDbCircle
 10
438.7482468585068
 20
146.1677633845185
 30
0.0
 40
2.0
100
AcDbArc
 50
0.0
 51
88.99935899999954
  0
ARC
  5
720
330
2
100
AcDbEntity
  8
0
100
AcDbCircle
 10
444.7482468585068
 20
115.7032623845184
 30
0.0
 40
5.0
100
AcDbArc
 50
0.0
 51
45.00025199999998
  0
LINE
  5
722
330
2
100
AcDbEntity
  8
0
100
AcDbLine
 10
235.2597046708709
 20
340.9256879558532
 30
0.0
 11
235.2597046708709
 21
282.8558789558532
 31
0.0
  0
LINE
  5
723
330
2
100
AcDbEntity
  8
0
100
AcDbLine
 10
261.9907686708709
 20
355.9431439558532
 30
0.0
 11
262.7597046708709
 21
311.8907909558532
 31
0.0
  0
LINE
  5
724
330
2
100
AcDbEntity
  8
0
100
AcDbLine
 10
227.3307036708709
 20
271.8907909558532
 30
0.0
 11
227.3307036708709
 21
247.8907909558532
 31
0.0
  0
LINE
  5
725
330
2
100
AcDbEntity
  8
0
100
AcDbLine
 10
229.7597046708709
 20
271.8907909558532
 30
0.0
 11
229.7597046708709
 21
247.8907909558532
 31
0.0
  0
CIRCLE
  5
726
330
2
100
AcDbEntity
  8
0
100
AcDbCircle
 10
254.259704670871
 20
271.8907909558532
 30
0.0
 40
3.25
  0
LINE
  5
728
330
2
100
AcDbEntity
  8
0
100
AcDbLine
 10
261.9907686708709
 20
267.8384379558532
 30
0.0
 11
262.7597046708709
 21
311.8907909558532
 31
0.0
  0
LINE
  5
729
330
2
100
AcDbEntity
  8
0
100
AcDbLine
 10
229.7597046708709
 20
264.8907909558532
 30
0.0
 11
258.9912256708708
 21
264.8907909558532
 31
0.0
  0
ARC
  5
72A
330
2
100
AcDbEntity
  8
0
100
AcDbCircle
 10
258.9912256708708
 20
267.8907909558532
 30
0.0
 40
3.0
100
AcDbArc
 50
270.0
 51
358.9999999999998
  0
LINE
  5
72C
330
2
100
AcDbEntity
  8
0
100
AcDbLine
 10
228.7597046708709
 20
274.8907909558532
 30
0.0
 11
228.7597046708709
 21
276.8907909558532
 31
0.0
  0
LINE
  5
72D
330
2
100
AcDbEntity
  8
0
100
AcDbLine
 10
227.7597046708709
 20
271.8907909558532
 30
0.0
 11
227.7597046708709
 21
274.8907909558532
 31
0.0
  0
LINE
  5
72E
330
2
100
AcDbEntity
  8
0
100
AcDbLine
 10
227.3307036708709
 20
271.8907909558532
 30
0.0
 11
229.7597046708709
 21
271.8907909558532
 31
0.0
  0
ARC
  5
72F
330
2
100
AcDbEntity
  8
0
100
AcDbCircle
 10
239.2597046708709
 20
277.8907909558532
 30
0.0
 40
1.0
100
AcDbArc
 50
270.0
 51
0.0
  0
LINE
  5
730
330
2
100
AcDbEntity
  8
0
100
AcDbLine
 10
240.2597046708709
 20
277.8907909558532
 30
0.0
 11
240.2597046708709
 21
278.8907909558531
 31
0.0
  0
ARC
  5
731
330
2
100
AcDbEntity
  8
0
100
AcDbCircle
 10
260.2532046708708
 20
282.8907909558532
 30
0.0
 40
2.0
100
AcDbArc
 50
270.0
 51
358.9999999999998
  0
LINE
  5
732
330
2
100
AcDbEntity
  8
CENTER
100
AcDbLine
 10
254.259704670871
 20
357.8182892010294
 30
0.0
 11
254.259704670871
 21
345.963262710677
 31
0.0
  0
ARC
  5
733
330
2
100
AcDbEntity
  8
0
100
AcDbCircle
 10
258.9912256708708
 20
355.8907759558532
 30
0.0
 40
3.0
100
AcDbArc
 50
1.000000000000147
 51
90.0
  0
LINE
  5
734
330
2
100
AcDbEntity
  8
CENTER
100
AcDbLine
 10
248.3321914256948
 20
351.8907759558532
 30
0.0
 11
260.1872179160471
 21
351.8907759558532
 31
0.0
  0
CIRCLE
  5
735
330
2
100
AcDbEntity
  8
0
100
AcDbCircle
 10
254.259704670871
 20
351.8907759558532
 30
0.0
 40
3.25
  0
ARC
  5
736
330
2
100
AcDbEntity
  8
0
100
AcDbCircle
 10
260.2532046708708
 20
340.8907909558532
 30
0.0
 40
2.0
100
AcDbArc
 50
1.000000000000147
 51
90.0
  0
LINE
  5
743
330
2
100
AcDbEntity
  8
CENTER
100
AcDbLine
 10
180.3321914256947
 20
351.8907759558532
 30
0.0
 11
192.187217916047
 21
351.8907759558532
 31
0.0
  0
LINE
  5
744
330
2
100
AcDbEntity
  8
CENTER
100
AcDbLine
 10
186.2597046708709
 20
357.8182892010294
 30
0.0
 11
186.2597046708709
 21
345.963262710677
 31
0.0
  0
LINE
  5
745
330
2
100
AcDbEntity
  8
CENTER
100
AcDbLine
 10
180.3321914256947
 20
271.8907909558532
 30
0.0
 11
192.187217916047
 21
271.8907909558532
 31
0.0
  0
LINE
  5
746
330
2
100
AcDbEntity
  8
CENTER
100
AcDbLine
 10
186.2597046708709
 20
277.8183042010294
 30
0.0
 11
186.2597046708709
 21
265.9632777106771
 31
0.0
  0
LINE
  5
747
330
2
100
AcDbEntity
  8
CENTER
100
AcDbLine
 10
248.3321914256948
 20
271.8907909558532
 30
0.0
 11
260.1872179160471
 21
271.8907909558532
 31
0.0
  0
LINE
  5
748
330
2
100
AcDbEntity
  8
CENTER
100
AcDbLine
 10
254.259704670871
 20
277.8183042010294
 30
0.0
 11
254.259704670871
 21
265.9632777106771
 31
0.0
  0
TEXT
  5
75F
330
2
100
AcDbEntity
  8
TITLE
100
AcDbText
 10
379.7283688003147
 20
291.2618272978809
 30
0.0
 40
5.0
  1
HLMN-15R-10~120-S40WK
 41
0.8
100
AcDbText
  0
TEXT
  5
760
330
2
100
AcDbEntity
  8
TITLE
100
AcDbText
 10
379.7283688003147
 20
307.261827297881
 30
0.0
 40
5.0
  1
HLMN-15R-10~240-S25WK
 41
0.8
100
AcDbText
  0
TEXT
  5
761
330
2
100
AcDbEntity
  8
TITLE
100
AcDbText
 10
379.7283688003147
 20
299.2618272978809
 30
0.0
 40
5.0
  1
HLMN-15R-10~120-S40K
 41
0.8
100
AcDbText
  0
TEXT
  5
762
330
2
100
AcDbEntity
  8
TITLE
100
AcDbText
 10
379.7283688003147
 20
315.2618272978809
 30
0.0
 40
5.0
  1
HLMN-15R-10~240-S25K
 41
0.8
100
AcDbText
  0
TEXT
  5
763
330
2
100
AcDbEntity
  8
TITLE
100
AcDbText
 10
379.7283688003147
 20
323.2618272978809
 30
0.0
 40
5.0
  1
HLMN-15R-10~240-S15WK
 41
0.8
100
AcDbText
  0
TEXT
  5
764
330
2
100
AcDbEntity
  8
TITLE
100
AcDbText
 10
379.7283688003147
 20
331.2618272978809
 30
0.0
 40
5.0
  1
HLMN-15R-10~240-S15K
 41
0.8
100
AcDbText
  0
TEXT
  5
765
330
2
100
AcDbEntity
  8
TITLE
100
AcDbText
 10
286.8263325911513
 20
291.2618272978809
 30
0.0
 40
5.0
  1
HLMN-15R-10~120-T40WK
 41
0.8
100
AcDbText
  0
TEXT
  5
766
330
2
100
AcDbEntity
  8
TITLE
100
AcDbText
 10
286.8263325911513
 20
283.2618272978809
 30
0.0
 40
5.0
  1
HLMN-15R-10~60-T60K
 41
0.8
100
AcDbText
  0
TEXT
  5
767
330
2
100
AcDbEntity
  8
TITLE
100
AcDbText
 10
286.8263325911513
 20
299.2618272978809
 30
0.0
 40
5.0
  1
HLMN-15R-10~120-T40K
 41
0.8
100
AcDbText
  0
TEXT
  5
768
330
2
100
AcDbEntity
  8
TITLE
100
AcDbText
 10
286.8263325911513
 20
307.261827297881
 30
0.0
 40
5.0
  1
HLMN-15R-10~240-T25WK
 41
0.8
100
AcDbText
  0
TEXT
  5
769
330
2
100
AcDbEntity
  8
TITLE
100
AcDbText
 10
286.8263325911513
 20
323.2618272978809
 30
0.0
 40
5.0
  1
HLMN-15R-10~240-T15WK
 41
0.8
100
AcDbText
  0
TEXT
  5
76A
330
2
100
AcDbEntity
  8
TITLE
100
AcDbText
 10
286.8263325911513
 20
315.2618272978809
 30
0.0
 40
5.0
  1
HLMN-15R-10~240-T25K
 41
0.8
100
AcDbText
  0
TEXT
  5
76B
330
2
100
AcDbEntity
  8
TITLE
100
AcDbText
 10
286.8263325911513
 20
331.2618272978809
 30
0.0
 40
5.0
  1
HLMN-15R-10~240-T15K
 41
0.8
100
AcDbText
  0
LINE
  5
19D3
330
2
100
AcDbEntity
  8
0
100
AcDbLine
 10
143.7597046708709
 20
133.2743533845185
 30
0.0
 11
143.7597046708709
 21
131.7743533845185
 31
0.0
  0
LINE
  5
19D6
330
2
100
AcDbEntity
  8
0
100
AcDbLine
 10
97.75969767087099
 20
133.2743533845185
 30
0.0
 11
97.75969767087099
 21
131.7743533845185
 31
0.0
  0
LINE
  5
19D7
330
2
100
AcDbEntity
  8
CENTER
100
AcDbLine
 10
121.2597046708709
 20
126.8848573845185
 30
0.0
 11
121.2597046708709
 21
183.6618683845185
 31
0.0
  0
LINE
  5
1A0D
330
2
100
AcDbEntity
  8
0
100
AcDbLine
 10
392.2482468585067
 20
177.2743683845185
 30
0.0
 11
427.2482468585067
 21
177.2743683845185
 31
0.0
  0
LINE
  5
1A0E
330
2
100
AcDbEntity
  8
0
100
AcDbLine
 10
389.5861556745336
 20
178.2743683845185
 30
0.0
 11
429.9103380424799
 21
178.2743683845185
 31
0.0
  0
LINE
  5
1A0F
330
2
100
AcDbEntity
  8
CENTER
100
AcDbLine
 10
379.7046398772982
 20
161.2743533845184
 30
0.0
 11
439.7918538397153
 21
161.2743533845184
 31
0.0
  0
LINE
  5
1A14
330
2
100
AcDbEntity
  8
0
100
AcDbLine
 10
146.2597046708709
 20
177.2743683845185
 30
0.0
 11
146.2597046708709
 21
135.2743533845185
 31
0.0
  0
LINE
  5
1A15
330
2
100
AcDbEntity
  8
0
100
AcDbLine
 10
96.25969767087099
 20
177.2743683845185
 30
0.0
 11
96.25969767087099
 21
135.2743533845185
 31
0.0
  0
LINE
  5
1A16
330
2
100
AcDbEntity
  8
CENTER
100
AcDbLine
 10
91.21609768966242
 20
161.2743533845185
 30
0.0
 11
151.3033116520795
 21
161.2743533845185
 31
0.0
  0
LINE
  5
1A17
330
2
100
AcDbEntity
  8
0
100
AcDbLine
 10
96.25969767087099
 20
146.2743533845185
 30
0.0
 11
146.2597046708709
 21
146.2743533845185
 31
0.0
  0
LINE
  5
1A18
330
2
100
AcDbEntity
  8
0
100
AcDbLine
 10
96.25969767087099
 20
135.2743533845185
 30
0.0
 11
146.2597046708709
 21
135.2743533845185
 31
0.0
  0
LINE
  5
1A19
330
2
100
AcDbEntity
  8
0
100
AcDbLine
 10
96.25969767087099
 20
145.2743533845185
 30
0.0
 11
146.2597046708709
 21
145.2743533845185
 31
0.0
  0
LINE
  5
1A1A
330
2
100
AcDbEntity
  8
0
100
AcDbLine
 10
97.75969767087099
 20
133.2743533845185
 30
0.0
 11
144.2597046708709
 21
133.2743533845185
 31
0.0
  0
LINE
  5
1A1B
330
2
100
AcDbEntity
  8
0
100
AcDbLine
 10
96.25969767087099
 20
135.2743533845185
 30
0.0
 11
98.259697670871
 21
133.2743533845185
 31
0.0
  0
LINE
  5
1A1C
330
2
100
AcDbEntity
  8
0
100
AcDbLine
 10
95.38469767087098
 20
150.7743533845185
 30
0.0
 11
97.38469767087099
 21
150.7743533845185
 31
0.0
  0
LINE
  5
1A1D
330
2
100
AcDbEntity
  8
0
100
AcDbLine
 10
95.38469767087098
 20
171.7743533845185
 30
0.0
 11
97.38469767087099
 21
171.7743533845185
 31
0.0
  0
LINE
  5
1A1E
330
2
100
AcDbEntity
  8
0
100
AcDbLine
 10
144.2597046708709
 20
133.2743533845185
 30
0.0
 11
146.2597046708709
 21
135.2743533845185
 31
0.0
  0
LINE
  5
1A1F
330
2
100
AcDbEntity
  8
0
100
AcDbLine
 10
103.7597046708709
 20
177.2743683845185
 30
0.0
 11
138.7597046708709
 21
177.2743683845185
 31
0.0
  0
LINE
  5
1A20
330
2
100
AcDbEntity
  8
0
100
AcDbLine
 10
101.0976134868975
 20
178.2743683845184
 30
0.0
 11
141.4217958548446
 21
178.2743683845185
 31
0.0
  0
LINE
  5
1A22
330
2
100
AcDbEntity
  8
0
100
AcDbLine
 10
99.47220467041587
 20
176.8573683845185
 30
0.0
 11
100.0472046713259
 21
176.8573683845185
 31
0.0
  0
ARC
  5
1A23
330
2
100
AcDbEntity
  8
0
100
AcDbCircle
 10
99.75970467087098
 20
169.3743683845186
 30
0.0
 40
9.0
100
AcDbArc
 50
74.1191499917157
 51
105.8808500082775
  0
LINE
  5
1A24
330
2
100
AcDbEntity
  8
0
100
AcDbLine
 10
103.7597046708709
 20
175.7743683845185
 30
0.0
 11
96.25970467087098
 21
175.7743683845186
 31
0.0
  0
LINE
  5
1A25
330
2
100
AcDbEntity
  8
0
100
AcDbLine
 10
98.42179585484451
 20
178.2743683845185
 30
0.0
 11
97.25970467087098
 21
178.2743683845185
 31
0.0
  0
LINE
  5
1A26
330
2
100
AcDbEntity
  8
0
100
AcDbLine
 10
96.25970467087098
 20
175.7743683845186
 30
0.0
 11
96.35764080975889
 21
176.8937835743368
 31
0.0
  0
ARC
  5
1A27
330
2
100
AcDbEntity
  8
0
100
AcDbCircle
 10
97.65269391727805
 20
176.7804811087649
 30
0.0
 40
1.3
100
AcDbArc
 50
105.8808500082775
 51
175.0000000000002
  0
LINE
  5
1A28
330
2
100
AcDbEntity
  8
0
100
AcDbLine
 10
97.72996484770681
 20
177.9268099218962
 30
0.0
 11
97.7097046708709
 21
178.1377866673577
 31
0.0
  0
LINE
  5
1A29
330
2
100
AcDbEntity
  8
0
100
AcDbLine
 10
97.25970467087098
 20
178.2743683845185
 30
0.0
 11
96.25970467087098
 21
177.2743683845185
 31
0.0
  0
SPLINE
  5
1A2A
330
2
100
AcDbEntity
  8
0
100
AcDbSpline
210
0.0
220
0.0
230
1.0
 70
     8
 71
     3
 72
    11
 73
     7
 74
     0
 42
0.0000000001
 43
0.0000000001
 40
0.0
 40
0.0
 40
0.0
 40
0.0
 40
0.4601364636755307
 40
1.04988694485363
 40
1.713742833862792
 40
2.320347933405154
 40
2.320347933405154
 40
2.320347933405154
 40
2.320347933405179
 10
99.47220467041587
 20
176.8573683845185
 30
0.0
 10
99.44978701330809
 20
177.0123918241984
 30
0.0
 10
99.39863695807469
 20
177.366106642116
 30
0.0
 10
98.96275179654118
 20
177.7908343137176
 30
0.0
 10
98.35770108153372
 20
178.0100214936835
 30
0.0
 10
97.93251645735791
 20
177.9410301940728
 30
0.0
 10
97.72996484770681
 20
177.9268099218962
 30
0.0
  0
LINE
  5
1A2B
330
2
100
AcDbEntity
  8
0
100
AcDbLine
 10
103.7597046708709
 20
175.7743683845185
 30
0.0
 11
103.7597046708709
 21
177.7743683845185
 31
0.0
  0
LINE
  5
1A2C
330
2
100
AcDbEntity
  8
0
100
AcDbLine
 10
104.2597046708709
 20
178.2743683845185
 30
0.0
 11
103.7597046708709
 21
177.7743683845185
 31
0.0
  0
SPLINE
  5
1A2D
330
2
100
AcDbEntity
  8
0
100
AcDbSpline
210
0.0
220
0.0
230
1.0
 70
     8
 71
     3
 72
    11
 73
     7
 74
     0
 42
0.0000000001
 43
0.0000000001
 40
0.0
 40
0.0
 40
0.0
 40
0.0
 40
0.4601364636755307
 40
1.04988694485363
 40
1.713742833862792
 40
2.320347933405154
 40
2.320347933405154
 40
2.320347933405154
 40
2.320347933405179
 10
100.0472046713259
 20
176.8573683845185
 30
0.0
 10
100.0696223284338
 20
177.0123918241984
 30
0.0
 10
100.120772383667
 20
177.366106642116
 30
0.0
 10
100.5566575452006
 20
177.7908343137176
 30
0.0
 10
101.1617082602081
 20
178.0100214936835
 30
0.0
 10
101.5868928843839
 20
177.9410301940728
 30
0.0
 10
101.789444494035
 20
177.9268099218962
 30
0.0
  0
LINE
  5
1A2E
330
2
100
AcDbEntity
  8
0
100
AcDbLine
 10
103.2597046708709
 20
175.7743683845186
 30
0.0
 11
103.161768531983
 21
176.8937835743368
 31
0.0
  0
LINE
  5
1A2F
330
2
100
AcDbEntity
  8
0
100
AcDbLine
 10
101.789444494035
 20
177.9268099218962
 30
0.0
 11
101.8097046708709
 21
178.1377866673577
 31
0.0
  0
LINE
  5
1A30
330
2
100
AcDbEntity
  8
0
100
AcDbLine
 10
103.7597046708709
 20
177.7743683845185
 30
0.0
 11
102.7046820604913
 21
177.7743683845185
 31
0.0
  0
ARC
  5
1A31
330
2
100
AcDbEntity
  8
0
100
AcDbCircle
 10
101.8667154244639
 20
176.7804811087649
 30
0.0
 40
1.3
100
AcDbArc
 50
4.999999999999743
 51
74.1191499917157
  0
LINE
  5
1A32
330
2
100
AcDbEntity
  8
0
100
AcDbLine
 10
144.0976134868975
 20
178.2743683845185
 30
0.0
 11
145.2597046708709
 21
178.2743683845185
 31
0.0
  0
LINE
  5
1A33
330
2
100
AcDbEntity
  8
0
100
AcDbLine
 10
138.7597046708709
 20
175.7743683845185
 30
0.0
 11
146.2597046708709
 21
175.7743683845186
 31
0.0
  0
ARC
  5
1A34
330
2
100
AcDbEntity
  8
0
100
AcDbCircle
 10
142.759704670871
 20
169.3743683845186
 30
0.0
 40
9.0
100
AcDbArc
 50
74.1191499917157
 51
105.8808500082775
  0
SPLINE
  5
1A35
330
2
100
AcDbEntity
  8
0
100
AcDbSpline
210
0.0
220
0.0
230
1.0
 70
     8
 71
     3
 72
    11
 73
     7
 74
     0
 42
0.0000000001
 43
0.0000000001
 40
0.0
 40
0.0
 40
0.0
 40
0.0
 40
0.4601364636755307
 40
1.04988694485363
 40
1.713742833862792
 40
2.320347933405154
 40
2.320347933405154
 40
2.320347933405154
 40
2.320347933405179
 10
143.047204671326
 20
176.8573683845185
 30
0.0
 10
143.0696223284339
 20
177.0123918241984
 30
0.0
 10
143.1207723836672
 20
177.366106642116
 30
0.0
 10
143.5566575452009
 20
177.7908343137176
 30
0.0
 10
144.1617082602082
 20
178.0100214936835
 30
0.0
 10
144.5868928843841
 20
177.9410301940728
 30
0.0
 10
144.7894444940351
 20
177.9268099218962
 30
0.0
  0
LINE
  5
1A36
330
2
100
AcDbEntity
  8
0
100
AcDbLine
 10
143.047204671326
 20
176.8573683845185
 30
0.0
 11
142.4722046704161
 21
176.8573683845185
 31
0.0
  0
LINE
  5
1A37
330
2
100
AcDbEntity
  8
0
100
AcDbLine
 10
144.7894444940351
 20
177.9268099218962
 30
0.0
 11
144.8097046708711
 21
178.1377866673577
 31
0.0
  0
LINE
  5
1A38
330
2
100
AcDbEntity
  8
0
100
AcDbLine
 10
138.7597046708709
 20
175.7743683845185
 30
0.0
 11
138.7597046708709
 21
177.7743683845185
 31
0.0
  0
LINE
  5
1A39
330
2
100
AcDbEntity
  8
0
100
AcDbLine
 10
138.2597046708709
 20
178.2743683845185
 30
0.0
 11
138.7597046708709
 21
177.7743683845185
 31
0.0
  0
LINE
  5
1A3A
330
2
100
AcDbEntity
  8
0
100
AcDbLine
 10
138.7597046708709
 20
177.7743683845185
 30
0.0
 11
139.8147272812506
 21
177.7743683845185
 31
0.0
  0
ARC
  5
1A3B
330
2
100
AcDbEntity
  8
0
100
AcDbCircle
 10
140.652693917278
 20
176.7804811087649
 30
0.0
 40
1.3
100
AcDbArc
 50
105.8808500082775
 51
175.0000000000002
  0
LINE
  5
1A3C
330
2
100
AcDbEntity
  8
0
100
AcDbLine
 10
140.729964847707
 20
177.9268099218962
 30
0.0
 11
140.709704670871
 21
178.1377866673577
 31
0.0
  0
LINE
  5
1A3D
330
2
100
AcDbEntity
  8
0
100
AcDbLine
 10
139.259704670871
 20
175.7743683845186
 30
0.0
 11
139.3576408097588
 21
176.8937835743368
 31
0.0
  0
SPLINE
  5
1A3E
330
2
100
AcDbEntity
  8
0
100
AcDbSpline
210
0.0
220
0.0
230
1.0
 70
     8
 71
     3
 72
    11
 73
     7
 74
     0
 42
0.0000000001
 43
0.0000000001
 40
0.0
 40
0.0
 40
0.0
 40
0.0
 40
0.4601364636755307
 40
1.04988694485363
 40
1.713742833862792
 40
2.320347933405154
 40
2.320347933405154
 40
2.320347933405154
 40
2.320347933405179
 10
142.4722046704161
 20
176.8573683845185
 30
0.0
 10
142.4497870133081
 20
177.0123918241984
 30
0.0
 10
142.3986369580749
 20
177.366106642116
 30
0.0
 10
141.9627517965412
 20
177.7908343137176
 30
0.0
 10
141.3577010815339
 20
178.0100214936835
 30
0.0
 10
140.932516457358
 20
177.9410301940728
 30
0.0
 10
140.729964847707
 20
177.9268099218962
 30
0.0
  0
LINE
  5
1A3F
330
2
100
AcDbEntity
  8
0
100
AcDbLine
 10
145.2597046708709
 20
178.2743683845185
 30
0.0
 11
146.2597046708709
 21
177.2743683845185
 31
0.0
  0
ARC
  5
1A40
330
2
100
AcDbEntity
  8
0
100
AcDbCircle
 10
144.8667154244638
 20
176.7804811087649
 30
0.0
 40
1.3
100
AcDbArc
 50
4.999999999999743
 51
74.1191499917157
  0
LINE
  5
1A41
330
2
100
AcDbEntity
  8
0
100
AcDbLine
 10
146.2597046708709
 20
175.7743683845186
 30
0.0
 11
146.1617685319831
 21
176.8937835743368
 31
0.0
  0
LINE
  5
1A42
330
2
100
AcDbEntity
  8
0
100
AcDbLine
 10
384.7482468585067
 20
177.2743683845185
 30
0.0
 11
384.7482468585067
 21
148.2379929006491
 31
0.0
  0
SPLINE
  5
1A44
330
2
100
AcDbEntity
  8
0
100
AcDbSpline
210
0.0
220
0.0
230
1.0
 70
     8
 71
     3
 72
    11
 73
     7
 74
     0
 42
0.0000000001
 43
0.0000000001
 40
0.0
 40
0.0
 40
0.0
 40
0.0
 40
0.4601364636755307
 40
1.04988694485363
 40
1.713742833862792
 40
2.320347933405154
 40
2.320347933405154
 40
2.320347933405154
 40
2.320347933405179
 10
387.9607468580516
 20
176.8573683845185
 30
0.0
 10
387.9383292009437
 20
177.0123918241985
 30
0.0
 10
387.8871791457104
 20
177.366106642116
 30
0.0
 10
387.4512939841769
 20
177.7908343137176
 30
0.0
 10
386.8462432691695
 20
178.0100214936835
 30
0.0
 10
386.4210586449937
 20
177.9410301940728
 30
0.0
 10
386.2185070353426
 20
177.9268099218962
 30
0.0
  0
LINE
  5
1A45
330
2
100
AcDbEntity
  8
0
100
AcDbLine
 10
392.2482468585067
 20
175.7743683845185
 30
0.0
 11
384.7482468585067
 21
175.7743683845186
 31
0.0
  0
ARC
  5
1A46
330
2
100
AcDbEntity
  8
0
100
AcDbCircle
 10
388.2482468585066
 20
169.3743683845186
 30
0.0
 40
9.0
100
AcDbArc
 50
74.1191499917157
 51
105.8808500082775
  0
LINE
  5
1A47
330
2
100
AcDbEntity
  8
0
100
AcDbLine
 10
385.7482468585067
 20
178.2743683845185
 30
0.0
 11
384.7482468585067
 21
177.2743683845185
 31
0.0
  0
LINE
  5
1A48
330
2
100
AcDbEntity
  8
0
100
AcDbLine
 10
386.2185070353426
 20
177.9268099218962
 30
0.0
 11
386.1982468585066
 21
178.1377866673578
 31
0.0
  0
ARC
  5
1A49
330
2
100
AcDbEntity
  8
0
100
AcDbCircle
 10
386.1412361049138
 20
176.7804811087649
 30
0.0
 40
1.3
100
AcDbArc
 50
105.8808500082775
 51
175.0000000000002
  0
LINE
  5
1A4A
330
2
100
AcDbEntity
  8
0
100
AcDbLine
 10
384.7482468585067
 20
175.7743683845186
 30
0.0
 11
384.8461829973945
 21
176.8937835743368
 31
0.0
  0
LINE
  5
1A4B
330
2
100
AcDbEntity
  8
0
100
AcDbLine
 10
386.9103380424801
 20
178.2743683845185
 30
0.0
 11
385.7482468585067
 21
178.2743683845185
 31
0.0
  0
ARC
  5
1A4C
330
2
100
AcDbEntity
  8
0
100
AcDbCircle
 10
390.3552576120997
 20
176.7804811087649
 30
0.0
 40
1.3
100
AcDbArc
 50
4.999999999999743
 51
74.1191499917157
  0
LINE
  5
1A4D
330
2
100
AcDbEntity
  8
0
100
AcDbLine
 10
392.2482468585067
 20
177.7743683845185
 30
0.0
 11
391.1932242481271
 21
177.7743683845185
 31
0.0
  0
LINE
  5
1A4E
330
2
100
AcDbEntity
  8
0
100
AcDbLine
 10
390.2779866816708
 20
177.9268099218962
 30
0.0
 11
390.2982468585067
 21
178.1377866673578
 31
0.0
  0
LINE
  5
1A4F
330
2
100
AcDbEntity
  8
0
100
AcDbLine
 10
392.7482468585067
 20
178.2743683845185
 30
0.0
 11
392.2482468585067
 21
177.7743683845185
 31
0.0
  0
LINE
  5
1A50
330
2
100
AcDbEntity
  8
0
100
AcDbLine
 10
392.2482468585067
 20
175.7743683845185
 30
0.0
 11
392.2482468585067
 21
177.7743683845186
 31
0.0
  0
LINE
  5
1A51
330
2
100
AcDbEntity
  8
0
100
AcDbLine
 10
391.7482468585066
 20
175.7743683845186
 30
0.0
 11
391.6503107196188
 21
176.8937835743368
 31
0.0
  0
LINE
  5
1A52
330
2
100
AcDbEntity
  8
0
100
AcDbLine
 10
387.9607468580516
 20
176.8573683845185
 30
0.0
 11
388.5357468589617
 21
176.8573683845185
 31
0.0
  0
SPLINE
  5
1A53
330
2
100
AcDbEntity
  8
0
100
AcDbSpline
210
0.0
220
0.0
230
1.0
 70
     8
 71
     3
 72
    11
 73
     7
 74
     0
 42
0.0000000001
 43
0.0000000001
 40
0.0
 40
0.0
 40
0.0
 40
0.0
 40
0.4601364636755307
 40
1.04988694485363
 40
1.713742833862792
 40
2.320347933405154
 40
2.320347933405154
 40
2.320347933405154
 40
2.320347933405179
 10
388.5357468589617
 20
176.8573683845185
 30
0.0
 10
388.5581645160695
 20
177.0123918241985
 30
0.0
 10
388.6093145713028
 20
177.366106642116
 30
0.0
 10
389.0451997328364
 20
177.7908343137176
 30
0.0
 10
389.6502504478439
 20
178.0100214936835
 30
0.0
 10
390.0754350720197
 20
177.9410301940728
 30
0.0
 10
390.2779866816708
 20
177.9268099218962
 30
0.0
  0
LINE
  5
1A54
330
2
100
AcDbEntity
  8
0
100
AcDbLine
 10
144.259506670871
 20
329.3907909558532
 30
0.0
 11
144.259506670871
 21
294.3907909558532
 31
0.0
  0
LINE
  5
1A55
330
2
100
AcDbEntity
  8
0
100
AcDbLine
 10
146.2597046708709
 20
334.8907909558533
 30
0.0
 11
146.259506670871
 21
288.8907909558532
 31
0.0
  0
LINE
  5
1A56
330
2
100
AcDbEntity
  8
CENTER
100
AcDbLine
 10
121.2597046708709
 20
281.8471839746448
 30
0.0
 11
121.2597046708709
 21
341.9343979370617
 31
0.0
  0
LINE
  5
1A57
330
2
100
AcDbEntity
  8
0
100
AcDbLine
 10
98.25959767087102
 20
329.3907909558532
 30
0.0
 11
98.25959767087102
 21
294.3907909558532
 31
0.0
  0
LINE
  5
1A58
330
2
100
AcDbEntity
  8
0
100
AcDbLine
 10
96.25959767087103
 20
288.8907909558532
 30
0.0
 11
96.25959767087103
 21
334.8907909558533
 31
0.0
  0
LINE
  5
1A5A
330
2
100
AcDbEntity
  8
0
100
AcDbLine
 10
98.25959767087102
 20
286.8907909558533
 30
0.0
 11
144.259506670871
 21
286.8907909558533
 31
0.0
  0
LINE
  5
1A5B
330
2
100
AcDbEntity
  8
0
100
AcDbLine
 10
138.759506670871
 20
288.8907909558532
 30
0.0
 11
103.759597670871
 21
288.8907909558532
 31
0.0
  0
ARC
  5
1A5C
330
2
100
AcDbEntity
  8
0
100
AcDbCircle
 10
101.7892976708709
 20
292.4203989558532
 30
0.0
 40
1.742199999999999
100
AcDbArc
 50
179.9986903345002
 51
270.0013096654997
  0
ARC
  5
1A5D
330
2
100
AcDbEntity
  8
0
100
AcDbCircle
 10
99.75959767087102
 20
290.3906989558532
 30
0.0
 40
2.049999999999998
100
AcDbArc
 50
81.93803991601813
 51
90.0
  0
ARC
  5
1A5E
330
2
100
AcDbEntity
  8
0
100
AcDbCircle
 10
101.7892976708709
 20
288.3609989558532
 30
0.0
 40
1.742199999999999
100
AcDbArc
 50
89.99869033450025
 51
180.0013096654997
  0
ARC
  5
1A5F
330
2
100
AcDbEntity
  8
0
100
AcDbCircle
 10
99.75959767087102
 20
290.3906989558532
 30
0.0
 40
2.049999999999998
100
AcDbArc
 50
270.0
 51
278.0619600839818
  0
CIRCLE
  5
1A60
330
2
100
AcDbEntity
  8
0
100
AcDbCircle
 10
99.75959767087102
 20
290.3906989558532
 30
0.0
 40
3.500000000000028
  0
ARC
  5
1A61
330
2
100
AcDbEntity
  8
0
100
AcDbCircle
 10
99.75959767087102
 20
290.3906989558532
 30
0.0
 40
4.0
100
AcDbArc
 50
0.0
 51
90.0
  0
ARC
  5
1A62
330
2
100
AcDbEntity
  8
0
100
AcDbCircle
 10
99.75959767087102
 20
290.3906989558532
 30
0.0
 40
2.049999999999998
100
AcDbArc
 50
180.0
 51
188.0619600839821
  0
ARC
  5
1A63
330
2
100
AcDbEntity
  8
0
100
AcDbCircle
 10
97.72989767087086
 20
288.3609989558532
 30
0.0
 40
1.742199999999999
100
AcDbArc
 50
359.9986903345002
 51
90.00130966549322
  0
ARC
  5
1A64
330
2
100
AcDbEntity
  8
0
100
AcDbCircle
 10
99.75959767087102
 20
290.3906989558532
 30
0.0
 40
2.049999999999998
100
AcDbArc
 50
261.9380399160181
 51
270.0
  0
LINE
  5
1A65
330
2
100
AcDbEntity
  8
0
100
AcDbLine
 10
96.25959767087103
 20
288.8907909558532
 30
0.0
 11
98.25959767087102
 21
286.8907909558533
 31
0.0
  0
ARC
  5
1A66
330
2
100
AcDbEntity
  8
0
100
AcDbCircle
 10
99.75959767087102
 20
290.3906989558532
 30
0.0
 40
2.049999999999998
100
AcDbArc
 50
90.0
 51
98.06196008398188
  0
ARC
  5
1A67
330
2
100
AcDbEntity
  8
0
100
AcDbCircle
 10
99.75959767087102
 20
290.3906989558532
 30
0.0
 40
2.049999999999998
100
AcDbArc
 50
171.9380399160178
 51
180.0
  0
ARC
  5
1A68
330
2
100
AcDbEntity
  8
0
100
AcDbCircle
 10
97.72989767087086
 20
292.4203989558532
 30
0.0
 40
1.742199999999999
100
AcDbArc
 50
269.9986903345067
 51
0.0013096654997424
  0
LINE
  5
1A69
330
2
100
AcDbEntity
  8
0
100
AcDbLine
 10
99.75959767087102
 20
294.3907909558532
 30
0.0
 11
96.25959767087103
 21
294.3907909558532
 31
0.0
  0
LINE
  5
1A6A
330
2
100
AcDbEntity
  8
0
100
AcDbLine
 10
103.759597670871
 20
290.3906989558532
 30
0.0
 11
103.759597670871
 21
286.8907909558533
 31
0.0
  0
ARC
  5
1A6B
330
2
100
AcDbEntity
  8
0
100
AcDbCircle
 10
99.75959767087102
 20
290.3906989558532
 30
0.0
 40
2.049999999999998
100
AcDbArc
 50
351.9380399160179
 51
0.0
  0
ARC
  5
1A6C
330
2
100
AcDbEntity
  8
0
100
AcDbCircle
 10
99.75959767087102
 20
290.3906989558532
 30
0.0
 40
2.049999999999998
100
AcDbArc
 50
0.0
 51
8.061960083982105
  0
ARC
  5
1A6D
330
2
100
AcDbEntity
  8
0
100
AcDbCircle
 10
144.7894046708709
 20
288.3609989558532
 30
0.0
 40
1.742199999999999
100
AcDbArc
 50
89.99869033450025
 51
180.0013096654997
  0
ARC
  5
1A6E
330
2
100
AcDbEntity
  8
0
100
AcDbCircle
 10
142.7597046708709
 20
290.3906989558532
 30
0.0
 40
2.049999999999998
100
AcDbArc
 50
351.9380399160179
 51
0.0
  0
ARC
  5
1A6F
330
2
100
AcDbEntity
  8
0
100
AcDbCircle
 10
142.7597046708709
 20
290.3906989558532
 30
0.0
 40
2.049999999999998
100
AcDbArc
 50
180.0
 51
188.0619600839821
  0
LINE
  5
1A70
330
2
100
AcDbEntity
  8
0
100
AcDbLine
 10
138.759506670871
 20
290.3906989558532
 30
0.0
 11
138.759506670871
 21
286.8907909558533
 31
0.0
  0
CIRCLE
  5
1A71
330
2
100
AcDbEntity
  8
0
100
AcDbCircle
 10
142.7597046708709
 20
290.3906989558532
 30
0.0
 40
3.500000000000028
  0
ARC
  5
1A72
330
2
100
AcDbEntity
  8
0
100
AcDbCircle
 10
140.7300046708708
 20
288.3609989558532
 30
0.0
 40
1.742199999999999
100
AcDbArc
 50
359.9986903345002
 51
90.00130966549322
  0
LINE
  5
1A73
330
2
100
AcDbEntity
  8
0
100
AcDbLine
 10
144.259506670871
 20
286.8907909558533
 30
0.0
 11
146.259506670871
 21
288.8907909558532
 31
0.0
  0
LINE
  5
1A74
330
2
100
AcDbEntity
  8
0
100
AcDbLine
 10
146.259506670871
 20
288.8907909558532
 30
0.0
 11
144.259506670871
 21
286.8907909558533
 31
0.0
  0
ARC
  5
1A75
330
2
100
AcDbEntity
  8
0
100
AcDbCircle
 10
142.7597046708709
 20
290.3906989558532
 30
0.0
 40
2.049999999999998
100
AcDbArc
 50
261.9380399160181
 51
270.0
  0
ARC
  5
1A76
330
2
100
AcDbEntity
  8
0
100
AcDbCircle
 10
142.7597046708709
 20
290.3906989558532
 30
0.0
 40
2.049999999999998
100
AcDbArc
 50
270.0
 51
278.0619600839818
  0
LINE
  5
1A77
330
2
100
AcDbEntity
  8
0
100
AcDbLine
 10
142.759506670871
 20
294.3907909558532
 30
0.0
 11
146.259506670871
 21
294.3907909558532
 31
0.0
  0
ARC
  5
1A78
330
2
100
AcDbEntity
  8
0
100
AcDbCircle
 10
144.7894046708709
 20
292.4203989558532
 30
0.0
 40
1.742199999999999
100
AcDbArc
 50
179.9986903345002
 51
270.0013096654997
  0
ARC
  5
1A79
330
2
100
AcDbEntity
  8
0
100
AcDbCircle
 10
142.7597046708709
 20
290.3906989558532
 30
0.0
 40
2.049999999999998
100
AcDbArc
 50
0.0
 51
8.061960083982105
  0
ARC
  5
1A7A
330
2
100
AcDbEntity
  8
0
100
AcDbCircle
 10
142.7597046708709
 20
290.3906989558532
 30
0.0
 40
2.049999999999998
100
AcDbArc
 50
90.0
 51
98.06196008398188
  0
ARC
  5
1A7B
330
2
100
AcDbEntity
  8
0
100
AcDbCircle
 10
142.7597046708709
 20
290.3906989558532
 30
0.0
 40
2.049999999999998
100
AcDbArc
 50
81.93803991601813
 51
90.0
  0
ARC
  5
1A7C
330
2
100
AcDbEntity
  8
0
100
AcDbCircle
 10
142.7597046708709
 20
290.3906989558532
 30
0.0
 40
2.049999999999998
100
AcDbArc
 50
171.9380399160178
 51
180.0
  0
ARC
  5
1A7D
330
2
100
AcDbEntity
  8
0
100
AcDbCircle
 10
140.7300046708708
 20
292.4203989558532
 30
0.0
 40
1.742199999999999
100
AcDbArc
 50
269.9986903345067
 51
0.0013096654997424
  0
ARC
  5
1A7E
330
2
100
AcDbEntity
  8
0
100
AcDbCircle
 10
142.7597046708709
 20
290.3906989558532
 30
0.0
 40
4.0
100
AcDbArc
 50
90.0
 51
180.0
  0
LINE
  5
1A7F
330
2
100
AcDbEntity
  8
0
100
AcDbLine
 10
98.25959767087102
 20
336.8907909558533
 30
0.0
 11
144.259506670871
 21
336.8907909558533
 31
0.0
  0
LINE
  5
1A80
330
2
100
AcDbEntity
  8
0
100
AcDbLine
 10
138.759506670871
 20
334.8907909558533
 30
0.0
 11
103.759597670871
 21
334.8907909558532
 31
0.0
  0
ARC
  5
1A81
330
2
100
AcDbEntity
  8
0
100
AcDbCircle
 10
99.75959767087102
 20
333.3907909558532
 30
0.0
 40
2.049999999999998
100
AcDbArc
 50
81.93803991601813
 51
90.0
  0
ARC
  5
1A82
330
2
100
AcDbEntity
  8
0
100
AcDbCircle
 10
101.7892976708709
 20
331.3610909558533
 30
0.0
 40
1.742199999999999
100
AcDbArc
 50
89.99869033450025
 51
180.0013096654997
  0
ARC
  5
1A83
330
2
100
AcDbEntity
  8
0
100
AcDbCircle
 10
99.75959767087102
 20
333.3907909558532
 30
0.0
 40
2.049999999999998
100
AcDbArc
 50
270.0
 51
278.0619600839818
  0
CIRCLE
  5
1A84
330
2
100
AcDbEntity
  8
0
100
AcDbCircle
 10
99.75959767087102
 20
333.3907909558532
 30
0.0
 40
3.500000000000028
  0
ARC
  5
1A85
330
2
100
AcDbEntity
  8
0
100
AcDbCircle
 10
101.7892976708709
 20
335.4204909558532
 30
0.0
 40
1.742199999999999
100
AcDbArc
 50
179.9986903345002
 51
270.0013096654997
  0
ARC
  5
1A86
330
2
100
AcDbEntity
  8
0
100
AcDbCircle
 10
99.75959767087102
 20
333.3907909558532
 30
0.0
 40
4.0
100
AcDbArc
 50
270.0
 51
0.0
  0
ARC
  5
1A87
330
2
100
AcDbEntity
  8
0
100
AcDbCircle
 10
97.72989767087086
 20
331.3610909558533
 30
0.0
 40
1.742199999999999
100
AcDbArc
 50
359.9986903345002
 51
90.00130966549322
  0
ARC
  5
1A88
330
2
100
AcDbEntity
  8
0
100
AcDbCircle
 10
99.75959767087102
 20
333.3907909558532
 30
0.0
 40
2.049999999999998
100
AcDbArc
 50
261.9380399160181
 51
270.0
  0
LINE
  5
1A89
330
2
100
AcDbEntity
  8
0
100
AcDbLine
 10
99.75959767087102
 20
329.3907909558532
 30
0.0
 11
96.25959767087103
 21
329.3907909558532
 31
0.0
  0
ARC
  5
1A8A
330
2
100
AcDbEntity
  8
0
100
AcDbCircle
 10
99.75959767087102
 20
333.3907909558532
 30
0.0
 40
2.049999999999998
100
AcDbArc
 50
90.0
 51
98.06196008398188
  0
LINE
  5
1A8B
330
2
100
AcDbEntity
  8
0
100
AcDbLine
 10
96.25959767087103
 20
334.8907909558533
 30
0.0
 11
98.25959767087102
 21
336.8907909558533
 31
0.0
  0
LINE
  5
1A8C
330
2
100
AcDbEntity
  8
0
100
AcDbLine
 10
96.25959767087103
 20
334.8907909558533
 30
0.0
 11
98.25959767087102
 21
336.8907909558533
 31
0.0
  0
ARC
  5
1A8D
330
2
100
AcDbEntity
  8
0
100
AcDbCircle
 10
99.75959767087102
 20
333.3907909558532
 30
0.0
 40
2.049999999999998
100
AcDbArc
 50
180.0
 51
188.0619600839821
  0
ARC
  5
1A8E
330
2
100
AcDbEntity
  8
0
100
AcDbCircle
 10
99.75959767087102
 20
333.3907909558532
 30
0.0
 40
2.049999999999998
100
AcDbArc
 50
171.9380399160178
 51
180.0
  0
ARC
  5
1A8F
330
2
100
AcDbEntity
  8
0
100
AcDbCircle
 10
97.72989767087086
 20
335.4204909558532
 30
0.0
 40
1.742199999999999
100
AcDbArc
 50
269.9986903345067
 51
0.0013096654997424
  0
LINE
  5
1A90
330
2
100
AcDbEntity
  8
0
100
AcDbLine
 10
103.759597670871
 20
333.3907909558532
 30
0.0
 11
103.759597670871
 21
336.8906069558532
 31
0.0
  0
ARC
  5
1A91
330
2
100
AcDbEntity
  8
0
100
AcDbCircle
 10
99.75959767087102
 20
333.3907909558532
 30
0.0
 40
2.049999999999998
100
AcDbArc
 50
351.9380399160179
 51
0.0
  0
ARC
  5
1A92
330
2
100
AcDbEntity
  8
0
100
AcDbCircle
 10
99.75959767087102
 20
333.3907909558532
 30
0.0
 40
2.049999999999998
100
AcDbArc
 50
0.0
 51
8.061960083982105
  0
ARC
  5
1A93
330
2
100
AcDbEntity
  8
0
100
AcDbCircle
 10
144.7894046708709
 20
331.3610909558533
 30
0.0
 40
1.742199999999999
100
AcDbArc
 50
89.99869033450025
 51
180.0013096654997
  0
CIRCLE
  5
1A94
330
2
100
AcDbEntity
  8
0
100
AcDbCircle
 10
142.7597046708709
 20
333.3907909558532
 30
0.0
 40
3.500000000000028
  0
ARC
  5
1A95
330
2
100
AcDbEntity
  8
0
100
AcDbCircle
 10
142.7597046708709
 20
333.3907909558532
 30
0.0
 40
4.0
100
AcDbArc
 50
180.0
 51
270.0
  0
ARC
  5
1A96
330
2
100
AcDbEntity
  8
0
100
AcDbCircle
 10
140.7300046708708
 20
331.3610909558533
 30
0.0
 40
1.742199999999999
100
AcDbArc
 50
359.9986903345002
 51
90.00130966549322
  0
LINE
  5
1A97
330
2
100
AcDbEntity
  8
0
100
AcDbLine
 10
142.759506670871
 20
329.3907909558532
 30
0.0
 11
146.259506670871
 21
329.3907909558532
 31
0.0
  0
ARC
  5
1A98
330
2
100
AcDbEntity
  8
0
100
AcDbCircle
 10
142.7597046708709
 20
333.3907909558532
 30
0.0
 40
2.049999999999998
100
AcDbArc
 50
261.9380399160181
 51
270.0
  0
ARC
  5
1A99
330
2
100
AcDbEntity
  8
0
100
AcDbCircle
 10
142.7597046708709
 20
333.3907909558532
 30
0.0
 40
2.049999999999998
100
AcDbArc
 50
270.0
 51
278.0619600839818
  0
LINE
  5
1A9A
330
2
100
AcDbEntity
  8
0
100
AcDbLine
 10
146.2597046708709
 20
334.8907909558533
 30
0.0
 11
144.259506670871
 21
336.8907909558533
 31
0.0
  0
LINE
  5
1A9B
330
2
100
AcDbEntity
  8
0
100
AcDbLine
 10
146.259506670871
 20
334.8907909558533
 30
0.0
 11
144.259506670871
 21
336.8907909558533
 31
0.0
  0
LINE
  5
1A9C
330
2
100
AcDbEntity
  8
0
100
AcDbLine
 10
146.259506670871
 20
334.8907909558533
 30
0.0
 11
144.259506670871
 21
336.8907909558533
 31
0.0
  0
ARC
  5
1A9D
330
2
100
AcDbEntity
  8
0
100
AcDbCircle
 10
142.7597046708709
 20
333.3907909558532
 30
0.0
 40
2.049999999999998
100
AcDbArc
 50
90.0
 51
98.06196008398188
  0
ARC
  5
1A9E
330
2
100
AcDbEntity
  8
0
100
AcDbCircle
 10
142.7597046708709
 20
333.3907909558532
 30
0.0
 40
2.049999999999998
100
AcDbArc
 50
81.93803991601813
 51
90.0
  0
ARC
  5
1A9F
330
2
100
AcDbEntity
  8
0
100
AcDbCircle
 10
142.7597046708709
 20
333.3907909558532
 30
0.0
 40
2.049999999999998
100
AcDbArc
 50
351.9380399160179
 51
0.0
  0
ARC
  5
1AA0
330
2
100
AcDbEntity
  8
0
100
AcDbCircle
 10
142.7597046708709
 20
333.3907909558532
 30
0.0
 40
2.049999999999998
100
AcDbArc
 50
0.0
 51
8.061960083982105
  0
ARC
  5
1AA1
330
2
100
AcDbEntity
  8
0
100
AcDbCircle
 10
144.7894046708709
 20
335.4204909558532
 30
0.0
 40
1.742199999999999
100
AcDbArc
 50
179.9986903345002
 51
270.0013096654997
  0
ARC
  5
1AA2
330
2
100
AcDbEntity
  8
0
100
AcDbCircle
 10
142.7597046708709
 20
333.3907909558532
 30
0.0
 40
2.049999999999998
100
AcDbArc
 50
180.0
 51
188.0619600839821
  0
ARC
  5
1AA3
330
2
100
AcDbEntity
  8
0
100
AcDbCircle
 10
142.7597046708709
 20
333.3907909558532
 30
0.0
 40
2.049999999999998
100
AcDbArc
 50
171.9380399160178
 51
180.0
  0
LINE
  5
1AA4
330
2
100
AcDbEntity
  8
0
100
AcDbLine
 10
138.759506670871
 20
333.3907909558532
 30
0.0
 11
138.759506670871
 21
336.8906069558532
 31
0.0
  0
ARC
  5
1AA5
330
2
100
AcDbEntity
  8
0
100
AcDbCircle
 10
140.7300046708708
 20
335.4204909558532
 30
0.0
 40
1.742199999999999
100
AcDbArc
 50
269.9986903345067
 51
0.0013096654997424
  0
LINE
  5
1AAF
330
2
100
AcDbEntity
  8
0
100
AcDbLine
 10
434.7482318585067
 20
177.2743683845185
 30
0.0
 11
434.7482318585068
 21
148.2378949898069
 31
0.0
  0
SPLINE
  5
1AB2
330
2
100
AcDbEntity
  8
0
100
AcDbSpline
210
0.0
220
0.0
230
1.0
 70
     8
 71
     3
 72
    11
 73
     7
 74
     0
 42
0.0000000001
 43
0.0000000001
 40
0.0
 40
0.0
 40
0.0
 40
0.0
 40
0.4601364636755307
 40
1.04988694485363
 40
1.713742833862792
 40
2.320347933405154
 40
2.320347933405154
 40
2.320347933405154
 40
2.320347933405179
 10
431.5357468589619
 20
176.8573683845185
 30
0.0
 10
431.5581645160698
 20
177.0123918241985
 30
0.0
 10
431.609314571303
 20
177.366106642116
 30
0.0
 10
432.0451997328365
 20
177.7908343137176
 30
0.0
 10
432.6502504478439
 20
178.0100214936835
 30
0.0
 10
433.0754350720198
 20
177.9410301940728
 30
0.0
 10
433.2779866816709
 20
177.9268099218962
 30
0.0
  0
ARC
  5
1AB3
330
2
100
AcDbEntity
  8
0
100
AcDbCircle
 10
431.2482468585068
 20
169.3743683845186
 30
0.0
 40
9.0
100
AcDbArc
 50
74.1191499917157
 51
105.8808500082775
  0
LINE
  5
1AB4
330
2
100
AcDbEntity
  8
0
100
AcDbLine
 10
432.5861556745334
 20
178.2743683845185
 30
0.0
 11
433.7482468585068
 21
178.2743683845185
 31
0.0
  0
LINE
  5
1AB5
330
2
100
AcDbEntity
  8
0
100
AcDbLine
 10
427.2482468585067
 20
175.7743683845185
 30
0.0
 11
434.7482468585067
 21
175.7743683845186
 31
0.0
  0
SPLINE
  5
1AB6
330
2
100
AcDbEntity
  8
0
100
AcDbSpline
210
0.0
220
0.0
230
1.0
 70
     8
 71
     3
 72
    11
 73
     7
 74
     0
 42
0.0000000001
 43
0.0000000001
 40
0.0
 40
0.0
 40
0.0
 40
0.0
 40
0.4601364636755307
 40
1.04988694485363
 40
1.713742833862792
 40
2.320347933405154
 40
2.320347933405154
 40
2.320347933405154
 40
2.320347933405179
 10
430.9607468580518
 20
176.8573683845185
 30
0.0
 10
430.938329200944
 20
177.0123918241985
 30
0.0
 10
430.8871791457106
 20
177.366106642116
 30
0.0
 10
430.451293984177
 20
177.7908343137176
 30
0.0
 10
429.8462432691696
 20
178.0100214936835
 30
0.0
 10
429.4210586449938
 20
177.9410301940728
 30
0.0
 10
429.2185070353427
 20
177.9268099218962
 30
0.0
  0
LINE
  5
1AB7
330
2
100
AcDbEntity
  8
0
100
AcDbLine
 10
429.2185070353427
 20
177.9268099218962
 30
0.0
 11
429.1982468585068
 21
178.1377866673578
 31
0.0
  0
LINE
  5
1AB8
330
2
100
AcDbEntity
  8
0
100
AcDbLine
 10
431.5357468589619
 20
176.8573683845185
 30
0.0
 11
430.9607468580518
 21
176.8573683845185
 31
0.0
  0
LINE
  5
1AB9
330
2
100
AcDbEntity
  8
0
100
AcDbLine
 10
427.2482468585067
 20
177.7743683845185
 30
0.0
 11
428.3032694688864
 21
177.7743683845185
 31
0.0
  0
LINE
  5
1ABA
330
2
100
AcDbEntity
  8
0
100
AcDbLine
 10
427.7482468585069
 20
175.7743683845186
 30
0.0
 11
427.8461829973947
 21
176.8937835743368
 31
0.0
  0
LINE
  5
1ABB
330
2
100
AcDbEntity
  8
0
100
AcDbLine
 10
427.2482468585067
 20
175.7743683845185
 30
0.0
 11
427.2482468585067
 21
177.7743683845186
 31
0.0
  0
LINE
  5
1ABC
330
2
100
AcDbEntity
  8
0
100
AcDbLine
 10
426.7482468585067
 20
178.2743683845185
 30
0.0
 11
427.2482468585067
 21
177.7743683845185
 31
0.0
  0
ARC
  5
1ABD
330
2
100
AcDbEntity
  8
0
100
AcDbCircle
 10
429.1412361049138
 20
176.7804811087649
 30
0.0
 40
1.3
100
AcDbArc
 50
105.8808500082775
 51
175.0000000000002
  0
LINE
  5
1ABE
330
2
100
AcDbEntity
  8
0
100
AcDbLine
 10
434.7482468585067
 20
175.7743683845186
 30
0.0
 11
434.6503107196189
 21
176.8937835743368
 31
0.0
  0
ARC
  5
1ABF
330
2
100
AcDbEntity
  8
0
100
AcDbCircle
 10
433.3552576120997
 20
176.7804811087649
 30
0.0
 40
1.3
100
AcDbArc
 50
4.999999999999743
 51
74.1191499917157
  0
LINE
  5
1AC0
330
2
100
AcDbEntity
  8
0
100
AcDbLine
 10
433.7482468585068
 20
178.2743683845185
 30
0.0
 11
434.7482468585067
 21
177.2743683845185
 31
0.0
  0
LINE
  5
1AC1
330
2
100
AcDbEntity
  8
0
100
AcDbLine
 10
433.2779866816709
 20
177.9268099218962
 30
0.0
 11
433.2982468585068
 21
178.1377866673578
 31
0.0
  0
ARC
  5
1C09
330
2
100
AcDbEntity
  8
0
100
AcDbCircle
 10
442.7482468585067
 20
138.0743563845185
 30
0.0
 40
2.0
100
AcDbArc
 50
180.0
 51
270.0
  0
ARC
  5
1C0A
330
2
100
AcDbEntity
  8
0
100
AcDbCircle
 10
442.7482468585067
 20
94.07435638451852
 30
0.0
 40
2.0
100
AcDbArc
 50
90.00000000000003
 51
180.0
  0
ARC
  5
1C0B
330
2
100
AcDbEntity
  8
0
100
AcDbCircle
 10
376.7482468585067
 20
94.07435638451852
 30
0.0
 40
2.0
100
AcDbArc
 50
0.000000000000007
 51
89.99999999999998
  0
ARC
  5
1C0C
330
2
100
AcDbEntity
  8
0
100
AcDbCircle
 10
376.7482468585067
 20
138.0743563845185
 30
0.0
 40
2.0
100
AcDbArc
 50
270.0
 51
0.000000000000007
  0
LINE
  5
1C0D
330
2
100
AcDbEntity
  8
0
100
AcDbLine
 10
239.2597086708709
 20
346.8907909558532
 30
0.0
 11
201.2597046708709
 21
346.8907909558532
 31
0.0
  0
ARC
  5
1C0E
330
2
100
AcDbEntity
  8
0
100
AcDbCircle
 10
239.259712670871
 20
345.8907909558532
 30
0.0
 40
1.0
100
AcDbArc
 50
0.0
 51
90.0
  0
LINE
  5
1C0F
330
2
100
AcDbEntity
  8
0
100
AcDbLine
 10
240.2597086708709
 20
345.8907909558532
 30
0.0
 11
240.2597086708709
 21
344.8867909578582
 31
0.0
  0
ARC
  5
1C10
330
2
100
AcDbEntity
  8
0
100
AcDbCircle
 10
242.2597046708709
 20
344.8907909558532
 30
0.0
 40
2.0
100
AcDbArc
 50
180.0
 51
270.0
  0
ARC
  5
1C11
330
2
100
AcDbEntity
  8
0
100
AcDbCircle
 10
201.259704670871
 20
345.8907909558532
 30
0.0
 40
1.0
100
AcDbArc
 50
90.0
 51
180.0
  0
LINE
  5
1C12
330
2
100
AcDbEntity
  8
0
100
AcDbLine
 10
200.2597046708709
 20
345.8907909558532
 30
0.0
 11
200.2597046708709
 21
344.8907909558532
 31
0.0
  0
ARC
  5
1C13
330
2
100
AcDbEntity
  8
0
100
AcDbCircle
 10
198.259704670871
 20
344.8907909558532
 30
0.0
 40
2.0
100
AcDbArc
 50
270.0
 51
0.0
  0
ARC
  5
1C14
330
2
100
AcDbEntity
  8
0
100
AcDbCircle
 10
198.259704670871
 20
278.8907909558531
 30
0.0
 40
2.0
100
AcDbArc
 50
0.0
 51
90.00000000000003
  0
ARC
  5
1C15
330
2
100
AcDbEntity
  8
0
100
AcDbCircle
 10
242.2597046708709
 20
278.8907909558531
 30
0.0
 40
2.0
100
AcDbArc
 50
90.00000000000003
 51
179.9999999999999
  0
ENDSEC
  0
SECTION
  2
OBJECTS
  0
DICTIONARY
  5
7
330
0
100
AcDbDictionary
  3
ACAD_GROUP
350
75
  3
ACAD_LAYOUT
350
61
  3
ACAD_MLINESTYLE
350
76
  3
ACAD_PLOTSETTINGS
350
77
  3
ACAD_PLOTSTYLENAME
350
6
  3
ACADDIM
350
480
  3
ACDBHEADERROUNDTRIPXREC
350
1C50
  3
ACDBVARIABLEDICTIONARY
350
102
  3
DWGPROPS
350
3D2
  0
DICTIONARY
  5
1C71
330
2
100
AcDbDictionary
280
     1
  3
ACAD_LAYOUTSELFREF
360
1C72
  0
DICTIONARY
  5
1C73
330
1C4A
100
AcDbDictionary
280
     1
  3
ACAD_LAYOUTSELFREF
360
1C74
  0
DICTIONARY
  5
75
102
{ACAD_REACTORS
330
7
102
}
330
7
100
AcDbDictionary
  0
DICTIONARY
  5
61
102
{ACAD_REACTORS
330
7
102
}
330
7
100
AcDbDictionary
  0
DICTIONARY
  5
76
102
{ACAD_REACTORS
330
7
102
}
330
7
100
AcDbDictionary
  3
STANDARD
350
78
  0
DICTIONARY
  5
77
102
{ACAD_REACTORS
330
7
102
}
330
7
100
AcDbDictionary
  0
ACDBDICTIONARYWDFLT
  5
6
102
{ACAD_REACTORS
330
7
102
}
330
7
100
AcDbDictionary
281
     1
  3
Normal
350
5
100
AcDbDictionaryWithDefault
340
5
  0
XRECORD
  5
480
102
{ACAD_REACTORS
330
7
102
}
330
7
100
AcDbXrecord
 90
   990106
  3

 60
     0
 61
     0
 62
     1
 63
     3
 64
     1
 65
     0
 66
     0
 67
     3
 68
     1
 69
     0
 70
     0
 71
     0
 72
     0
 40
0.0
170
     2
340
0
  0
DICTIONARY
  5
1C50
102
{ACAD_REACTORS
330
7
102
}
330
7
100
AcDbDictionary
  3
CEPSNTYPE
350
1C5A
  3
DIMSTYLEDATA
350
1C5E
  3
FINGERPRINTGUID
350
1C5B
  3
HYPERLINKBASE
350
1C53
  3
INSUNITS
350
1C59
  3
LAYOUTDICT
350
1C55
  3
LWETCUNION
350
1C58
  3
PLOTSETDICT
350
1C56
  3
PLOTSTYLNAMDICT
350
1C57
  3
PSVPSCALE
350
1C5D
  3
PUCSBASE
350
1C61
  3
PUCSORGBACK
350
1C67
  3
PUCSORGBOTTOM
350
1C63
  3
PUCSORGFRONT
350
1C66
  3
PUCSORGLEFT
350
1C64
  3
PUCSORGRIGHT
350
1C65
  3
PUCSORGTOP
350
1C62
  3
PUCSORTHOREF
350
1C5F
  3
PUCSORTHOVIEW
350
1C60
  3
STYLESHEET
350
1C54
  3
TSTACKALIGN
350
1C51
  3
TSTACKSIZE
350
1C52
  3
UCSBASE
350
1C6A
  3
UCSORGBACK
350
1C70
  3
UCSORGBOTTOM
350
1C6C
  3
UCSORGFRONT
350
1C6F
  3
UCSORGLEFT
350
1C6D
  3
UCSORGRIGHT
350
1C6E
  3
UCSORGTOP
350
1C6B
  3
UCSORTHOREF
350
1C68
  3
UCSORTHOVIEW
350
1C69
  3
VERSIONGUID
350
1C5C
  0
DICTIONARY
  5
102
102
{ACAD_REACTORS
330
7
102
}
330
7
100
AcDbDictionary
  3
DIMASSOC
350
103
  0
XRECORD
  5
3D2
102
{ACAD_REACTORS
330
7
102
}
330
7
100
AcDbXrecord
  1
DWGPROPS COOKIE
  2

  3

  4

  6

  7

  8

  9

300
=
301
=
302
=
303
=
304
=
305
=
306
=
307
=
308
=
309
=
 40
0.5353330671296296
 41
2452052.431989363
 42
2453406.550756377
  1

 90
        0
  0
XRECORD
  5
1C72
102
{ACAD_REACTORS
330
1C71
102
}
330
1C71
100
AcDbXrecord
340
2
  0
XRECORD
  5
1C74
102
{ACAD_REACTORS
330
1C73
102
}
330
1C73
100
AcDbXrecord
340
1C4A
  0
MLINESTYLE
  5
78
102
{ACAD_REACTORS
330
76
102
}
330
76
100
AcDbMlineStyle
  2
STANDARD
 70
     0
  3

 62
     0
 51
90.0
 52
90.0
 71
     2
 49
0.5
 62
   256
  6
BYLAYER
 49
-0.5
 62
   256
  6
BYLAYER
  0
ACDBPLACEHOLDER
  5
5
102
{ACAD_REACTORS
330
6
102
}
330
6
100
AcDbPlaceHolder
280
     0
  0
XRECORD
  5
1C5A
102
{ACAD_REACTORS
330
1C50
102
}
330
1C50
100
AcDbXrecord
 90
        0
  0
XRECORD
  5
1C5E
102
{ACAD_REACTORS
330
1C50
102
}
330
1C50
100
AcDbXrecord
1000
DSTYLE
1002
{
1070
   179
 70
     2
1070
   277
 70
     6
1002
}
  0
XRECORD
  5
1C5B
102
{ACAD_REACTORS
330
1C50
102
}
330
1C50
100
AcDbXrecord
  1
{6385560B-F4B1-4644-A7C2-A3E32AC3D232}
  0
XRECORD
  5
1C53
102
{ACAD_REACTORS
330
1C50
102
}
330
1C50
100
AcDbXrecord
  1

  0
XRECORD
  5
1C59
102
{ACAD_REACTORS
330
1C50
102
}
330
1C50
100
AcDbXrecord
 90
        0
  0
XRECORD
  5
1C55
102
{ACAD_REACTORS
330
1C50
102
}
330
1C50
100
AcDbXrecord
340
61
  0
XRECORD
  5
1C58
102
{ACAD_REACTORS
330
1C50
102
}
330
1C50
100
AcDbXrecord
 90
    10781
  0
XRECORD
  5
1C56
102
{ACAD_REACTORS
330
1C50
102
}
330
1C50
100
AcDbXrecord
340
77
  0
XRECORD
  5
1C57
102
{ACAD_REACTORS
330
1C50
102
}
330
1C50
100
AcDbXrecord
340
6
  0
XRECORD
  5
1C5D
102
{ACAD_REACTORS
330
1C50
102
}
330
1C50
100
AcDbXrecord
 40
0.0
  0
XRECORD
  5
1C61
102
{ACAD_REACTORS
330
1C50
102
}
330
1C50
100
AcDbXrecord
340
0
  0
XRECORD
  5
1C67
102
{ACAD_REACTORS
330
1C50
102
}
330
1C50
100
AcDbXrecord
 10
0.0
 20
0.0
 30
0.0
  0
XRECORD
  5
1C63
102
{ACAD_REACTORS
330
1C50
102
}
330
1C50
100
AcDbXrecord
 10
0.0
 20
0.0
 30
0.0
  0
XRECORD
  5
1C66
102
{ACAD_REACTORS
330
1C50
102
}
330
1C50
100
AcDbXrecord
 10
0.0
 20
0.0
 30
0.0
  0
XRECORD
  5
1C64
102
{ACAD_REACTORS
330
1C50
102
}
330
1C50
100
AcDbXrecord
 10
0.0
 20
0.0
 30
0.0
  0
XRECORD
  5
1C65
102
{ACAD_REACTORS
330
1C50
102
}
330
1C50
100
AcDbXrecord
 10
0.0
 20
0.0
 30
0.0
  0
XRECORD
  5
1C62
102
{ACAD_REACTORS
330
1C50
102
}
330
1C50
100
AcDbXrecord
 10
0.0
 20
0.0
 30
0.0
  0
XRECORD
  5
1C5F
102
{ACAD_REACTORS
330
1C50
102
}
330
1C50
100
AcDbXrecord
340
0
  0
XRECORD
  5
1C60
102
{ACAD_REACTORS
330
1C50
102
}
330
1C50
100
AcDbXrecord
 70
     0
  0
XRECORD
  5
1C54
102
{ACAD_REACTORS
330
1C50
102
}
330
1C50
100
AcDbXrecord
  1
Sekkei.ctb
  0
XRECORD
  5
1C51
102
{ACAD_REACTORS
330
1C50
102
}
330
1C50
100
AcDbXrecord
 90
        1
  0
XRECORD
  5
1C52
102
{ACAD_REACTORS
330
1C50
102
}
330
1C50
100
AcDbXrecord
 90
       70
  0
XRECORD
  5
1C6A
102
{ACAD_REACTORS
330
1C50
102
}
330
1C50
100
AcDbXrecord
340
0
  0
XRECORD
  5
1C70
102
{ACAD_REACTORS
330
1C50
102
}
330
1C50
100
AcDbXrecord
 10
0.0
 20
0.0
 30
0.0
  0
XRECORD
  5
1C6C
102
{ACAD_REACTORS
330
1C50
102
}
330
1C50
100
AcDbXrecord
 10
0.0
 20
0.0
 30
0.0
  0
XRECORD
  5
1C6F
102
{ACAD_REACTORS
330
1C50
102
}
330
1C50
100
AcDbXrecord
 10
0.0
 20
0.0
 30
0.0
  0
XRECORD
  5
1C6D
102
{ACAD_REACTORS
330
1C50
102
}
330
1C50
100
AcDbXrecord
 10
0.0
 20
0.0
 30
0.0
  0
XRECORD
  5
1C6E
102
{ACAD_REACTORS
330
1C50
102
}
330
1C50
100
AcDbXrecord
 10
0.0
 20
0.0
 30
0.0
  0
XRECORD
  5
1C6B
102
{ACAD_REACTORS
330
1C50
102
}
330
1C50
100
AcDbXrecord
 10
0.0
 20
0.0
 30
0.0
  0
XRECORD
  5
1C68
102
{ACAD_REACTORS
330
1C50
102
}
330
1C50
100
AcDbXrecord
340
0
  0
XRECORD
  5
1C69
102
{ACAD_REACTORS
330
1C50
102
}
330
1C50
100
AcDbXrecord
 70
     0
  0
XRECORD
  5
1C5C
102
{ACAD_REACTORS
330
1C50
102
}
330
1C50
100
AcDbXrecord
  1
{0A143CAF-9AC0-4FB2-A757-C6D71532EE94}
  0
DICTIONARYVAR
  5
103
102
{ACAD_REACTORS
330
102
102
}
330
102
100
DictionaryVariables
280
     0
  1
1
  0
ENDSEC
  0
EOF
