  0
SECTION
  2
HEADER
  9
$CLAYER
  8
1
  9
$LTSCALE
 40
3.0
  0
ENDSEC
  0
SECTION
  2
TABLES
  0
TABLE
  2
LTYPE
 70
     4
  0
LTYPE
  2
CONTINUOUS
  3
solid line
 70
    64
 72
    65
 73
     0
 40
0.0
  0
LTYPE
  2
DASHED
  3
__ __ __ __ __ __ __ __ __ __ __ __ __ __ __
 70
    64
 72
    65
 73
     2
 40
0.75
 49
0.5
 49
-0.25
  0
LTYPE
  2
CENTER
  3
____ _ ____ _ ____ _ ____ _ ____ _ ____ _ ____
 70
    64
 72
    65
 73
     4
 40
2.0
 49
1.25
 49
-0.25
 49
0.25
 49
-0.25
  0
LTYPE
  2
PHANTOM
  3
_____ _ _ _____ _ _ _____ _ _ _____ _ _ ____
 70
    64
 72
    65
 73
     6
 40
2.5
 49
1.25
 49
-0.25
 49
0.25
 49
-0.25
 49
0.25
 49
-0.25
  0
ENDTAB
  0
TABLE
  2
LAYER
 70
     1
  0
LAYER
  2
0
 70
    64
 62
     7
  6
CONTINUOUS
  0
ENDTAB
  0
TABLE
  2
STYLE
 70
     1
  0
STYLE
  2
STANDARD
 70
     0
 40
0.000000
 41
1.000000
 50
0.000000
 71
     0
 42
3.000000
  3
txt
  4
BIGFONT
  0
ENDTAB
  0
ENDSEC
  0
SECTION
  2
BLOCKS
  0
ENDSEC
  0
SECTION
  2
ENTITIES
  0
LINE
  8
0
  6
CONTINUOUS
 10
54.282501
 20
86.029999
 11
63.782501
 21
86.029999
  0
LINE
  8
0
  6
CONTINUOUS
 10
54.282501
 20
10.030000
 11
63.782501
 21
10.030000
  0
LINE
  8
0
  6
CONTINUOUS
 10
54.282501
 20
8.030000
 11
54.282501
 21
88.029999
  0
LINE
  8
0
  6
CONTINUOUS
 10
54.282501
 20
78.278999
 11
63.782501
 21
78.278999
  0
LINE
  8
0
  6
CONTINUOUS
 10
54.282501
 20
17.781000
 11
63.782501
 21
17.781000
  0
LINE
  8
0
  6
CONTINUOUS
 10
10.282500
 20
88.029999
 11
54.282501
 21
88.029999
  0
LINE
  8
0
  6
CONTINUOUS
 10
10.282500
 20
8.030000
 11
54.282501
 21
8.030000
  0
LINE
  8
0
  6
CONTINUOUS
 10
5.282500
 20
13.030000
 11
5.282500
 21
83.029999
  0
ARC
  8
0
  6
CONTINUOUS
 10
10.282520
 20
83.030022
 40
5.000000
 50
90.000000
 51
180.000000
  0
ARC
  8
0
  6
CONTINUOUS
 10
10.282500
 20
13.030000
 40
5.000000
 50
180.000000
 51
270.000000
  0
LINE
  8
0
  6
CONTINUOUS
 10
7.782500
 20
74.029999
 11
54.282501
 21
74.029999
  0
LINE
  8
0
  6
CONTINUOUS
 10
7.782500
 20
24.030001
 11
54.282501
 21
24.030001
  0
LINE
  8
0
  6
CONTINUOUS
 10
63.782501
 20
10.030000
 11
63.782501
 21
86.029999
  0
LINE
  8
0
  6
CENTER
 10
-5.431250
 20
48.029999
 11
155.532501
 21
48.029999
  0
LINE
  8
0
  6
CONTINUOUS
 10
221.282501
 20
81.030579
 11
221.282501
 21
5.330000
  0
LINE
  8
0
  6
CONTINUOUS
 10
136.282501
 20
81.030602
 11
136.282501
 21
5.330000
  0
LINE
  8
0
  6
CONTINUOUS
 10
63.782501
 20
86.029999
 11
139.702194
 21
86.029999
  0
LINE
  8
0
  6
CONTINUOUS
 10
63.782501
 20
10.030000
 11
136.282501
 21
10.030000
  0
LINE
  8
0
  6
CENTER
 10
178.782501
 20
112.217499
 11
178.782501
 21
-1.470000
  0
LINE
  8
0
  6
CENTER
 10
148.282501
 20
70.330002
 11
208.131256
 21
70.330002
  0
LINE
  8
0
  6
CONTINUOUS
 10
136.282501
 20
5.330000
 11
221.282501
 21
5.330000
  0
LINE
  8
0
  6
CONTINUOUS
 10
165.362000
 20
102.930000
 11
192.203003
 21
102.930000
  0
LINE
  8
0
  6
CONTINUOUS
 10
219.154800
 20
85.123260
 11
195.075302
 21
102.022659
  0
LINE
  8
0
  6
CONTINUOUS
 10
138.410202
 20
85.123260
 11
162.489594
 21
102.022652
  0
ARC
  8
0
  6
CONTINUOUS
 10
192.203094
 20
97.929993
 40
5.000000
 50
54.938431
 51
90.000000
  0
ARC
  8
0
  6
CONTINUOUS
 10
165.362000
 20
97.930008
 40
5.000000
 50
90.000000
 51
125.062202
  0
ARC
  8
0
  6
CONTINUOUS
 10
216.282501
 20
81.030579
 40
5.000000
 50
0.000000
 51
54.938370
  0
ARC
  8
0
  6
CONTINUOUS
 10
141.282501
 20
81.030617
 40
5.000000
 50
125.062302
 51
180.000000
  0
LINE
  8
0
  6
CONTINUOUS
 10
138.282501
 20
13.330000
 11
219.282501
 21
13.330000
  0
LINE
  8
0
  6
CENTER
 10
212.782501
 20
16.717501
 11
212.782501
 21
0.967500
  0
LINE
  8
0
  6
CENTER
 10
144.782501
 20
16.717501
 11
144.782501
 21
1.217500
  0
LINE
  8
0
  6
DASHED
 10
148.032501
 20
13.330000
 11
148.032501
 21
5.330000
  0
LINE
  8
0
  6
DASHED
 10
141.532501
 20
13.330000
 11
141.532501
 21
5.330000
  0
LINE
  8
0
  6
DASHED
 10
216.032501
 20
13.330000
 11
216.032501
 21
5.330000
  0
LINE
  8
0
  6
DASHED
 10
209.532501
 20
13.330000
 11
209.532501
 21
5.330000
  0
LINE
  8
0
  6
CONTINUOUS
 10
218.782501
 20
71.691399
 11
218.782501
 21
42.968861
  0
LINE
  8
0
  6
CONTINUOUS
 10
138.782501
 20
71.691269
 11
138.782501
 21
42.968460
  0
ARC
  8
0
  6
CONTINUOUS
 10
178.782501
 20
57.329998
 40
42.500000
 50
199.749893
 51
340.250092
  0
ARC
  8
0
  6
CONTINUOUS
 10
178.782501
 20
57.329998
 40
42.500000
 50
19.749901
 51
160.250107
  0
LINE
  8
0
  6
CONTINUOUS
 10
188.282501
 20
72.830002
 11
188.282501
 21
67.830002
  0
LINE
  8
0
  6
CONTINUOUS
 10
183.282501
 20
67.830002
 11
183.282501
 21
72.830002
  0
LINE
  8
0
  6
CONTINUOUS
 10
183.282501
 20
72.830002
 11
188.282501
 21
72.830002
  0
LINE
  8
0
  6
CONTINUOUS
 10
183.282501
 20
67.830002
 11
188.282501
 21
67.830002
  0
ARC
  8
0
  6
CONTINUOUS
 10
178.782501
 20
70.330002
 40
7.500000
 50
19.471210
 51
340.528809
  0
ARC
  8
0
  6
CONTINUOUS
 10
219.282501
 20
11.329990
 40
2.000000
 50
0.000000
 51
90.000000
  0
ARC
  8
0
  6
CONTINUOUS
 10
138.282501
 20
11.330010
 40
2.000000
 50
90.000000
 51
180.000000
  0
CIRCLE
  8
0
  6
CONTINUOUS
 10
179.032501
 20
70.279999
 40
20.000000
  0
LINE
  8
0
  6
CONTINUOUS
 10
63.782452
 20
78.029999
 11
136.282501
 21
78.029999
  0
LINE
  8
0
  6
CONTINUOUS
 10
63.782452
 20
18.030001
 11
136.282501
 21
18.030001
  0
LINE
  8
0
  6
CONTINUOUS
 10
172.407501
 20
39.883221
 11
172.407501
 21
34.330002
  0
LINE
  8
0
  6
CONTINUOUS
 10
175.595001
 20
41.900311
 11
175.595001
 21
43.892498
  0
LINE
  8
0
  6
CONTINUOUS
 10
181.970001
 20
41.900311
 11
181.970001
 21
43.892498
  0
LINE
  8
0
  6
CONTINUOUS
 10
178.159897
 20
42.722088
 11
178.159897
 21
35.375900
  0
LINE
  8
0
  6
CONTINUOUS
 10
179.355301
 20
42.722088
 11
179.355301
 21
35.375900
  0
LINE
  8
0
  6
CONTINUOUS
 10
185.630600
 20
42.722088
 11
185.630600
 21
35.326092
  0
LINE
  8
0
  6
CONTINUOUS
 10
186.726303
 20
38.799969
 11
186.726303
 21
35.326092
  0
LINE
  8
0
  6
CONTINUOUS
 10
170.895004
 20
42.622478
 11
167.823105
 21
42.622478
  0
LINE
  8
0
  6
CONTINUOUS
 10
167.823105
 20
42.622478
 11
167.103302
 21
41.729977
  0
LINE
  8
0
  6
CONTINUOUS
 10
167.189896
 20
43.892498
 11
166.032501
 21
42.410500
  0
LINE
  8
0
  6
CONTINUOUS
 10
167.103302
 20
36.220921
 11
167.834595
 21
35.450600
  0
LINE
  8
0
  6
CONTINUOUS
 10
166.032501
 20
35.570862
 11
167.262299
 21
34.330002
  0
LINE
  8
0
  6
CONTINUOUS
 10
166.032501
 20
42.410500
 11
166.032501
 21
35.570862
  0
LINE
  8
0
  6
CONTINUOUS
 10
167.103302
 20
41.729977
 11
167.103302
 21
36.220921
  0
LINE
  8
0
  6
CONTINUOUS
 10
171.486099
 20
42.051033
 11
170.882904
 21
42.622478
  0
LINE
  8
0
  6
CONTINUOUS
 10
171.476501
 20
43.892498
 11
172.407501
 21
42.859356
  0
LINE
  8
0
  6
CONTINUOUS
 10
171.486099
 20
41.900311
 11
172.407501
 21
41.900311
  0
LINE
  8
0
  6
CONTINUOUS
 10
167.189896
 20
43.892498
 11
171.476501
 21
43.892498
  0
LINE
  8
0
  6
CONTINUOUS
 10
171.486099
 20
38.837322
 11
169.817703
 21
38.837322
  0
LINE
  8
0
  6
CONTINUOUS
 10
171.486099
 20
37.841228
 11
171.486099
 21
38.638103
  0
LINE
  8
0
  6
CONTINUOUS
 10
169.493896
 20
35.450600
 11
167.834595
 21
35.450600
  0
ARC
  8
0
  6
CONTINUOUS
 10
169.493896
 20
37.442791
 40
1.992187
 50
-89.999786
 51
0.000109
  0
LINE
  8
0
  6
CONTINUOUS
 10
171.486099
 20
35.092258
 11
171.486099
 21
34.330002
  0
LINE
  8
0
  6
CONTINUOUS
 10
172.407501
 20
42.859356
 11
172.407501
 21
41.900311
  0
LINE
  8
0
  6
CONTINUOUS
 10
171.486099
 20
38.837322
 11
171.486099
 21
37.442791
  0
LINE
  8
0
  6
CONTINUOUS
 10
169.817703
 20
39.883221
 11
169.817703
 21
38.837322
  0
LINE
  8
0
  6
CONTINUOUS
 10
171.486099
 20
34.330002
 11
172.407501
 21
34.330002
  0
LINE
  8
0
  6
CONTINUOUS
 10
171.486099
 20
35.092258
 11
170.577606
 21
34.330002
  0
LINE
  8
0
  6
CONTINUOUS
 10
179.355301
 20
35.375900
 11
179.753693
 21
35.375900
  0
LINE
  8
0
  6
CONTINUOUS
 10
177.686798
 20
35.375900
 11
177.686798
 21
34.330002
  0
LINE
  8
0
  6
CONTINUOUS
 10
179.753693
 20
35.375900
 11
179.753693
 21
34.330002
  0
LINE
  8
0
  6
CONTINUOUS
 10
181.304993
 20
41.900311
 11
181.970001
 21
41.900311
  0
LINE
  8
0
  6
CONTINUOUS
 10
175.595001
 20
41.900311
 11
176.302597
 21
41.900311
  0
LINE
  8
0
  6
CONTINUOUS
 10
175.595001
 20
43.892498
 11
181.970001
 21
43.892498
  0
LINE
  8
0
  6
CONTINUOUS
 10
177.686798
 20
34.330002
 11
179.753693
 21
34.330002
  0
LINE
  8
0
  6
CONTINUOUS
 10
177.686798
 20
35.375900
 11
178.159897
 21
35.375900
  0
ARC
  8
0
  6
CONTINUOUS
 10
188.979996
 20
41.340008
 40
2.552490
 50
-73.981873
 51
90.003510
  0
ARC
  8
0
  6
CONTINUOUS
 10
188.979996
 20
41.340008
 40
1.557193
 50
-82.585274
 51
62.411850
  0
LINE
  8
0
  6
CONTINUOUS
 10
185.157501
 20
43.892498
 11
188.979996
 21
43.892498
  0
LINE
  8
0
  6
CONTINUOUS
 10
185.157501
 20
43.892498
 11
185.157501
 21
42.722088
  0
LINE
  8
0
  6
CONTINUOUS
 10
186.726303
 20
42.722088
 11
186.726303
 21
39.795834
  0
LINE
  8
0
  6
CONTINUOUS
 10
189.684296
 20
38.886620
 11
191.264206
 21
35.326092
  0
LINE
  8
0
  6
CONTINUOUS
 10
188.766800
 20
38.799969
 11
190.261795
 21
35.326092
  0
LINE
  8
0
  6
CONTINUOUS
 10
185.157501
 20
35.326092
 11
185.630600
 21
35.326092
  0
LINE
  8
0
  6
CONTINUOUS
 10
186.726303
 20
35.326092
 11
187.162094
 21
35.326092
  0
LINE
  8
0
  6
CONTINUOUS
 10
187.162094
 20
34.330002
 11
185.157501
 21
34.330002
  0
LINE
  8
0
  6
CONTINUOUS
 10
190.063293
 20
35.326092
 11
190.261795
 21
35.326092
  0
LINE
  8
0
  6
CONTINUOUS
 10
191.264206
 20
35.326092
 11
191.532501
 21
35.326092
  0
LINE
  8
0
  6
CONTINUOUS
 10
190.063293
 20
34.330002
 11
191.532501
 21
34.330002
  0
LINE
  8
0
  6
CONTINUOUS
 10
191.532501
 20
35.326092
 11
191.532501
 21
34.330002
  0
LINE
  8
0
  6
CONTINUOUS
 10
190.063293
 20
35.326092
 11
190.063293
 21
34.330002
  0
LINE
  8
0
  6
CONTINUOUS
 10
187.162094
 20
35.326092
 11
187.162094
 21
34.330002
  0
LINE
  8
0
  6
CONTINUOUS
 10
185.157501
 20
35.326092
 11
185.157501
 21
34.330002
  0
LINE
  8
0
  6
CONTINUOUS
 10
176.645004
 20
42.722088
 11
176.302597
 21
41.900311
  0
LINE
  8
0
  6
CONTINUOUS
 10
181.016296
 20
42.722088
 11
181.304993
 21
41.900311
  0
LINE
  8
0
  6
CONTINUOUS
 10
179.355301
 20
42.722088
 11
181.016296
 21
42.722088
  0
LINE
  8
0
  6
CONTINUOUS
 10
178.159897
 20
42.722088
 11
176.645004
 21
42.722088
  0
LINE
  8
0
  6
CONTINUOUS
 10
185.157501
 20
42.722088
 11
185.630600
 21
42.722088
  0
LINE
  8
0
  6
CONTINUOUS
 10
186.726303
 20
42.722088
 11
189.701202
 21
42.720150
  0
LINE
  8
0
  6
CONTINUOUS
 10
171.486099
 20
42.051033
 11
171.486099
 21
41.900311
  0
LINE
  8
0
  6
CONTINUOUS
 10
167.262299
 20
34.330002
 11
170.577606
 21
34.330002
  0
LINE
  8
0
  6
CONTINUOUS
 10
186.726303
 20
39.795834
 11
189.181000
 21
39.795834
  0
LINE
  8
0
  6
CONTINUOUS
 10
186.726303
 20
38.799969
 11
188.766800
 21
38.799969
  0
LINE
  8
0
  6
CONTINUOUS
 10
169.817703
 20
39.883221
 11
172.407501
 21
39.883221
  0
LINE
  8
0
  6
CENTER
 10
342.808685
 20
-1.032500
 11
342.808685
 21
147.922501
  0
LINE
  8
0
  6
CENTER
 10
269.714996
 20
70.330002
 11
413.157288
 21
70.330002
  0
LINE
  8
0
  6
CONTINUOUS
 10
295.808685
 20
5.330000
 11
389.808685
 21
5.330000
  0
LINE
  8
0
  6
CONTINUOUS
 10
376.808685
 20
13.330000
 11
387.808685
 21
13.330000
  0
LINE
  8
0
  6
CONTINUOUS
 10
389.808685
 20
11.330000
 11
389.808685
 21
5.330000
  0
LINE
  8
0
  6
CENTER
 10
382.808685
 20
16.217501
 11
382.808685
 21
-0.782500
  0
LINE
  8
0
  6
CONTINUOUS
 10
278.808685
 20
77.830002
 11
305.808685
 21
77.830002
  0
LINE
  8
0
  6
CONTINUOUS
 10
278.808685
 20
62.830002
 11
305.808685
 21
62.830002
  0
LINE
  8
0
  6
CONTINUOUS
 10
278.808685
 20
77.830002
 11
278.808685
 21
62.830002
  0
LINE
  8
0
  6
CONTINUOUS
 10
278.808685
 20
72.830002
 11
300.308685
 21
72.830002
  0
LINE
  8
0
  6
CONTINUOUS
 10
278.808685
 20
67.830002
 11
300.308685
 21
67.830002
  0
LINE
  8
0
  6
CONTINUOUS
 10
305.808685
 20
78.830002
 11
305.808685
 21
61.830002
  0
ARC
  8
0
  6
CONTINUOUS
 10
300.308685
 20
70.329987
 40
2.500000
 50
0.000000
 51
90.000000
  0
ARC
  8
0
  6
CONTINUOUS
 10
300.308685
 20
70.330002
 40
2.500000
 50
-90.000000
 51
0.000000
  0
LINE
  8
0
  6
CONTINUOUS
 10
311.808685
 20
16.330000
 11
311.808685
 21
100.423401
  0
LINE
  8
0
  6
CONTINUOUS
 10
373.808685
 20
16.330000
 11
373.808685
 21
100.423508
  0
LINE
  8
0
  6
CONTINUOUS
 10
371.843597
 20
102.423210
 11
342.808685
 21
102.930008
  0
LINE
  8
0
  6
CONTINUOUS
 10
313.773804
 20
102.423103
 11
342.808685
 21
102.930008
  0
ARC
  8
0
  6
CONTINUOUS
 10
371.808685
 20
100.423508
 40
2.000000
 50
0.000000
 51
89.000137
  0
ARC
  8
0
  6
CONTINUOUS
 10
313.808685
 20
100.423409
 40
2.000000
 50
91.000641
 51
180.000000
  0
LINE
  8
0
  6
CONTINUOUS
 10
376.808685
 20
90.330002
 11
373.808685
 21
90.330002
  0
LINE
  8
0
  6
CONTINUOUS
 10
376.808685
 20
50.329998
 11
373.808685
 21
50.329998
  0
LINE
  8
0
  6
CONTINUOUS
 10
377.808685
 20
51.329998
 11
377.808685
 21
89.330002
  0
ARC
  8
0
  6
CONTINUOUS
 10
376.808685
 20
89.330002
 40
1.000000
 50
0.000000
 51
90.000000
  0
ARC
  8
0
  6
CONTINUOUS
 10
376.808685
 20
51.329998
 40
1.000000
 50
-90.000000
 51
0.000000
  0
LINE
  8
0
  6
CONTINUOUS
 10
308.808685
 20
13.330000
 11
297.808685
 21
13.330000
  0
LINE
  8
0
  6
CONTINUOUS
 10
295.808685
 20
11.330000
 11
295.808685
 21
5.330000
  0
LINE
  8
0
  6
CENTER
 10
302.808685
 20
15.967500
 11
302.808685
 21
1.717500
  0
LINE
  8
0
  6
DASHED
 10
386.058685
 20
13.330000
 11
386.058685
 21
5.330000
  0
LINE
  8
0
  6
DASHED
 10
379.558685
 20
13.330000
 11
379.558685
 21
5.330000
  0
LINE
  8
0
  6
DASHED
 10
306.058685
 20
13.330000
 11
306.058685
 21
5.330000
  0
LINE
  8
0
  6
DASHED
 10
299.558685
 20
13.330000
 11
299.558685
 21
5.330000
  0
ARC
  8
0
  6
CONTINUOUS
 10
387.808685
 20
11.329990
 40
2.000000
 50
0.000000
 51
90.000000
  0
ARC
  8
0
  6
CONTINUOUS
 10
297.808685
 20
11.330010
 40
2.000000
 50
90.000000
 51
180.000000
  0
LINE
  8
0
  6
CONTINUOUS
 10
313.314789
 20
83.630013
 11
372.267700
 21
83.630013
  0
LINE
  8
0
  6
CONTINUOUS
 10
308.808685
 20
90.330002
 11
311.808685
 21
90.330002
  0
LINE
  8
0
  6
CONTINUOUS
 10
308.808685
 20
50.329998
 11
311.808685
 21
50.329998
  0
LINE
  8
0
  6
CONTINUOUS
 10
307.808685
 20
51.329998
 11
307.808685
 21
89.330002
  0
ARC
  8
0
  6
CONTINUOUS
 10
308.808685
 20
89.330002
 40
1.000000
 50
90.000000
 51
180.000000
  0
ARC
  8
0
  6
CONTINUOUS
 10
308.808685
 20
51.329998
 40
1.000000
 50
180.000000
 51
270.000000
  0
LINE
  8
0
  6
CONTINUOUS
 10
406.808685
 20
77.830002
 11
379.808685
 21
77.830002
  0
LINE
  8
0
  6
CONTINUOUS
 10
406.808685
 20
62.830002
 11
379.808685
 21
62.830002
  0
LINE
  8
0
  6
CONTINUOUS
 10
406.808685
 20
77.830002
 11
406.808685
 21
62.830002
  0
LINE
  8
0
  6
CONTINUOUS
 10
406.808685
 20
72.830002
 11
385.308685
 21
72.830002
  0
LINE
  8
0
  6
CONTINUOUS
 10
406.808685
 20
67.830002
 11
385.308685
 21
67.830002
  0
LINE
  8
0
  6
CONTINUOUS
 10
379.808685
 20
78.830002
 11
379.808685
 21
61.830002
  0
ARC
  8
0
  6
CONTINUOUS
 10
385.308685
 20
70.329987
 40
2.500000
 50
90.000000
 51
180.000000
  0
ARC
  8
0
  6
CONTINUOUS
 10
385.308685
 20
70.330002
 40
2.500000
 50
180.000000
 51
270.000000
  0
ARC
  8
0
  6
CONTINUOUS
 10
342.808685
 20
48.029999
 40
38.000000
 50
-35.334469
 51
21.294241
  0
ARC
  8
0
  6
CONTINUOUS
 10
342.808685
 20
48.029999
 40
38.000000
 50
158.705795
 51
215.334503
  0
LINE
  8
0
  6
CENTER
 10
293.808685
 20
48.029999
 11
392.058685
 21
48.029999
  0
LINE
  8
0
  6
CONTINUOUS
 10
305.808685
 20
78.830002
 11
307.808685
 21
78.830002
  0
LINE
  8
0
  6
CONTINUOUS
 10
305.808685
 20
61.830002
 11
307.808685
 21
61.830002
  0
LINE
  8
0
  6
CONTINUOUS
 10
377.808685
 20
78.830002
 11
379.808685
 21
78.830002
  0
LINE
  8
0
  6
CONTINUOUS
 10
377.808685
 20
61.830002
 11
379.808685
 21
61.830002
  0
ARC
  8
0
  6
CONTINUOUS
 10
308.808685
 20
16.329990
 40
3.000000
 50
-90.000000
 51
0.000000
  0
ARC
  8
0
  6
CONTINUOUS
 10
376.808685
 20
16.330000
 40
3.000000
 50
180.000000
 51
270.000000
  0
LINE
  8
0
  6
CONTINUOUS
 10
382.808685
 20
25.030001
 11
382.808685
 21
62.830002
  0
LINE
  8
0
  6
CONTINUOUS
 10
302.808685
 20
26.101070
 11
302.808685
 21
62.830002
  0
LINE
  8
0
  6
CONTINUOUS
 10
379.808685
 20
22.030001
 11
376.205688
 21
22.030001
  0
LINE
  8
0
  6
CONTINUOUS
 10
304.273193
 20
22.565531
 11
311.602295
 21
15.236420
  0
LINE
  8
0
  6
CONTINUOUS
 10
373.808685
 20
19.633030
 11
376.205688
 21
22.030001
  0
ARC
  8
0
  6
CONTINUOUS
 10
307.808685
 20
26.101101
 40
5.000000
 50
180.000000
 51
225.000397
  0
ARC
  8
0
  6
CONTINUOUS
 10
379.808685
 20
25.029989
 40
3.000000
 50
-90.000000
 51
0.000000
  0
LINE
  8
0
  6
CENTER
 10
178.782501
 20
309.901245
 11
178.782501
 21
173.401245
  0
LINE
  8
0
  6
CENTER
 10
-6.668750
 20
241.401245
 11
232.522507
 21
241.401245
  0
LINE
  8
0
  6
CONTINUOUS
 10
138.789001
 20
272.401245
 11
218.776001
 21
272.401245
  0
LINE
  8
0
  6
CONTINUOUS
 10
220.513565
 20
285.453613
 11
221.282501
 21
241.401245
  0
LINE
  8
0
  6
CONTINUOUS
 10
54.282501
 20
279.401245
 11
63.782501
 21
279.401245
  0
LINE
  8
0
  6
CONTINUOUS
 10
54.282501
 20
203.401245
 11
63.782501
 21
203.401245
  0
LINE
  8
0
  6
CONTINUOUS
 10
54.282501
 20
264.401245
 11
54.782501
 21
264.401245
  0
LINE
  8
0
  6
CONTINUOUS
 10
63.782501
 20
203.401245
 11
63.782501
 21
210.401245
  0
LINE
  8
0
  6
CONTINUOUS
 10
54.282501
 20
218.401245
 11
54.782501
 21
218.401245
  0
LINE
  8
0
  6
CONTINUOUS
 10
140.050858
 20
288.401245
 11
171.282501
 21
288.401245
  0
ARC
  8
0
  6
CONTINUOUS
 10
217.514023
 20
285.401245
 40
3.000000
 50
1.000000
 51
90.000000
  0
LINE
  8
0
  6
CONTINUOUS
 10
137.051315
 20
285.453613
 11
136.826950
 21
272.597168
  0
ARC
  8
0
  6
CONTINUOUS
 10
218.776001
 20
270.401245
 40
2.000000
 50
1.000000
 51
90.000000
  0
ARC
  8
0
  6
CONTINUOUS
 10
138.789001
 20
270.401245
 40
2.000000
 50
90.000000
 51
179.000000
  0
ARC
  8
0
  6
CONTINUOUS
 10
140.050858
 20
285.401245
 40
3.000000
 50
90.000000
 51
179.000153
  0
LINE
  8
0
  6
CONTINUOUS
 10
134.282501
 20
279.401245
 11
63.782501
 21
279.401245
  0
LINE
  8
0
  6
CONTINUOUS
 10
116.782501
 20
264.401245
 11
139.702179
 21
264.401245
  0
LINE
  8
0
  6
CENTER
 10
134.907501
 20
281.401245
 11
152.532501
 21
281.401245
  0
LINE
  8
0
  6
CENTER
 10
212.782501
 20
291.151245
 11
212.782501
 21
273.151245
  0
CIRCLE
  8
0
  6
CONTINUOUS
 10
212.782501
 20
281.401245
 40
3.250000
  0
LINE
  8
0
  6
CENTER
 10
144.782501
 20
291.151245
 11
144.782501
 21
273.151245
  0
CIRCLE
  8
0
  6
CONTINUOUS
 10
144.782501
 20
281.401245
 40
3.250000
  0
LINE
  8
0
  6
CENTER
 10
204.282501
 20
281.401245
 11
223.407501
 21
281.401245
  0
LINE
  8
0
  6
CONTINUOUS
 10
138.789001
 20
210.401245
 11
218.776001
 21
210.401245
  0
LINE
  8
0
  6
CONTINUOUS
 10
220.513565
 20
197.348892
 11
221.282501
 21
241.401245
  0
LINE
  8
0
  6
CONTINUOUS
 10
140.050858
 20
194.401245
 11
171.282501
 21
194.401245
  0
ARC
  8
0
  6
CONTINUOUS
 10
217.514023
 20
197.401245
 40
3.000000
 50
-90.000000
 51
-1.000000
  0
LINE
  8
0
  6
CONTINUOUS
 10
137.051315
 20
197.348907
 11
136.826950
 21
210.205338
  0
ARC
  8
0
  6
CONTINUOUS
 10
218.776001
 20
212.401245
 40
2.000000
 50
-90.000000
 51
-1.000000
  0
ARC
  8
0
  6
CONTINUOUS
 10
138.789001
 20
212.401245
 40
2.000000
 50
-179.000000
 51
-90.000000
  0
ARC
  8
0
  6
CONTINUOUS
 10
140.050858
 20
197.401245
 40
3.000000
 50
-179.000153
 51
-90.000000
  0
LINE
  8
0
  6
CONTINUOUS
 10
63.782501
 20
203.401245
 11
134.282501
 21
203.401245
  0
LINE
  8
0
  6
CONTINUOUS
 10
116.782501
 20
218.401245
 11
139.702179
 21
218.401245
  0
LINE
  8
0
  6
CENTER
 10
134.907501
 20
201.401245
 11
152.532501
 21
201.401245
  0
LINE
  8
0
  6
CENTER
 10
212.782501
 20
191.651245
 11
212.782501
 21
209.651245
  0
CIRCLE
  8
0
  6
CONTINUOUS
 10
212.782501
 20
201.401245
 40
3.250000
  0
LINE
  8
0
  6
CENTER
 10
144.782501
 20
191.651245
 11
144.782501
 21
209.651245
  0
CIRCLE
  8
0
  6
CONTINUOUS
 10
144.782501
 20
201.401245
 40
3.250000
  0
LINE
  8
0
  6
CENTER
 10
204.282501
 20
201.401245
 11
223.407501
 21
201.401245
  0
LINE
  8
0
  6
CONTINUOUS
 10
171.282501
 20
177.401245
 11
171.282501
 21
204.401245
  0
LINE
  8
0
  6
CONTINUOUS
 10
171.282501
 20
177.401245
 11
188.282501
 21
177.401245
  0
LINE
  8
0
  6
CONTINUOUS
 10
170.282501
 20
204.401245
 11
187.282501
 21
204.401245
  0
LINE
  8
0
  6
CONTINUOUS
 10
158.782501
 20
275.401245
 11
158.782501
 21
272.401245
  0
LINE
  8
0
  6
CONTINUOUS
 10
198.782501
 20
275.401245
 11
198.782501
 21
272.401245
  0
LINE
  8
0
  6
CONTINUOUS
 10
197.782501
 20
276.401245
 11
159.782501
 21
276.401245
  0
ARC
  8
0
  6
CONTINUOUS
 10
159.782501
 20
275.401245
 40
1.000000
 50
90.000000
 51
180.000000
  0
ARC
  8
0
  6
CONTINUOUS
 10
197.782501
 20
275.401245
 40
1.000000
 50
0.000000
 51
90.000000
  0
LINE
  8
0
  6
CONTINUOUS
 10
158.782501
 20
207.401245
 11
158.782501
 21
210.401245
  0
LINE
  8
0
  6
CONTINUOUS
 10
198.782501
 20
207.401245
 11
198.782501
 21
210.401245
  0
LINE
  8
0
  6
CONTINUOUS
 10
197.782501
 20
206.401245
 11
159.782501
 21
206.401245
  0
ARC
  8
0
  6
CONTINUOUS
 10
159.782501
 20
207.401245
 40
1.000000
 50
180.000000
 51
270.000000
  0
ARC
  8
0
  6
CONTINUOUS
 10
197.782501
 20
207.401245
 40
1.000000
 50
-90.000000
 51
0.000000
  0
LINE
  8
0
  6
CONTINUOUS
 10
170.282501
 20
204.401245
 11
170.282501
 21
206.401245
  0
LINE
  8
0
  6
CONTINUOUS
 10
187.282501
 20
204.401245
 11
187.282501
 21
206.401245
  0
LINE
  8
0
  6
CONTINUOUS
 10
188.282501
 20
194.401245
 11
217.514023
 21
194.401245
  0
LINE
  8
0
  6
CONTINUOUS
 10
188.282501
 20
288.401245
 11
217.514023
 21
288.401245
  0
LINE
  8
0
  6
CONTINUOUS
 10
188.282501
 20
201.401245
 11
188.282501
 21
177.401245
  0
LINE
  8
0
  6
CONTINUOUS
 10
185.853500
 20
201.401245
 11
185.853500
 21
177.401245
  0
LINE
  8
0
  6
CONTINUOUS
 10
185.853500
 20
201.401245
 11
188.282501
 21
201.401245
  0
LINE
  8
0
  6
CONTINUOUS
 10
186.282501
 20
201.401245
 11
186.282501
 21
204.401245
  0
LINE
  8
0
  6
CONTINUOUS
 10
171.282501
 20
305.401245
 11
171.282501
 21
278.401245
  0
LINE
  8
0
  6
CONTINUOUS
 10
171.282501
 20
305.401245
 11
188.282501
 21
305.401245
  0
LINE
  8
0
  6
CONTINUOUS
 10
170.282501
 20
278.401245
 11
187.282501
 21
278.401245
  0
LINE
  8
0
  6
CONTINUOUS
 10
170.282501
 20
278.401245
 11
170.282501
 21
276.401245
  0
LINE
  8
0
  6
CONTINUOUS
 10
187.282501
 20
278.401245
 11
187.282501
 21
276.401245
  0
LINE
  8
0
  6
CONTINUOUS
 10
188.282501
 20
281.401245
 11
188.282501
 21
305.401245
  0
LINE
  8
0
  6
CONTINUOUS
 10
185.853500
 20
281.401245
 11
185.853500
 21
305.401245
  0
LINE
  8
0
  6
CONTINUOUS
 10
185.853500
 20
281.401245
 11
188.282501
 21
281.401245
  0
LINE
  8
0
  6
CONTINUOUS
 10
186.282501
 20
281.401245
 11
186.282501
 21
278.401245
  0
LINE
  8
0
  6
CONTINUOUS
 10
193.782501
 20
270.436157
 11
193.782501
 21
212.366348
  0
LINE
  8
0
  6
CONTINUOUS
 10
163.782501
 20
270.436157
 11
163.782501
 21
212.366348
  0
LINE
  8
0
  6
CONTINUOUS
 10
136.282501
 20
277.401245
 11
136.282501
 21
273.753418
  0
LINE
  8
0
  6
CONTINUOUS
 10
139.702179
 20
220.401245
 11
139.702179
 21
262.401520
  0
ARC
  8
0
  6
CONTINUOUS
 10
134.282501
 20
277.401245
 40
2.000000
 50
0.000000
 51
90.000000
  0
ARC
  8
0
  6
CONTINUOUS
 10
137.782501
 20
273.753418
 40
1.500000
 50
180.000000
 51
286.712646
  0
LINE
  8
0
  6
CONTINUOUS
 10
136.789230
 20
270.436157
 11
136.683899
 21
264.401245
  0
LINE
  8
0
  6
CONTINUOUS
 10
136.282501
 20
205.401245
 11
136.282501
 21
209.049088
  0
ARC
  8
0
  6
CONTINUOUS
 10
134.282501
 20
205.401245
 40
2.000000
 50
-90.000000
 51
0.000000
  0
ARC
  8
0
  6
CONTINUOUS
 10
137.782501
 20
209.049088
 40
1.500000
 50
-286.712646
 51
-180.000000
  0
LINE
  8
0
  6
CONTINUOUS
 10
136.789230
 20
212.366348
 11
136.683899
 21
218.401245
  0
LINE
  8
0
  6
CONTINUOUS
 10
63.782501
 20
272.401245
 11
63.782501
 21
279.401245
  0
LINE
  8
0
  6
CONTINUOUS
 10
54.282501
 20
201.401245
 11
54.282501
 21
281.401245
  0
LINE
  8
0
  6
CONTINUOUS
 10
10.282500
 20
281.401245
 11
54.282501
 21
281.401245
  0
LINE
  8
0
  6
CONTINUOUS
 10
10.282500
 20
201.401245
 11
54.282501
 21
201.401245
  0
LINE
  8
0
  6
CONTINUOUS
 10
5.282500
 20
206.401245
 11
5.282500
 21
276.401245
  0
ARC
  8
0
  6
CONTINUOUS
 10
10.282520
 20
276.401276
 40
5.000000
 50
90.000000
 51
180.000000
  0
ARC
  8
0
  6
CONTINUOUS
 10
10.282500
 20
206.401245
 40
5.000000
 50
180.000000
 51
270.000000
  0
LINE
  8
0
  6
CONTINUOUS
 10
7.782500
 20
215.401245
 11
54.282501
 21
215.401245
  0
LINE
  8
0
  6
CONTINUOUS
 10
7.782500
 20
265.401245
 11
54.282501
 21
265.401245
  0
LINE
  8
0
  6
CONTINUOUS
 10
56.282501
 20
87.530006
 11
114.782501
 21
87.529999
  0
LINE
  8
0
  6
CONTINUOUS
 10
56.282501
 20
87.529999
 11
56.282501
 21
86.029999
  0
LINE
  8
0
  6
CONTINUOUS
 10
102.282501
 20
87.529999
 11
102.282501
 21
86.029999
  0
LINE
  8
0
  6
CONTINUOUS
 10
54.782501
 20
136.529999
 11
54.782501
 21
89.530006
  0
LINE
  8
0
  6
CONTINUOUS
 10
116.782501
 20
136.530014
 11
116.782501
 21
89.529999
  0
LINE
  8
0
  6
CONTINUOUS
 10
116.782501
 20
89.529999
 11
114.782501
 21
87.529999
  0
LINE
  8
0
  6
CONTINUOUS
 10
54.782501
 20
89.530006
 11
56.782501
 21
87.530006
  0
LINE
  8
0
  6
CONTINUOUS
 10
54.782501
 20
89.530006
 11
116.782501
 21
89.529999
  0
LINE
  8
0
  6
CONTINUOUS
 10
54.782501
 20
99.530006
 11
116.782501
 21
99.530006
  0
LINE
  8
0
  6
CONTINUOUS
 10
54.782501
 20
100.530006
 11
116.782501
 21
100.530006
  0
LINE
  8
0
  6
CONTINUOUS
 10
55.782501
 20
137.529999
 11
115.782501
 21
137.530014
  0
LINE
  8
0
  6
CONTINUOUS
 10
115.782501
 20
137.530014
 11
116.782501
 21
136.530014
  0
LINE
  8
0
  6
CONTINUOUS
 10
54.782501
 20
136.529999
 11
55.782501
 21
137.529999
  0
LINE
  8
0
  6
CONTINUOUS
 10
54.782501
 20
136.529999
 11
116.782501
 21
136.530014
  0
LINE
  8
0
  6
CENTER
 10
52.157501
 20
120.530022
 11
57.907501
 21
120.530022
  0
LINE
  8
0
  6
CONTINUOUS
 10
53.657501
 20
131.030014
 11
56.782501
 21
131.030014
  0
LINE
  8
0
  6
CONTINUOUS
 10
53.657501
 20
110.030006
 11
56.782501
 21
110.030006
  0
LINE
  8
0
  6
CENTER
 10
85.782501
 20
140.958984
 11
85.782501
 21
82.935982
  0
LINE
  8
0
  6
CONTINUOUS
 10
312.808685
 20
137.529999
 11
372.808685
 21
137.529999
  0
LINE
  8
0
  6
CONTINUOUS
 10
372.808685
 20
137.529999
 11
373.808685
 21
136.529999
  0
LINE
  8
0
  6
CONTINUOUS
 10
312.808685
 20
137.529999
 11
311.808685
 21
136.529999
  0
LINE
  8
0
  6
CONTINUOUS
 10
311.808685
 20
136.529999
 11
373.808685
 21
136.529999
  0
LINE
  8
0
  6
CONTINUOUS
 10
373.808685
 20
136.529999
 11
373.808685
 21
89.529999
  0
LINE
  8
0
  6
CONTINUOUS
 10
311.808685
 20
136.529999
 11
311.808685
 21
89.529999
  0
LINE
  8
0
  6
CONTINUOUS
 10
116.782501
 20
212.401245
 11
116.782501
 21
270.401245
  0
LINE
  8
0
  6
CONTINUOUS
 10
54.782501
 20
270.401245
 11
54.782501
 21
212.401245
  0
LINE
  8
0
  6
CONTINUOUS
 10
114.782501
 20
210.401245
 11
56.782501
 21
210.401245
  0
LINE
  8
0
  6
CONTINUOUS
 10
114.782501
 20
272.401245
 11
56.782501
 21
272.401245
  0
LINE
  8
0
  6
CONTINUOUS
 10
56.782501
 20
210.401245
 11
54.782501
 21
212.401245
  0
LINE
  8
0
  6
CONTINUOUS
 10
54.782501
 20
270.401245
 11
56.782501
 21
272.401245
  0
LINE
  8
0
  6
CONTINUOUS
 10
116.782501
 20
270.401245
 11
114.782501
 21
272.401245
  0
LINE
  8
0
  6
CONTINUOUS
 10
116.782501
 20
212.401245
 11
114.782501
 21
210.401245
  0
LINE
  8
0
  6
CONTINUOUS
 10
62.782501
 20
215.401245
 11
62.782501
 21
210.401245
  0
LINE
  8
0
  6
CONTINUOUS
 10
59.782501
 20
218.401245
 11
54.782501
 21
218.401245
  0
CIRCLE
  8
0
  6
CONTINUOUS
 10
58.782501
 20
214.401245
 40
2.250000
  0
ARC
  8
0
  6
CONTINUOUS
 10
59.782501
 20
215.401245
 40
3.000000
 50
0.000000
 51
90.000000
  0
LINE
  8
0
  6
CONTINUOUS
 10
55.782501
 20
219.401245
 11
55.782501
 21
263.401245
  0
LINE
  8
0
  6
CONTINUOUS
 10
59.782501
 20
219.401245
 11
55.782501
 21
219.401245
  0
ARC
  8
0
  6
CONTINUOUS
 10
59.782501
 20
215.401245
 40
4.000000
 50
0.000000
 51
90.000000
  0
LINE
  8
0
  6
CONTINUOUS
 10
63.782501
 20
211.401245
 11
63.782501
 21
215.401245
  0
LINE
  8
0
  6
CONTINUOUS
 10
55.782501
 20
219.401245
 11
54.782501
 21
218.401245
  0
LINE
  8
0
  6
CONTINUOUS
 10
107.782501
 20
211.401245
 11
63.782501
 21
211.401245
  0
LINE
  8
0
  6
CONTINUOUS
 10
63.782501
 20
211.401245
 11
62.782501
 21
210.401245
  0
LINE
  8
0
  6
CONTINUOUS
 10
111.782501
 20
218.401245
 11
116.782501
 21
218.401245
  0
LINE
  8
0
  6
CONTINUOUS
 10
108.782501
 20
215.401245
 11
108.782501
 21
210.401245
  0
CIRCLE
  8
0
  6
CONTINUOUS
 10
112.782501
 20
214.401245
 40
2.250000
  0
ARC
  8
0
  6
CONTINUOUS
 10
111.782501
 20
215.401245
 40
3.000000
 50
90.000000
 51
180.000000
  0
LINE
  8
0
  6
CONTINUOUS
 10
107.782501
 20
215.401245
 11
107.782501
 21
211.401245
  0
ARC
  8
0
  6
CONTINUOUS
 10
111.782501
 20
215.401245
 40
4.000000
 50
90.000000
 51
180.000000
  0
LINE
  8
0
  6
CONTINUOUS
 10
115.782501
 20
219.401245
 11
111.782501
 21
219.401245
  0
LINE
  8
0
  6
CONTINUOUS
 10
107.782501
 20
211.401245
 11
108.782501
 21
210.401245
  0
LINE
  8
0
  6
CONTINUOUS
 10
115.782501
 20
219.401245
 11
116.782501
 21
218.401245
  0
LINE
  8
0
  6
CONTINUOUS
 10
108.782501
 20
267.401245
 11
108.782501
 21
272.401245
  0
LINE
  8
0
  6
CONTINUOUS
 10
111.782501
 20
264.401245
 11
116.782501
 21
264.401245
  0
CIRCLE
  8
0
  6
CONTINUOUS
 10
112.782501
 20
268.401245
 40
2.250000
  0
ARC
  8
0
  6
CONTINUOUS
 10
111.782501
 20
267.401245
 40
3.000000
 50
180.000000
 51
270.000000
  0
LINE
  8
0
  6
CONTINUOUS
 10
111.782501
 20
263.401245
 11
115.782501
 21
263.401245
  0
ARC
  8
0
  6
CONTINUOUS
 10
111.782501
 20
267.401245
 40
4.000000
 50
180.000000
 51
270.000000
  0
LINE
  8
0
  6
CONTINUOUS
 10
107.782501
 20
271.401245
 11
107.782501
 21
267.401245
  0
LINE
  8
0
  6
CONTINUOUS
 10
115.782501
 20
263.401245
 11
116.782501
 21
264.401245
  0
LINE
  8
0
  6
CONTINUOUS
 10
107.782501
 20
271.401245
 11
108.782501
 21
272.401245
  0
LINE
  8
0
  6
CONTINUOUS
 10
59.782501
 20
264.401245
 11
54.782501
 21
264.401245
  0
LINE
  8
0
  6
CONTINUOUS
 10
62.782501
 20
267.401245
 11
62.782501
 21
272.401245
  0
CIRCLE
  8
0
  6
CONTINUOUS
 10
58.782501
 20
268.401245
 40
2.250000
  0
ARC
  8
0
  6
CONTINUOUS
 10
59.782501
 20
267.401245
 40
3.000000
 50
-90.000000
 51
0.000000
  0
LINE
  8
0
  6
CONTINUOUS
 10
63.782501
 20
267.401245
 11
63.782501
 21
271.401245
  0
ARC
  8
0
  6
CONTINUOUS
 10
59.782501
 20
267.401245
 40
4.000000
 50
-90.000000
 51
0.000000
  0
LINE
  8
0
  6
CONTINUOUS
 10
55.782501
 20
263.401245
 11
59.782501
 21
263.401245
  0
LINE
  8
0
  6
CONTINUOUS
 10
63.782501
 20
271.401245
 11
62.782501
 21
272.401245
  0
LINE
  8
0
  6
CONTINUOUS
 10
55.782501
 20
263.401245
 11
54.782501
 21
264.401245
  0
LINE
  8
0
  6
CONTINUOUS
 10
107.782501
 20
271.401245
 11
63.782501
 21
271.401245
  0
LINE
  8
0
  6
CONTINUOUS
 10
115.782501
 20
219.401245
 11
115.782501
 21
263.401245
  0
LINE
  8
0
  6
CENTER
 10
85.782501
 20
205.154999
 11
85.782501
 21
277.847809
  0
TEXT
  8
0
 10
-6.000000
 20
-1.000000
 40
4.000000
 41
1.000000
  1
HLMN-15T-10~240-S25C
 50
0.000000
  0
ENDSEC
  0
EOF
