  0
SECTION
  2
HEADER
  9
$CLAYER
  8
1
  9
$LTSCALE
 40
3.0
  0
ENDSEC
  0
SECTION
  2
TABLES
  0
TABLE
  2
LTYPE
 70
     4
  0
LTYPE
  2
CONTINUOUS
  3
solid line
 70
    64
 72
    65
 73
     0
 40
0.0
  0
LTYPE
  2
DASHED
  3
__ __ __ __ __ __ __ __ __ __ __ __ __ __ __
 70
    64
 72
    65
 73
     2
 40
0.75
 49
0.5
 49
-0.25
  0
LTYPE
  2
CENTER
  3
____ _ ____ _ ____ _ ____ _ ____ _ ____ _ ____
 70
    64
 72
    65
 73
     4
 40
2.0
 49
1.25
 49
-0.25
 49
0.25
 49
-0.25
  0
LTYPE
  2
PHANTOM
  3
_____ _ _ _____ _ _ _____ _ _ _____ _ _ ____
 70
    64
 72
    65
 73
     6
 40
2.5
 49
1.25
 49
-0.25
 49
0.25
 49
-0.25
 49
0.25
 49
-0.25
  0
ENDTAB
  0
TABLE
  2
LAYER
 70
     1
  0
LAYER
  2
0
 70
    64
 62
     7
  6
CONTINUOUS
  0
ENDTAB
  0
TABLE
  2
STYLE
 70
     1
  0
STYLE
  2
STANDARD
 70
     0
 40
0.000000
 41
1.000000
 50
0.000000
 71
     0
 42
3.000000
  3
txt
  4
BIGFONT
  0
ENDTAB
  0
ENDSEC
  0
SECTION
  2
BLOCKS
  0
ENDSEC
  0
SECTION
  2
ENTITIES
  0
LINE
  8
0
  6
CONTINUOUS
 10
51.757500
 20
82.400002
 11
61.257500
 21
82.400002
  0
LINE
  8
0
  6
CONTINUOUS
 10
51.757500
 20
6.400000
 11
61.257500
 21
6.400000
  0
LINE
  8
0
  6
CONTINUOUS
 10
51.757500
 20
4.400000
 11
51.757500
 21
84.400002
  0
LINE
  8
0
  6
CONTINUOUS
 10
61.757500
 20
83.900002
 11
61.757500
 21
82.400002
  0
LINE
  8
0
  6
CONTINUOUS
 10
54.757500
 20
83.900002
 11
54.757500
 21
82.400002
  0
LINE
  8
0
  6
CONTINUOUS
 10
54.757500
 20
83.900002
 11
61.757500
 21
83.900002
  0
LINE
  8
0
  6
CONTINUOUS
 10
59.157509
 20
96.900002
 11
59.157509
 21
83.900002
  0
LINE
  8
0
  6
CONTINUOUS
 10
57.357498
 20
97.525002
 11
57.357498
 21
83.900002
  0
LINE
  8
0
  6
CONTINUOUS
 10
55.557499
 20
95.462502
 11
55.557499
 21
83.900002
  0
LINE
  8
0
  6
CONTINUOUS
 10
60.957500
 20
96.275002
 11
60.957500
 21
83.900002
  0
LINE
  8
0
  6
CONTINUOUS
 10
57.357498
 20
97.525002
 11
59.157509
 21
96.900002
  0
LINE
  8
0
  6
CONTINUOUS
 10
55.557499
 20
95.462502
 11
57.357498
 21
96.087502
  0
LINE
  8
0
  6
CONTINUOUS
 10
60.957500
 20
96.275002
 11
59.158508
 21
95.827293
  0
LINE
  8
0
  6
CONTINUOUS
 10
51.757500
 20
74.649002
 11
61.257500
 21
74.649002
  0
LINE
  8
0
  6
CONTINUOUS
 10
51.757500
 20
14.151000
 11
61.257500
 21
14.151000
  0
LINE
  8
0
  6
CONTINUOUS
 10
7.757500
 20
84.400002
 11
51.757500
 21
84.400002
  0
LINE
  8
0
  6
CONTINUOUS
 10
7.757500
 20
4.400000
 11
51.757500
 21
4.400000
  0
LINE
  8
0
  6
CONTINUOUS
 10
2.757500
 20
9.400000
 11
2.757500
 21
79.400002
  0
ARC
  8
0
  6
CONTINUOUS
 10
7.757520
 20
79.400017
 40
5.000000
 50
90.000000
 51
180.000000
  0
ARC
  8
0
  6
CONTINUOUS
 10
7.757500
 20
9.400000
 40
5.000000
 50
180.000000
 51
270.000000
  0
LINE
  8
0
  6
CONTINUOUS
 10
5.257500
 20
70.400002
 11
51.757500
 21
70.400002
  0
LINE
  8
0
  6
CONTINUOUS
 10
5.257500
 20
20.400000
 11
51.757500
 21
20.400000
  0
LINE
  8
0
  6
CONTINUOUS
 10
61.257500
 20
6.400000
 11
61.257500
 21
82.400002
  0
LINE
  8
0
  6
CENTER
 10
-7.956250
 20
44.400002
 11
153.007507
 21
44.400002
  0
LINE
  8
0
  6
CONTINUOUS
 10
218.757507
 20
77.400581
 11
218.757507
 21
1.700000
  0
LINE
  8
0
  6
CONTINUOUS
 10
133.757507
 20
77.400597
 11
133.757507
 21
1.700000
  0
LINE
  8
0
  6
CONTINUOUS
 10
61.257500
 20
82.400002
 11
137.177200
 21
82.400002
  0
LINE
  8
0
  6
CONTINUOUS
 10
61.257500
 20
6.400000
 11
133.757507
 21
6.400000
  0
LINE
  8
0
  6
CENTER
 10
176.257507
 20
108.587502
 11
176.257507
 21
-5.100000
  0
LINE
  8
0
  6
CENTER
 10
145.757507
 20
66.699997
 11
205.606247
 21
66.699997
  0
LINE
  8
0
  6
CONTINUOUS
 10
133.757507
 20
1.700000
 11
218.757507
 21
1.700000
  0
LINE
  8
0
  6
CONTINUOUS
 10
162.837006
 20
99.300003
 11
189.677994
 21
99.300003
  0
LINE
  8
0
  6
CONTINUOUS
 10
216.629807
 20
81.493263
 11
192.550293
 21
98.392662
  0
LINE
  8
0
  6
CONTINUOUS
 10
135.885193
 20
81.493263
 11
159.964600
 21
98.392647
  0
ARC
  8
0
  6
CONTINUOUS
 10
189.678101
 20
94.299988
 40
5.000000
 50
54.938431
 51
90.000000
  0
ARC
  8
0
  6
CONTINUOUS
 10
162.837006
 20
94.300011
 40
5.000000
 50
90.000000
 51
125.062202
  0
ARC
  8
0
  6
CONTINUOUS
 10
213.757507
 20
77.400581
 40
5.000000
 50
0.000000
 51
54.938370
  0
ARC
  8
0
  6
CONTINUOUS
 10
138.757507
 20
77.400620
 40
5.000000
 50
125.062302
 51
180.000000
  0
LINE
  8
0
  6
CONTINUOUS
 10
135.757507
 20
9.700000
 11
216.757507
 21
9.700000
  0
LINE
  8
0
  6
CENTER
 10
210.257507
 20
13.087500
 11
210.257507
 21
-2.662500
  0
LINE
  8
0
  6
CENTER
 10
142.257507
 20
13.087500
 11
142.257507
 21
-2.412500
  0
LINE
  8
0
  6
DASHED
 10
145.507507
 20
9.700000
 11
145.507507
 21
1.700000
  0
LINE
  8
0
  6
DASHED
 10
139.007507
 20
9.700000
 11
139.007507
 21
1.700000
  0
LINE
  8
0
  6
DASHED
 10
213.507507
 20
9.700000
 11
213.507507
 21
1.700000
  0
LINE
  8
0
  6
DASHED
 10
207.007507
 20
9.700000
 11
207.007507
 21
1.700000
  0
LINE
  8
0
  6
CONTINUOUS
 10
216.257507
 20
68.061401
 11
216.257507
 21
39.338863
  0
LINE
  8
0
  6
CONTINUOUS
 10
136.257507
 20
68.061272
 11
136.257507
 21
39.338463
  0
ARC
  8
0
  6
CONTINUOUS
 10
176.257507
 20
53.700001
 40
42.500000
 50
199.749893
 51
340.250092
  0
ARC
  8
0
  6
CONTINUOUS
 10
176.257507
 20
53.700001
 40
42.500000
 50
19.749901
 51
160.250107
  0
LINE
  8
0
  6
CONTINUOUS
 10
185.757507
 20
69.199997
 11
185.757507
 21
64.199997
  0
LINE
  8
0
  6
CONTINUOUS
 10
180.757507
 20
64.199997
 11
180.757507
 21
69.199997
  0
LINE
  8
0
  6
CONTINUOUS
 10
180.757507
 20
69.199997
 11
185.757507
 21
69.199997
  0
LINE
  8
0
  6
CONTINUOUS
 10
180.757507
 20
64.199997
 11
185.757507
 21
64.199997
  0
ARC
  8
0
  6
CONTINUOUS
 10
176.257507
 20
66.699997
 40
7.500000
 50
19.471210
 51
340.528809
  0
ARC
  8
0
  6
CONTINUOUS
 10
216.757507
 20
7.699990
 40
2.000000
 50
0.000000
 51
90.000000
  0
ARC
  8
0
  6
CONTINUOUS
 10
135.757507
 20
7.700010
 40
2.000000
 50
90.000000
 51
180.000000
  0
CIRCLE
  8
0
  6
CONTINUOUS
 10
176.507507
 20
66.650002
 40
20.000000
  0
LINE
  8
0
  6
CONTINUOUS
 10
61.257450
 20
74.400002
 11
133.757507
 21
74.400002
  0
LINE
  8
0
  6
CONTINUOUS
 10
61.257450
 20
14.400000
 11
133.757507
 21
14.400000
  0
LINE
  8
0
  6
CONTINUOUS
 10
169.882507
 20
36.253223
 11
169.882507
 21
30.700001
  0
LINE
  8
0
  6
CONTINUOUS
 10
173.070007
 20
38.270313
 11
173.070007
 21
40.262501
  0
LINE
  8
0
  6
CONTINUOUS
 10
179.445007
 20
38.270313
 11
179.445007
 21
40.262501
  0
LINE
  8
0
  6
CONTINUOUS
 10
175.634903
 20
39.092091
 11
175.634903
 21
31.745899
  0
LINE
  8
0
  6
CONTINUOUS
 10
176.830307
 20
39.092091
 11
176.830307
 21
31.745899
  0
LINE
  8
0
  6
CONTINUOUS
 10
183.105606
 20
39.092091
 11
183.105606
 21
31.696091
  0
LINE
  8
0
  6
CONTINUOUS
 10
184.201294
 20
35.169971
 11
184.201294
 21
31.696091
  0
LINE
  8
0
  6
CONTINUOUS
 10
168.369995
 20
38.992481
 11
165.298096
 21
38.992481
  0
LINE
  8
0
  6
CONTINUOUS
 10
165.298096
 20
38.992481
 11
164.578293
 21
38.099979
  0
LINE
  8
0
  6
CONTINUOUS
 10
164.664902
 20
40.262501
 11
163.507507
 21
38.780502
  0
LINE
  8
0
  6
CONTINUOUS
 10
164.578293
 20
32.590919
 11
165.309601
 21
31.820601
  0
LINE
  8
0
  6
CONTINUOUS
 10
163.507507
 20
31.940861
 11
164.737305
 21
30.700001
  0
LINE
  8
0
  6
CONTINUOUS
 10
163.507507
 20
38.780502
 11
163.507507
 21
31.940861
  0
LINE
  8
0
  6
CONTINUOUS
 10
164.578293
 20
38.099979
 11
164.578293
 21
32.590919
  0
LINE
  8
0
  6
CONTINUOUS
 10
168.961105
 20
38.421036
 11
168.357895
 21
38.992481
  0
LINE
  8
0
  6
CONTINUOUS
 10
168.951508
 20
40.262501
 11
169.882507
 21
39.229359
  0
LINE
  8
0
  6
CONTINUOUS
 10
168.961105
 20
38.270313
 11
169.882507
 21
38.270313
  0
LINE
  8
0
  6
CONTINUOUS
 10
164.664902
 20
40.262501
 11
168.951508
 21
40.262501
  0
LINE
  8
0
  6
CONTINUOUS
 10
168.961105
 20
35.207321
 11
167.292694
 21
35.207321
  0
LINE
  8
0
  6
CONTINUOUS
 10
168.961105
 20
34.211231
 11
168.961105
 21
35.008106
  0
LINE
  8
0
  6
CONTINUOUS
 10
166.968903
 20
31.820601
 11
165.309601
 21
31.820601
  0
ARC
  8
0
  6
CONTINUOUS
 10
166.968903
 20
33.812790
 40
1.992187
 50
-89.999786
 51
0.000109
  0
LINE
  8
0
  6
CONTINUOUS
 10
168.961105
 20
31.462259
 11
168.961105
 21
30.700001
  0
LINE
  8
0
  6
CONTINUOUS
 10
169.882507
 20
39.229359
 11
169.882507
 21
38.270313
  0
LINE
  8
0
  6
CONTINUOUS
 10
168.961105
 20
35.207321
 11
168.961105
 21
33.812790
  0
LINE
  8
0
  6
CONTINUOUS
 10
167.292694
 20
36.253223
 11
167.292694
 21
35.207321
  0
LINE
  8
0
  6
CONTINUOUS
 10
168.961105
 20
30.700001
 11
169.882507
 21
30.700001
  0
LINE
  8
0
  6
CONTINUOUS
 10
168.961105
 20
31.462259
 11
168.052597
 21
30.700001
  0
LINE
  8
0
  6
CONTINUOUS
 10
176.830307
 20
31.745899
 11
177.228699
 21
31.745899
  0
LINE
  8
0
  6
CONTINUOUS
 10
175.161804
 20
31.745899
 11
175.161804
 21
30.700001
  0
LINE
  8
0
  6
CONTINUOUS
 10
177.228699
 20
31.745899
 11
177.228699
 21
30.700001
  0
LINE
  8
0
  6
CONTINUOUS
 10
178.779999
 20
38.270313
 11
179.445007
 21
38.270313
  0
LINE
  8
0
  6
CONTINUOUS
 10
173.070007
 20
38.270313
 11
173.777603
 21
38.270313
  0
LINE
  8
0
  6
CONTINUOUS
 10
173.070007
 20
40.262501
 11
179.445007
 21
40.262501
  0
LINE
  8
0
  6
CONTINUOUS
 10
175.161804
 20
30.700001
 11
177.228699
 21
30.700001
  0
LINE
  8
0
  6
CONTINUOUS
 10
175.161804
 20
31.745899
 11
175.634903
 21
31.745899
  0
ARC
  8
0
  6
CONTINUOUS
 10
186.455002
 20
37.710011
 40
2.552490
 50
-73.981873
 51
90.003510
  0
ARC
  8
0
  6
CONTINUOUS
 10
186.455002
 20
37.710011
 40
1.557193
 50
-82.585274
 51
62.411850
  0
LINE
  8
0
  6
CONTINUOUS
 10
182.632507
 20
40.262501
 11
186.455002
 21
40.262501
  0
LINE
  8
0
  6
CONTINUOUS
 10
182.632507
 20
40.262501
 11
182.632507
 21
39.092091
  0
LINE
  8
0
  6
CONTINUOUS
 10
184.201294
 20
39.092091
 11
184.201294
 21
36.165836
  0
LINE
  8
0
  6
CONTINUOUS
 10
187.159302
 20
35.256622
 11
188.739197
 21
31.696091
  0
LINE
  8
0
  6
CONTINUOUS
 10
186.241806
 20
35.169971
 11
187.736801
 21
31.696091
  0
LINE
  8
0
  6
CONTINUOUS
 10
182.632507
 20
31.696091
 11
183.105606
 21
31.696091
  0
LINE
  8
0
  6
CONTINUOUS
 10
184.201294
 20
31.696091
 11
184.637100
 21
31.696091
  0
LINE
  8
0
  6
CONTINUOUS
 10
184.637100
 20
30.700001
 11
182.632507
 21
30.700001
  0
LINE
  8
0
  6
CONTINUOUS
 10
187.538300
 20
31.696091
 11
187.736801
 21
31.696091
  0
LINE
  8
0
  6
CONTINUOUS
 10
188.739197
 20
31.696091
 11
189.007507
 21
31.696091
  0
LINE
  8
0
  6
CONTINUOUS
 10
187.538300
 20
30.700001
 11
189.007507
 21
30.700001
  0
LINE
  8
0
  6
CONTINUOUS
 10
189.007507
 20
31.696091
 11
189.007507
 21
30.700001
  0
LINE
  8
0
  6
CONTINUOUS
 10
187.538300
 20
31.696091
 11
187.538300
 21
30.700001
  0
LINE
  8
0
  6
CONTINUOUS
 10
184.637100
 20
31.696091
 11
184.637100
 21
30.700001
  0
LINE
  8
0
  6
CONTINUOUS
 10
182.632507
 20
31.696091
 11
182.632507
 21
30.700001
  0
LINE
  8
0
  6
CONTINUOUS
 10
174.119995
 20
39.092091
 11
173.777603
 21
38.270313
  0
LINE
  8
0
  6
CONTINUOUS
 10
178.491302
 20
39.092091
 11
178.779999
 21
38.270313
  0
LINE
  8
0
  6
CONTINUOUS
 10
176.830307
 20
39.092091
 11
178.491302
 21
39.092091
  0
LINE
  8
0
  6
CONTINUOUS
 10
175.634903
 20
39.092091
 11
174.119995
 21
39.092091
  0
LINE
  8
0
  6
CONTINUOUS
 10
182.632507
 20
39.092091
 11
183.105606
 21
39.092091
  0
LINE
  8
0
  6
CONTINUOUS
 10
184.201294
 20
39.092091
 11
187.176193
 21
39.090153
  0
LINE
  8
0
  6
CONTINUOUS
 10
168.961105
 20
38.421036
 11
168.961105
 21
38.270313
  0
LINE
  8
0
  6
CONTINUOUS
 10
164.737305
 20
30.700001
 11
168.052597
 21
30.700001
  0
LINE
  8
0
  6
CONTINUOUS
 10
184.201294
 20
36.165836
 11
186.656006
 21
36.165836
  0
LINE
  8
0
  6
CONTINUOUS
 10
184.201294
 20
35.169971
 11
186.241806
 21
35.169971
  0
LINE
  8
0
  6
CONTINUOUS
 10
167.292694
 20
36.253223
 11
169.882507
 21
36.253223
  0
LINE
  8
0
  6
CENTER
 10
340.283691
 20
-4.662500
 11
340.283691
 21
106.337502
  0
LINE
  8
0
  6
CENTER
 10
267.190002
 20
66.699997
 11
410.632294
 21
66.699997
  0
LINE
  8
0
  6
CONTINUOUS
 10
293.283691
 20
1.700000
 11
387.283691
 21
1.700000
  0
LINE
  8
0
  6
CONTINUOUS
 10
374.283691
 20
9.700000
 11
385.283691
 21
9.700000
  0
LINE
  8
0
  6
CONTINUOUS
 10
387.283691
 20
7.700000
 11
387.283691
 21
1.700000
  0
LINE
  8
0
  6
CENTER
 10
380.283691
 20
12.587500
 11
380.283691
 21
-4.412500
  0
LINE
  8
0
  6
CONTINUOUS
 10
276.283691
 20
74.199997
 11
303.283691
 21
74.199997
  0
LINE
  8
0
  6
CONTINUOUS
 10
276.283691
 20
59.200001
 11
303.283691
 21
59.200001
  0
LINE
  8
0
  6
CONTINUOUS
 10
276.283691
 20
74.199997
 11
276.283691
 21
59.200001
  0
LINE
  8
0
  6
CONTINUOUS
 10
276.283691
 20
69.199997
 11
297.783691
 21
69.199997
  0
LINE
  8
0
  6
CONTINUOUS
 10
276.283691
 20
64.199997
 11
297.783691
 21
64.199997
  0
LINE
  8
0
  6
CONTINUOUS
 10
303.283691
 20
75.199997
 11
303.283691
 21
58.200001
  0
ARC
  8
0
  6
CONTINUOUS
 10
297.783691
 20
66.699989
 40
2.500000
 50
0.000000
 51
90.000000
  0
ARC
  8
0
  6
CONTINUOUS
 10
297.783691
 20
66.699997
 40
2.500000
 50
-90.000000
 51
0.000000
  0
LINE
  8
0
  6
CONTINUOUS
 10
309.283691
 20
12.700000
 11
309.283691
 21
96.793404
  0
LINE
  8
0
  6
CONTINUOUS
 10
371.283691
 20
12.700000
 11
371.283691
 21
96.793510
  0
LINE
  8
0
  6
CONTINUOUS
 10
369.318604
 20
98.793213
 11
340.283691
 21
99.300011
  0
LINE
  8
0
  6
CONTINUOUS
 10
311.248810
 20
98.793098
 11
340.283691
 21
99.300011
  0
ARC
  8
0
  6
CONTINUOUS
 10
369.283691
 20
96.793510
 40
2.000000
 50
0.000000
 51
89.000137
  0
ARC
  8
0
  6
CONTINUOUS
 10
311.283691
 20
96.793411
 40
2.000000
 50
91.000641
 51
180.000000
  0
LINE
  8
0
  6
CONTINUOUS
 10
374.283691
 20
86.699997
 11
371.283691
 21
86.699997
  0
LINE
  8
0
  6
CONTINUOUS
 10
374.283691
 20
46.700001
 11
371.283691
 21
46.700001
  0
LINE
  8
0
  6
CONTINUOUS
 10
375.283691
 20
47.700001
 11
375.283691
 21
85.699997
  0
ARC
  8
0
  6
CONTINUOUS
 10
374.283691
 20
85.699997
 40
1.000000
 50
0.000000
 51
90.000000
  0
ARC
  8
0
  6
CONTINUOUS
 10
374.283691
 20
47.699997
 40
1.000000
 50
-90.000000
 51
0.000000
  0
LINE
  8
0
  6
CONTINUOUS
 10
306.283691
 20
9.700000
 11
295.283691
 21
9.700000
  0
LINE
  8
0
  6
CONTINUOUS
 10
293.283691
 20
7.700000
 11
293.283691
 21
1.700000
  0
LINE
  8
0
  6
CENTER
 10
300.283691
 20
12.337500
 11
300.283691
 21
-1.912500
  0
LINE
  8
0
  6
DASHED
 10
383.533691
 20
9.700000
 11
383.533691
 21
1.700000
  0
LINE
  8
0
  6
DASHED
 10
377.033691
 20
9.700000
 11
377.033691
 21
1.700000
  0
LINE
  8
0
  6
DASHED
 10
303.533691
 20
9.700000
 11
303.533691
 21
1.700000
  0
LINE
  8
0
  6
DASHED
 10
297.033691
 20
9.700000
 11
297.033691
 21
1.700000
  0
ARC
  8
0
  6
CONTINUOUS
 10
385.283691
 20
7.699990
 40
2.000000
 50
0.000000
 51
90.000000
  0
ARC
  8
0
  6
CONTINUOUS
 10
295.283691
 20
7.700010
 40
2.000000
 50
90.000000
 51
180.000000
  0
LINE
  8
0
  6
CONTINUOUS
 10
310.789795
 20
80.000008
 11
369.742706
 21
80.000008
  0
LINE
  8
0
  6
CONTINUOUS
 10
306.283691
 20
86.699997
 11
309.283691
 21
86.699997
  0
LINE
  8
0
  6
CONTINUOUS
 10
306.283691
 20
46.700001
 11
309.283691
 21
46.700001
  0
LINE
  8
0
  6
CONTINUOUS
 10
305.283691
 20
47.700001
 11
305.283691
 21
85.699997
  0
ARC
  8
0
  6
CONTINUOUS
 10
306.283691
 20
85.699997
 40
1.000000
 50
90.000000
 51
180.000000
  0
ARC
  8
0
  6
CONTINUOUS
 10
306.283691
 20
47.699997
 40
1.000000
 50
180.000000
 51
270.000000
  0
LINE
  8
0
  6
CONTINUOUS
 10
404.283691
 20
74.199997
 11
377.283691
 21
74.199997
  0
LINE
  8
0
  6
CONTINUOUS
 10
404.283691
 20
59.200001
 11
377.283691
 21
59.200001
  0
LINE
  8
0
  6
CONTINUOUS
 10
404.283691
 20
74.199997
 11
404.283691
 21
59.200001
  0
LINE
  8
0
  6
CONTINUOUS
 10
404.283691
 20
69.199997
 11
382.783691
 21
69.199997
  0
LINE
  8
0
  6
CONTINUOUS
 10
404.283691
 20
64.199997
 11
382.783691
 21
64.199997
  0
LINE
  8
0
  6
CONTINUOUS
 10
377.283691
 20
75.199997
 11
377.283691
 21
58.200001
  0
ARC
  8
0
  6
CONTINUOUS
 10
382.783691
 20
66.699989
 40
2.500000
 50
90.000000
 51
180.000000
  0
ARC
  8
0
  6
CONTINUOUS
 10
382.783691
 20
66.699997
 40
2.500000
 50
180.000000
 51
270.000000
  0
ARC
  8
0
  6
CONTINUOUS
 10
340.283691
 20
44.400002
 40
38.000000
 50
-35.334469
 51
21.294241
  0
ARC
  8
0
  6
CONTINUOUS
 10
340.283691
 20
44.400002
 40
38.000000
 50
158.705795
 51
215.334503
  0
LINE
  8
0
  6
CENTER
 10
291.283691
 20
44.400002
 11
389.533691
 21
44.400002
  0
LINE
  8
0
  6
CONTINUOUS
 10
303.283691
 20
75.199997
 11
305.283691
 21
75.199997
  0
LINE
  8
0
  6
CONTINUOUS
 10
303.283691
 20
58.200001
 11
305.283691
 21
58.200001
  0
LINE
  8
0
  6
CONTINUOUS
 10
375.283691
 20
75.199997
 11
377.283691
 21
75.199997
  0
LINE
  8
0
  6
CONTINUOUS
 10
375.283691
 20
58.200001
 11
377.283691
 21
58.200001
  0
ARC
  8
0
  6
CONTINUOUS
 10
306.283691
 20
12.699990
 40
3.000000
 50
-90.000000
 51
0.000000
  0
ARC
  8
0
  6
CONTINUOUS
 10
374.283691
 20
12.700000
 40
3.000000
 50
180.000000
 51
270.000000
  0
LINE
  8
0
  6
CONTINUOUS
 10
380.283691
 20
21.400000
 11
380.283691
 21
59.200001
  0
LINE
  8
0
  6
CONTINUOUS
 10
300.283691
 20
22.471069
 11
300.283691
 21
59.200001
  0
LINE
  8
0
  6
CONTINUOUS
 10
377.283691
 20
18.400000
 11
373.680695
 21
18.400000
  0
LINE
  8
0
  6
CONTINUOUS
 10
301.748199
 20
18.935530
 11
309.077301
 21
11.606420
  0
LINE
  8
0
  6
CONTINUOUS
 10
371.283691
 20
16.003031
 11
373.680695
 21
18.400000
  0
ARC
  8
0
  6
CONTINUOUS
 10
305.283691
 20
22.471100
 40
5.000000
 50
180.000000
 51
225.000397
  0
ARC
  8
0
  6
CONTINUOUS
 10
377.283691
 20
21.399990
 40
3.000000
 50
-90.000000
 51
0.000000
  0
LINE
  8
0
  6
CENTER
 10
176.257507
 20
306.271240
 11
176.257507
 21
169.771255
  0
LINE
  8
0
  6
CENTER
 10
-9.193750
 20
237.771255
 11
229.997498
 21
237.771255
  0
LINE
  8
0
  6
CONTINUOUS
 10
136.264008
 20
268.771240
 11
216.250992
 21
268.771240
  0
LINE
  8
0
  6
CONTINUOUS
 10
217.988556
 20
281.823608
 11
218.757507
 21
237.771255
  0
LINE
  8
0
  6
CONTINUOUS
 10
51.757500
 20
275.771240
 11
61.257500
 21
275.771240
  0
LINE
  8
0
  6
CONTINUOUS
 10
51.757500
 20
199.771255
 11
61.257500
 21
199.771255
  0
LINE
  8
0
  6
CONTINUOUS
 10
51.757500
 20
260.771240
 11
61.257500
 21
260.771240
  0
LINE
  8
0
  6
CONTINUOUS
 10
61.257500
 20
199.771255
 11
61.257500
 21
230.905228
  0
LINE
  8
0
  6
CONTINUOUS
 10
51.757500
 20
214.771255
 11
61.257500
 21
214.771255
  0
LINE
  8
0
  6
CONTINUOUS
 10
137.525864
 20
284.771240
 11
168.757507
 21
284.771240
  0
ARC
  8
0
  6
CONTINUOUS
 10
214.989014
 20
281.771240
 40
3.000000
 50
1.000000
 51
90.000000
  0
LINE
  8
0
  6
CONTINUOUS
 10
134.526321
 20
281.823608
 11
134.301941
 21
268.967163
  0
ARC
  8
0
  6
CONTINUOUS
 10
216.250992
 20
266.771240
 40
2.000000
 50
1.000000
 51
90.000000
  0
ARC
  8
0
  6
CONTINUOUS
 10
136.264008
 20
266.771240
 40
2.000000
 50
90.000000
 51
179.000000
  0
ARC
  8
0
  6
CONTINUOUS
 10
137.525864
 20
281.771240
 40
3.000000
 50
90.000000
 51
179.000153
  0
LINE
  8
0
  6
CONTINUOUS
 10
131.757507
 20
275.771240
 11
61.257500
 21
275.771240
  0
LINE
  8
0
  6
CONTINUOUS
 10
61.257500
 20
260.771240
 11
137.177185
 21
260.771240
  0
LINE
  8
0
  6
CENTER
 10
132.382507
 20
277.771240
 11
150.007507
 21
277.771240
  0
LINE
  8
0
  6
CENTER
 10
210.257507
 20
287.521240
 11
210.257507
 21
269.521240
  0
CIRCLE
  8
0
  6
CONTINUOUS
 10
210.257507
 20
277.771240
 40
3.250000
  0
LINE
  8
0
  6
CENTER
 10
142.257507
 20
287.521240
 11
142.257507
 21
269.521240
  0
CIRCLE
  8
0
  6
CONTINUOUS
 10
142.257507
 20
277.771240
 40
3.250000
  0
LINE
  8
0
  6
CENTER
 10
201.757507
 20
277.771240
 11
220.882507
 21
277.771240
  0
LINE
  8
0
  6
CONTINUOUS
 10
136.264008
 20
206.771255
 11
216.250992
 21
206.771255
  0
LINE
  8
0
  6
CONTINUOUS
 10
217.988556
 20
193.718887
 11
218.757507
 21
237.771255
  0
LINE
  8
0
  6
CONTINUOUS
 10
137.525864
 20
190.771255
 11
168.757507
 21
190.771255
  0
ARC
  8
0
  6
CONTINUOUS
 10
214.989014
 20
193.771255
 40
3.000000
 50
-90.000000
 51
-1.000000
  0
LINE
  8
0
  6
CONTINUOUS
 10
134.526321
 20
193.718903
 11
134.301941
 21
206.575348
  0
ARC
  8
0
  6
CONTINUOUS
 10
216.250992
 20
208.771255
 40
2.000000
 50
-90.000000
 51
-1.000000
  0
ARC
  8
0
  6
CONTINUOUS
 10
136.264008
 20
208.771255
 40
2.000000
 50
-179.000000
 51
-90.000000
  0
ARC
  8
0
  6
CONTINUOUS
 10
137.525864
 20
193.771255
 40
3.000000
 50
-179.000153
 51
-90.000000
  0
LINE
  8
0
  6
CONTINUOUS
 10
61.257500
 20
199.771255
 11
131.757507
 21
199.771255
  0
LINE
  8
0
  6
CONTINUOUS
 10
61.257500
 20
214.771255
 11
137.177185
 21
214.771255
  0
LINE
  8
0
  6
CENTER
 10
132.382507
 20
197.771255
 11
150.007507
 21
197.771255
  0
LINE
  8
0
  6
CENTER
 10
210.257507
 20
188.021255
 11
210.257507
 21
206.021255
  0
CIRCLE
  8
0
  6
CONTINUOUS
 10
210.257507
 20
197.771255
 40
3.250000
  0
LINE
  8
0
  6
CENTER
 10
142.257507
 20
188.021255
 11
142.257507
 21
206.021255
  0
CIRCLE
  8
0
  6
CONTINUOUS
 10
142.257507
 20
197.771255
 40
3.250000
  0
LINE
  8
0
  6
CENTER
 10
201.757507
 20
197.771255
 11
220.882507
 21
197.771255
  0
LINE
  8
0
  6
CONTINUOUS
 10
168.757507
 20
173.771255
 11
168.757507
 21
200.771255
  0
LINE
  8
0
  6
CONTINUOUS
 10
168.757507
 20
173.771255
 11
185.757507
 21
173.771255
  0
LINE
  8
0
  6
CONTINUOUS
 10
167.757507
 20
200.771255
 11
184.757507
 21
200.771255
  0
LINE
  8
0
  6
CONTINUOUS
 10
156.257507
 20
271.771240
 11
156.257507
 21
268.771240
  0
LINE
  8
0
  6
CONTINUOUS
 10
196.257507
 20
271.771240
 11
196.257507
 21
268.771240
  0
LINE
  8
0
  6
CONTINUOUS
 10
195.257507
 20
272.771240
 11
157.257507
 21
272.771240
  0
ARC
  8
0
  6
CONTINUOUS
 10
157.257507
 20
271.771240
 40
1.000000
 50
90.000000
 51
180.000000
  0
ARC
  8
0
  6
CONTINUOUS
 10
195.257507
 20
271.771240
 40
1.000000
 50
0.000000
 51
90.000000
  0
LINE
  8
0
  6
CONTINUOUS
 10
156.257507
 20
203.771255
 11
156.257507
 21
206.771255
  0
LINE
  8
0
  6
CONTINUOUS
 10
196.257507
 20
203.771255
 11
196.257507
 21
206.771255
  0
LINE
  8
0
  6
CONTINUOUS
 10
195.257507
 20
202.771255
 11
157.257507
 21
202.771255
  0
ARC
  8
0
  6
CONTINUOUS
 10
157.257507
 20
203.771255
 40
1.000000
 50
180.000000
 51
270.000000
  0
ARC
  8
0
  6
CONTINUOUS
 10
195.257507
 20
203.771255
 40
1.000000
 50
-90.000000
 51
0.000000
  0
LINE
  8
0
  6
CONTINUOUS
 10
167.757507
 20
200.771255
 11
167.757507
 21
202.771255
  0
LINE
  8
0
  6
CONTINUOUS
 10
184.757507
 20
200.771255
 11
184.757507
 21
202.771255
  0
LINE
  8
0
  6
CONTINUOUS
 10
185.757507
 20
190.771255
 11
214.989014
 21
190.771255
  0
LINE
  8
0
  6
CONTINUOUS
 10
185.757507
 20
284.771240
 11
214.989014
 21
284.771240
  0
LINE
  8
0
  6
CONTINUOUS
 10
185.757507
 20
197.771255
 11
185.757507
 21
173.771255
  0
LINE
  8
0
  6
CONTINUOUS
 10
183.328506
 20
197.771255
 11
183.328506
 21
173.771255
  0
LINE
  8
0
  6
CONTINUOUS
 10
183.328506
 20
197.771255
 11
185.757507
 21
197.771255
  0
LINE
  8
0
  6
CONTINUOUS
 10
183.757507
 20
197.771255
 11
183.757507
 21
200.771255
  0
LINE
  8
0
  6
CONTINUOUS
 10
168.757507
 20
301.771240
 11
168.757507
 21
274.771240
  0
LINE
  8
0
  6
CONTINUOUS
 10
168.757507
 20
301.771240
 11
185.757507
 21
301.771240
  0
LINE
  8
0
  6
CONTINUOUS
 10
167.757507
 20
274.771240
 11
184.757507
 21
274.771240
  0
LINE
  8
0
  6
CONTINUOUS
 10
167.757507
 20
274.771240
 11
167.757507
 21
272.771240
  0
LINE
  8
0
  6
CONTINUOUS
 10
184.757507
 20
274.771240
 11
184.757507
 21
272.771240
  0
LINE
  8
0
  6
CONTINUOUS
 10
185.757507
 20
277.771240
 11
185.757507
 21
301.771240
  0
LINE
  8
0
  6
CONTINUOUS
 10
183.328506
 20
277.771240
 11
183.328506
 21
301.771240
  0
LINE
  8
0
  6
CONTINUOUS
 10
183.328506
 20
277.771240
 11
185.757507
 21
277.771240
  0
LINE
  8
0
  6
CONTINUOUS
 10
183.757507
 20
277.771240
 11
183.757507
 21
274.771240
  0
LINE
  8
0
  6
CONTINUOUS
 10
191.257507
 20
266.806152
 11
191.257507
 21
208.736343
  0
LINE
  8
0
  6
CONTINUOUS
 10
161.257507
 20
266.806152
 11
161.257507
 21
208.736343
  0
LINE
  8
0
  6
CONTINUOUS
 10
133.757507
 20
273.771240
 11
133.757507
 21
270.123413
  0
LINE
  8
0
  6
CONTINUOUS
 10
137.177185
 20
216.771255
 11
137.177185
 21
258.771515
  0
ARC
  8
0
  6
CONTINUOUS
 10
131.757507
 20
273.771240
 40
2.000000
 50
0.000000
 51
90.000000
  0
ARC
  8
0
  6
CONTINUOUS
 10
135.257507
 20
270.123413
 40
1.500000
 50
180.000000
 51
286.712646
  0
LINE
  8
0
  6
CONTINUOUS
 10
134.264236
 20
266.806152
 11
134.158905
 21
260.771240
  0
LINE
  8
0
  6
CONTINUOUS
 10
133.757507
 20
201.771255
 11
133.757507
 21
205.419098
  0
ARC
  8
0
  6
CONTINUOUS
 10
131.757507
 20
201.771255
 40
2.000000
 50
-90.000000
 51
0.000000
  0
ARC
  8
0
  6
CONTINUOUS
 10
135.257507
 20
205.419098
 40
1.500000
 50
-286.712646
 51
-180.000000
  0
LINE
  8
0
  6
CONTINUOUS
 10
134.264236
 20
208.736343
 11
134.158905
 21
214.771255
  0
LINE
  8
0
  6
CONTINUOUS
 10
61.257500
 20
244.637268
 11
61.257500
 21
275.771240
  0
LINE
  8
0
  6
CONTINUOUS
 10
54.757500
 20
231.771255
 11
54.757500
 21
243.771255
  0
LINE
  8
0
  6
CONTINUOUS
 10
61.757500
 20
231.771255
 11
61.757500
 21
243.771255
  0
LINE
  8
0
  6
CONTINUOUS
 10
55.757500
 20
244.771255
 11
60.757500
 21
244.771255
  0
LINE
  8
0
  6
CONTINUOUS
 10
60.757500
 20
230.771255
 11
55.757500
 21
230.771255
  0
ARC
  8
0
  6
CONTINUOUS
 10
60.757500
 20
243.771255
 40
1.000000
 50
0.000000
 51
90.000000
  0
ARC
  8
0
  6
CONTINUOUS
 10
55.757500
 20
243.771255
 40
1.000000
 50
90.000000
 51
180.000000
  0
ARC
  8
0
  6
CONTINUOUS
 10
55.757500
 20
231.771255
 40
1.000000
 50
180.000000
 51
270.000000
  0
ARC
  8
0
  6
CONTINUOUS
 10
60.757500
 20
231.771255
 40
1.000000
 50
-90.000000
 51
0.000000
  0
LINE
  8
0
  6
CONTINUOUS
 10
59.257500
 20
234.271255
 11
59.257500
 21
241.271255
  0
LINE
  8
0
  6
CONTINUOUS
 10
57.257500
 20
234.271255
 11
57.257500
 21
241.271255
  0
ARC
  8
0
  6
CONTINUOUS
 10
58.257500
 20
241.271255
 40
1.000000
 50
90.000000
 51
180.000000
  0
ARC
  8
0
  6
CONTINUOUS
 10
58.257500
 20
241.271255
 40
1.000000
 50
0.000000
 51
90.000000
  0
ARC
  8
0
  6
CONTINUOUS
 10
58.257500
 20
234.271255
 40
1.000000
 50
180.000000
 51
270.000000
  0
ARC
  8
0
  6
CONTINUOUS
 10
58.257500
 20
234.271255
 40
1.000000
 50
-90.000000
 51
0.000000
  0
LINE
  8
0
  6
CONTINUOUS
 10
51.757500
 20
197.771255
 11
51.757500
 21
277.771240
  0
LINE
  8
0
  6
CONTINUOUS
 10
7.757500
 20
277.771240
 11
51.757500
 21
277.771240
  0
LINE
  8
0
  6
CONTINUOUS
 10
7.757500
 20
197.771255
 11
51.757500
 21
197.771255
  0
LINE
  8
0
  6
CONTINUOUS
 10
2.757500
 20
202.771255
 11
2.757500
 21
272.771240
  0
ARC
  8
0
  6
CONTINUOUS
 10
7.757520
 20
272.771271
 40
5.000000
 50
90.000000
 51
180.000000
  0
ARC
  8
0
  6
CONTINUOUS
 10
7.757500
 20
202.771255
 40
5.000000
 50
180.000000
 51
270.000000
  0
LINE
  8
0
  6
CONTINUOUS
 10
5.257500
 20
211.771255
 11
51.757500
 21
211.771255
  0
LINE
  8
0
  6
CONTINUOUS
 10
5.257500
 20
261.771240
 11
51.757500
 21
261.771240
  0
ARC
  8
0
  6
CONTINUOUS
 10
51.757500
 20
205.995316
 40
1.500000
 50
0.000000
 51
90.000000
  0
ARC
  8
0
  6
CONTINUOUS
 10
51.757500
 20
205.995316
 40
3.000000
 50
0.000000
 51
90.000000
  0
ARC
  8
0
  6
CONTINUOUS
 10
51.757500
 20
205.995316
 40
4.500000
 50
0.000000
 51
90.000000
  0
LINE
  8
0
  6
CONTINUOUS
 10
53.257500
 20
205.995316
 11
53.257500
 21
201.752716
  0
LINE
  8
0
  6
CONTINUOUS
 10
54.757500
 20
205.995316
 11
54.757500
 21
200.958511
  0
LINE
  8
0
  6
CONTINUOUS
 10
56.257500
 20
205.995316
 11
56.257500
 21
202.772415
  0
LINE
  8
0
  6
CONTINUOUS
 10
53.259899
 20
201.757217
 11
54.757500
 21
200.958511
  0
LINE
  8
0
  6
CONTINUOUS
 10
54.757500
 20
201.993210
 11
56.257500
 21
202.772415
  0
ARC
  8
0
  6
CONTINUOUS
 10
51.757500
 20
67.025002
 40
1.500000
 50
0.000000
 51
90.000000
  0
ARC
  8
0
  6
CONTINUOUS
 10
51.757500
 20
67.025002
 40
3.000000
 50
0.000000
 51
90.000000
  0
ARC
  8
0
  6
CONTINUOUS
 10
51.757500
 20
67.025002
 40
4.500000
 50
0.000000
 51
90.000000
  0
LINE
  8
0
  6
CONTINUOUS
 10
53.257500
 20
67.025002
 11
53.257500
 21
62.782398
  0
LINE
  8
0
  6
CONTINUOUS
 10
54.757500
 20
67.025002
 11
54.757500
 21
61.988201
  0
LINE
  8
0
  6
CONTINUOUS
 10
56.257500
 20
67.025002
 11
56.257500
 21
63.802101
  0
LINE
  8
0
  6
CONTINUOUS
 10
53.259899
 20
62.786900
 11
54.757500
 21
61.988201
  0
LINE
  8
0
  6
CONTINUOUS
 10
54.757500
 20
63.022900
 11
56.257500
 21
63.802101
  0
TEXT
  8
0
 10
-9.000000
 20
-5.000000
 40
4.000000
 41
1.000000
  1
HLMN-15T-10~120-S40
 50
0.000000
  0
ENDSEC
  0
EOF
