  0
SECTION
  2
HEADER
  9
$ACADVER
  1
AC1014
  9
$ACADMAINTVER
 70
     9
  9
$DWGCODEPAGE
  3
ANSI_932
  9
$INSBASE
 10
0.0
 20
0.0
 30
0.0
  9
$EXTMIN
 10
39.88620163626796
 20
40.6845122360973
 30
0.0
  9
$EXTMAX
 10
480.8747508239036
 20
379.1808121343984
 30
0.0
  9
$LIMMIN
 10
0.0
 20
0.0
  9
$LIMMAX
 10
297.0
 20
210.0
  9
$ORTHOMODE
 70
     1
  9
$REGENMODE
 70
     1
  9
$FILLMODE
 70
     1
  9
$QTEXTMODE
 70
     0
  9
$MIRRTEXT
 70
     0
  9
$DRAGMODE
 70
     2
  9
$LTSCALE
 40
2.0
  9
$OSMODE
 70
    37
  9
$ATTMODE
 70
     1
  9
$TEXTSIZE
 40
2.0
  9
$TRACEWID
 40
1.0
  9
$TEXTSTYLE
  7
STANDARD
  9
$CLAYER
  8
0
  9
$CELTYPE
  6
BYLAYER
  9
$CECOLOR
 62
   256
  9
$CELTSCALE
 40
1.0
  9
$DELOBJ
 70
     1
  9
$DISPSILH
 70
     0
  9
$DIMSCALE
 40
2.0
  9
$DIMASZ
 40
1.8
  9
$DIMEXO
 40
0.625
  9
$DIMDLI
 40
3.75
  9
$DIMRND
 40
0.0
  9
$DIMDLE
 40
0.0
  9
$DIMEXE
 40
0.8
  9
$DIMTP
 40
0.0
  9
$DIMTM
 40
0.0
  9
$DIMTXT
 40
1.8
  9
$DIMCEN
 40
2.5
  9
$DIMTSZ
 40
0.0
  9
$DIMTOL
 70
     0
  9
$DIMLIM
 70
     0
  9
$DIMTIH
 70
     0
  9
$DIMTOH
 70
     0
  9
$DIMSE1
 70
     0
  9
$DIMSE2
 70
     0
  9
$DIMTAD
 70
     1
  9
$DIMZIN
 70
     8
  9
$DIMBLK
  1

  9
$DIMASO
 70
     1
  9
$DIMSHO
 70
     1
  9
$DIMPOST
  1

  9
$DIMAPOST
  1

  9
$DIMALT
 70
     0
  9
$DIMALTD
 70
     4
  9
$DIMALTF
 40
0.0394
  9
$DIMLFAC
 40
1.0
  9
$DIMTOFL
 70
     1
  9
$DIMTVP
 40
0.0
  9
$DIMTIX
 70
     0
  9
$DIMSOXD
 70
     0
  9
$DIMSAH
 70
     0
  9
$DIMBLK1
  1

  9
$DIMBLK2
  1

  9
$DIMSTYLE
  2
STANDARD
  9
$DIMCLRD
 70
     0
  9
$DIMCLRE
 70
     0
  9
$DIMCLRT
 70
     0
  9
$DIMTFAC
 40
1.0
  9
$DIMGAP
 40
0.75
  9
$DIMJUST
 70
     0
  9
$DIMSD1
 70
     0
  9
$DIMSD2
 70
     0
  9
$DIMTOLJ
 70
     1
  9
$DIMTZIN
 70
     0
  9
$DIMALTZ
 70
     0
  9
$DIMALTTZ
 70
     0
  9
$DIMFIT
 70
     3
  9
$DIMUPT
 70
     0
  9
$DIMUNIT
 70
     8
  9
$DIMDEC
 70
     2
  9
$DIMTDEC
 70
     2
  9
$DIMALTU
 70
     8
  9
$DIMALTTD
 70
     4
  9
$DIMTXSTY
  7
STANDARD
  9
$DIMAUNIT
 70
     0
  9
$LUNITS
 70
     2
  9
$LUPREC
 70
     3
  9
$SKETCHINC
 40
1.0
  9
$FILLETRAD
 40
10.0
  9
$AUNITS
 70
     0
  9
$AUPREC
 70
     2
  9
$MENU
  1
.
  9
$ELEVATION
 40
0.0
  9
$PELEVATION
 40
0.0
  9
$THICKNESS
 40
0.0
  9
$LIMCHECK
 70
     0
  9
$BLIPMODE
 70
     0
  9
$CHAMFERA
 40
0.0
  9
$CHAMFERB
 40
0.0
  9
$CHAMFERC
 40
20.0
  9
$CHAMFERD
 40
0.0
  9
$SKPOLY
 70
     0
  9
$TDCREATE
 40
2453753.555356979
  9
$TDUPDATE
 40
2453832.470793726
  9
$TDINDWG
 40
0.4271153472
  9
$TDUSRTIMER
 40
0.4271153472
  9
$USRTIMER
 70
     1
  9
$ANGBASE
 50
0.0
  9
$ANGDIR
 70
     0
  9
$PDMODE
 70
     0
  9
$PDSIZE
 40
-10.0
  9
$PLINEWID
 40
0.0
  9
$COORDS
 70
     0
  9
$SPLFRAME
 70
     0
  9
$SPLINETYPE
 70
     6
  9
$SPLINESEGS
 70
     8
  9
$ATTDIA
 70
     0
  9
$ATTREQ
 70
     1
  9
$HANDLING
 70
-16383
  9
$HANDSEED
  5
1DAC
  9
$SURFTAB1
 70
     6
  9
$SURFTAB2
 70
     6
  9
$SURFTYPE
 70
     6
  9
$SURFU
 70
     6
  9
$SURFV
 70
     6
  9
$UCSNAME
  2

  9
$UCSORG
 10
0.0
 20
0.0
 30
0.0
  9
$UCSXDIR
 10
1.0
 20
0.0
 30
0.0
  9
$UCSYDIR
 10
0.0
 20
1.0
 30
0.0
  9
$PUCSNAME
  2

  9
$PUCSORG
 10
0.0
 20
0.0
 30
0.0
  9
$PUCSXDIR
 10
1.0
 20
0.0
 30
0.0
  9
$PUCSYDIR
 10
0.0
 20
1.0
 30
0.0
  9
$USERI1
 70
     0
  9
$USERI2
 70
     0
  9
$USERI3
 70
     0
  9
$USERI4
 70
     0
  9
$USERI5
 70
     0
  9
$USERR1
 40
0.0
  9
$USERR2
 40
0.0
  9
$USERR3
 40
0.0
  9
$USERR4
 40
0.0
  9
$USERR5
 40
0.0
  9
$WORLDVIEW
 70
     1
  9
$SHADEDGE
 70
     3
  9
$SHADEDIF
 70
    70
  9
$TILEMODE
 70
     1
  9
$MAXACTVP
 70
    48
  9
$PINSBASE
 10
0.0
 20
0.0
 30
0.0
  9
$PLIMCHECK
 70
     0
  9
$PEXTMIN
 10
0.0
 20
0.0
 30
0.0
  9
$PEXTMAX
 10
0.0
 20
0.0
 30
0.0
  9
$PLIMMIN
 10
0.0
 20
0.0
  9
$PLIMMAX
 10
12.0
 20
9.0
  9
$UNITMODE
 70
     0
  9
$VISRETAIN
 70
     1
  9
$PLINEGEN
 70
     0
  9
$PSLTSCALE
 70
     1
  9
$TREEDEPTH
 70
  3020
  9
$PICKSTYLE
 70
     1
  9
$CMLSTYLE
  2
STANDARD
  9
$CMLJUST
 70
     0
  9
$CMLSCALE
 40
1.0
  9
$PROXYGRAPHICS
 70
     1
  9
$MEASUREMENT
 70
     0
  0
ENDSEC
  0
SECTION
  2
CLASSES
  0
CLASS
  1
DICTIONARYVAR
  2
AcDbDictionaryVar
  3
AutoCAD 2000
 90
        0
280
     0
281
     0
  0
CLASS
  1
ACDBDICTIONARYWDFLT
  2
AcDbDictionaryWithDefault
  3
AutoCAD 2000
 90
        0
280
     0
281
     0
  0
CLASS
  1
ACDBPLACEHOLDER
  2
AcDbPlaceHolder
  3
AutoCAD 2000
 90
        0
280
     0
281
     0
  0
CLASS
  1
LAYOUT
  2
AcDbLayout
  3
AutoCAD 2000
 90
        0
280
     0
281
     0
  0
CLASS
  1
LONG_TRANSACTION
  2
AcDbLongTransaction
  3
AutoCAD 2000
 90
        0
280
     0
281
     0
  0
CLASS
  1
LWPOLYLINE
  2
AcDbPolyline
  3
AutoCAD 2000
 90
        0
280
     0
281
     1
  0
CLASS
  1
HATCH
  2
AcDbHatch
  3
AutoCAD 2000
 90
        0
280
     0
281
     1
  0
CLASS
  1
XRECORD
  2
AcDbXrecord
  3
AutoCAD 2000
 90
        0
280
     0
281
     0
  0
ENDSEC
  0
SECTION
  2
TABLES
  0
TABLE
  2
VPORT
  5
6E
330
0
100
AcDbSymbolTable
 70
     2
  0
VPORT
  5
1D86
330
6E
100
AcDbSymbolTableRecord
100
AcDbViewportTableRecord
  2
*ACTIVE
 70
     0
 10
0.0
 20
0.0
 11
1.0
 21
1.0
 12
258.6048772442484
 22
198.2547024034219
 13
0.0
 23
0.0
 14
10.0
 24
10.0
 15
10.0
 25
10.0
 16
0.0
 26
0.0
 36
1.0
 17
0.0
 27
0.0
 37
0.0
 40
364.8730143798498
 41
1.566970091027308
 42
50.0
 43
0.0
 44
0.0
 50
0.0
 51
0.0
 71
     0
 72
   100
 73
     1
 74
     3
 75
     0
 76
     0
 77
     0
 78
     0
  0
ENDTAB
  0
TABLE
  2
LTYPE
  5
69
330
0
100
AcDbSymbolTable
 70
     4
  0
LTYPE
  5
6A
330
69
100
AcDbSymbolTableRecord
100
AcDbLinetypeTableRecord
  2
BYBLOCK
 70
     0
  3

 72
    65
 73
     0
 40
0.0
  0
LTYPE
  5
6B
330
69
100
AcDbSymbolTableRecord
100
AcDbLinetypeTableRecord
  2
BYLAYER
 70
     0
  3

 72
    65
 73
     0
 40
0.0
  0
LTYPE
  5
8
330
69
100
AcDbSymbolTableRecord
100
AcDbLinetypeTableRecord
  2
CONTINUOUS
 70
     0
  3
Solid line
 72
    65
 73
     0
 40
0.0
  0
LTYPE
  5
27C
330
69
100
AcDbSymbolTableRecord
100
AcDbLinetypeTableRecord
  2
SEKKEI_A2_
 70
     0
  3
center(A2)  ____ _ ____ _ ____ _ ____ _ ____ _ 
 72
    65
 73
     4
 40
14.28749999999999
 49
9.525
 74
     0
 49
-1.587499999999999
 74
     0
 49
1.587499999999999
 74
     0
 49
-1.587499999999999
 74
     0
  0
LTYPE
  5
2B4
330
69
100
AcDbSymbolTableRecord
100
AcDbLinetypeTableRecord
  2
HIDDEN2
 70
     0
  3
Hidden (.5x) _ _ _ _ _ _ _ _ _ _ _ _ _ _ _ _ _
 72
    65
 73
     2
 40
4.762499999999999
 49
3.174999999999999
 74
     0
 49
-1.587499999999999
 74
     0
  0
LTYPE
  5
48F
330
69
100
AcDbSymbolTableRecord
100
AcDbLinetypeTableRecord
  2
SEKKEI_H
 70
     0
  3
Hidden-S _ _ _ _ _ _ _ _ _ _ _ _ _ _ _ _ _
 72
    65
 73
     2
 40
2.381249999999999
 49
1.587499999999999
 74
     0
 49
-0.79375
 74
     0
  0
ENDTAB
  0
TABLE
  2
LAYER
  5
66
330
0
100
AcDbSymbolTable
 70
     9
  0
LAYER
  5
5E
330
66
100
AcDbSymbolTableRecord
100
AcDbLayerTableRecord
  2
0
 70
     0
 62
     7
  6
CONTINUOUS
  0
LAYER
  5
3E
330
66
100
AcDbSymbolTableRecord
100
AcDbLayerTableRecord
  2
CENTER
 70
     0
 62
     3
  6
SEKKEI_A2_
  0
LAYER
  5
2B5
330
66
100
AcDbSymbolTableRecord
100
AcDbLayerTableRecord
  2
HIDS
 70
     0
 62
     1
  6
HIDDEN2
  0
LAYER
  5
2BA
330
66
100
AcDbSymbolTableRecord
100
AcDbLayerTableRecord
  2
HOJO
 70
     0
 62
     4
  6
CONTINUOUS
  0
LAYER
  5
3FA
330
66
100
AcDbSymbolTableRecord
100
AcDbLayerTableRecord
  2
TITLE
 70
     0
 62
     4
  6
CONTINUOUS
  0
ENDTAB
  0
TABLE
  2
STYLE
  5
67
330
0
100
AcDbSymbolTable
 70
     1
  0
STYLE
  5
16
330
67
100
AcDbSymbolTableRecord
100
AcDbTextStyleTableRecord
  2
STANDARD
 70
     0
 40
0.0
 41
1.0
 50
0.0
 71
     0
 42
2.0
  3
simplex.shx
  4
extfont.shx
  0
ENDTAB
  0
TABLE
  2
VIEW
  5
6C
330
0
100
AcDbSymbolTable
 70
     0
  0
ENDTAB
  0
TABLE
  2
UCS
  5
6D
330
0
100
AcDbSymbolTable
 70
     0
  0
ENDTAB
  0
TABLE
  2
APPID
  5
70
330
0
100
AcDbSymbolTable
 70
     1
  0
APPID
  5
71
330
70
100
AcDbSymbolTableRecord
100
AcDbRegAppTableRecord
  2
ACAD
 70
     0
  0
ENDTAB
  0
TABLE
  2
DIMSTYLE
  5
72
330
0
100
AcDbSymbolTable
 70
     1
  0
DIMSTYLE
105
73
330
72
100
AcDbSymbolTableRecord
100
AcDbDimStyleTableRecord
  2
STANDARD
 70
     0
  3

  4

  5

  6

  7

 40
2.0
 41
1.8
 42
0.625
 43
3.75
 44
0.8
 45
0.0
 46
0.0
 47
0.0
 48
0.0
140
1.8
141
2.5
142
0.0
143
0.0394
144
1.0
145
0.0
146
1.0
147
0.75
 71
     0
 72
     0
 73
     0
 74
     0
 75
     0
 76
     0
 77
     1
 78
     8
170
     0
171
     4
172
     1
173
     0
174
     0
175
     0
176
     0
177
     0
178
     0
270
     8
271
     2
272
     2
273
     8
274
     4
340
16
275
     0
280
     0
281
     0
282
     0
283
     1
284
     0
285
     0
286
     0
287
     3
288
     0
  0
ENDTAB
  0
TABLE
  2
BLOCK_RECORD
  5
1
330
0
100
AcDbSymbolTable
 70
    62
  0
BLOCK_RECORD
  5
2
102
{ACAD_XDICTIONARY
360
1DA8
102
}
330
1
100
AcDbSymbolTableRecord
100
AcDbBlockTableRecord
  2
*MODEL_SPACE
  0
BLOCK_RECORD
  5
1D81
102
{ACAD_XDICTIONARY
360
1DAA
102
}
330
1
100
AcDbSymbolTableRecord
100
AcDbBlockTableRecord
  2
*PAPER_SPACE
  0
ENDTAB
  0
ENDSEC
  0
SECTION
  2
BLOCKS
  0
BLOCK
  5
5D
330
2
100
AcDbEntity
  8
0
100
AcDbBlockBegin
  2
*MODEL_SPACE
 70
     0
 10
0.0
 20
0.0
 30
0.0
  3
*MODEL_SPACE
  1

  0
ENDBLK
  5
5F
330
2
100
AcDbEntity
  8
0
100
AcDbBlockEnd
  0
BLOCK
  5
1D83
330
1D81
100
AcDbEntity
 67
     1
  8
0
100
AcDbBlockBegin
  2
*PAPER_SPACE
 70
     0
 10
0.0
 20
0.0
 30
0.0
  3
*PAPER_SPACE
  1

  0
ENDBLK
  5
1D84
330
1D81
100
AcDbEntity
 67
     1
  8
0
100
AcDbBlockEnd
  0
ENDSEC
  0
SECTION
  2
ENTITIES
  0
LINE
  5
62D
330
2
100
AcDbEntity
  8
0
100
AcDbLine
 10
229.8862086362679
 20
355.1808121343984
 30
0.0
 11
259.1177156362679
 21
355.1808121343984
 31
0.0
  0
LINE
  5
62E
330
2
100
AcDbEntity
  8
0
100
AcDbLine
 10
229.8862086362679
 20
261.1808271343984
 30
0.0
 11
259.1177156362679
 21
261.1808271343984
 31
0.0
  0
LINE
  5
62F
330
2
100
AcDbEntity
  8
0
100
AcDbLine
 10
180.3927096362679
 20
277.1808271343984
 30
0.0
 11
260.3796936362679
 21
277.1808271343984
 31
0.0
  0
LINE
  5
630
330
2
100
AcDbEntity
  8
0
100
AcDbLine
 10
180.3927096362679
 20
339.1808121343984
 30
0.0
 11
260.3796936362679
 21
339.1808121343984
 31
0.0
  0
LINE
  5
631
330
2
100
AcDbEntity
  8
CENTER
100
AcDbLine
 10
39.88620163626796
 20
308.1808271343985
 30
0.0
 11
269.8862086362678
 21
308.1808271343983
 31
0.0
  0
ARC
  5
632
330
2
100
AcDbEntity
  8
0
100
AcDbCircle
 10
220.3862086362679
 20
99.6845132360973
 30
0.0
 40
42.5
100
AcDbArc
 50
19.749901
 51
160.2501069999997
  0
ARC
  5
633
330
2
100
AcDbEntity
  8
0
100
AcDbCircle
 10
220.3862086362679
 20
99.6845132360973
 30
0.0
 40
42.5
100
AcDbArc
 50
199.7498930000002
 51
340.2500920000002
  0
LINE
  5
634
330
2
100
AcDbEntity
  8
0
100
AcDbLine
 10
179.8862086362679
 20
55.68451223609731
 30
0.0
 11
260.8862086362679
 21
55.68451223609731
 31
0.0
  0
LINE
  5
635
330
2
100
AcDbEntity
  8
0
100
AcDbLine
 10
260.7585086362679
 20
127.4777752360973
 30
0.0
 11
236.6789946362679
 21
144.3771742360973
 31
0.0
  0
LINE
  5
636
330
2
100
AcDbEntity
  8
0
100
AcDbLine
 10
177.8862086362679
 20
47.68451223609732
 30
0.0
 11
262.8862086362679
 21
47.68451223609732
 31
0.0
  0
LINE
  5
637
330
2
100
AcDbEntity
  8
CENTER
100
AcDbLine
 10
193.6362711238662
 20
112.6845092360973
 30
0.0
 11
247.6361461486697
 21
112.6845092360973
 31
0.0
  0
LINE
  5
638
330
2
100
AcDbEntity
  8
0
100
AcDbLine
 10
105.3861516362678
 20
60.38451223609732
 30
0.0
 11
177.8862086362679
 21
60.38451223609732
 31
0.0
  0
LINE
  5
639
330
2
100
AcDbEntity
  8
0
100
AcDbLine
 10
105.3861516362678
 20
120.3845142360973
 30
0.0
 11
177.8862086362679
 21
120.3845142360973
 31
0.0
  0
LINE
  5
63A
330
2
100
AcDbEntity
  8
0
100
AcDbLine
 10
105.3862016362679
 20
52.38451223609732
 30
0.0
 11
177.8862086362679
 21
52.38451223609732
 31
0.0
  0
LINE
  5
63B
330
2
100
AcDbEntity
  8
0
100
AcDbLine
 10
105.3862016362679
 20
128.3845142360973
 30
0.0
 11
181.3059016362679
 21
128.3845142360973
 31
0.0
  0
LINE
  5
63C
330
2
100
AcDbEntity
  8
CENTER
100
AcDbLine
 10
39.88620163626796
 20
90.38451423609732
 30
0.0
 11
197.1362086362679
 21
90.38451423609732
 31
0.0
  0
LINE
  5
63D
330
2
100
AcDbEntity
  8
0
100
AcDbLine
 10
105.3862016362679
 20
52.38451223609732
 30
0.0
 11
105.3862016362679
 21
128.3845142360973
 31
0.0
  0
LINE
  5
63E
330
2
100
AcDbEntity
  8
0
100
AcDbLine
 10
46.88620163626796
 20
55.38451223609732
 30
0.0
 11
46.88620163626796
 21
125.3845142360973
 31
0.0
  0
LINE
  5
63F
330
2
100
AcDbEntity
  8
0
100
AcDbLine
 10
95.88620163626798
 20
50.38451223609732
 30
0.0
 11
95.88620163626798
 21
130.3845142360973
 31
0.0
  0
ARC
  5
640
330
2
100
AcDbEntity
  8
0
100
AcDbCircle
 10
51.88620163626797
 20
55.38451223609732
 30
0.0
 40
5.0
100
AcDbArc
 50
180.0
 51
270.0
  0
LINE
  5
642
330
2
100
AcDbEntity
  8
0
100
AcDbLine
 10
51.88620163626797
 20
50.38451223609732
 30
0.0
 11
95.88620163626798
 21
50.38451223609732
 31
0.0
  0
LINE
  5
643
330
2
100
AcDbEntity
  8
0
100
AcDbLine
 10
49.38620163626797
 20
66.38451223609732
 30
0.0
 11
95.88620163626798
 21
66.38451223609732
 31
0.0
  0
LINE
  5
644
330
2
100
AcDbEntity
  8
0
100
AcDbLine
 10
95.88620163626798
 20
60.13551223609733
 30
0.0
 11
105.3862016362679
 21
60.13551223609733
 31
0.0
  0
LINE
  5
645
330
2
100
AcDbEntity
  8
0
100
AcDbLine
 10
95.88620163626798
 20
52.38451223609732
 30
0.0
 11
105.3862016362679
 21
52.38451223609732
 31
0.0
  0
ARC
  5
646
330
2
100
AcDbEntity
  8
0
100
AcDbCircle
 10
51.88622163626792
 20
125.3845292360973
 30
0.0
 40
5.0
100
AcDbArc
 50
90.0
 51
180.0
  0
LINE
  5
647
330
2
100
AcDbEntity
  8
0
100
AcDbLine
 10
49.38620163626797
 20
116.3845142360973
 30
0.0
 11
95.88620163626798
 21
116.3845142360973
 31
0.0
  0
LINE
  5
648
330
2
100
AcDbEntity
  8
0
100
AcDbLine
 10
51.88620163626797
 20
130.3845142360973
 30
0.0
 11
95.88620163626798
 21
130.3845142360973
 31
0.0
  0
ARC
  5
649
330
2
100
AcDbEntity
  8
0
100
AcDbCircle
 10
95.88620163626798
 20
113.0095142360973
 30
0.0
 40
4.5
100
AcDbArc
 50
0.0
 51
90.0
  0
ARC
  5
64A
330
2
100
AcDbEntity
  8
0
100
AcDbCircle
 10
95.88620163626798
 20
113.0095142360973
 30
0.0
 40
3.0
100
AcDbArc
 50
0.0
 51
90.0
  0
ARC
  5
64B
330
2
100
AcDbEntity
  8
0
100
AcDbCircle
 10
95.88620163626798
 20
113.0095142360973
 30
0.0
 40
1.5
100
AcDbArc
 50
0.0
 51
90.0
  0
LINE
  5
64C
330
2
100
AcDbEntity
  8
0
100
AcDbLine
 10
95.88620163626798
 20
120.6335142360973
 30
0.0
 11
105.3862016362679
 21
120.6335142360973
 31
0.0
  0
LINE
  5
64D
330
2
100
AcDbEntity
  8
0
100
AcDbLine
 10
100.3862016362679
 20
113.0095142360973
 30
0.0
 11
100.3862016362679
 21
109.7866132360973
 31
0.0
  0
LINE
  5
64E
330
2
100
AcDbEntity
  8
0
100
AcDbLine
 10
98.88620163626796
 20
113.0095142360973
 30
0.0
 11
98.88620163626796
 21
107.9727132360973
 31
0.0
  0
LINE
  5
64F
330
2
100
AcDbEntity
  8
0
100
AcDbLine
 10
97.38620163626798
 20
113.0095142360973
 30
0.0
 11
97.38620163626798
 21
108.7669102360973
 31
0.0
  0
LINE
  5
650
330
2
100
AcDbEntity
  8
HOJO
100
AcDbLine
 10
98.88620163626796
 20
109.0074122360973
 30
0.0
 11
100.3862016362679
 21
109.7866132360973
 31
0.0
  0
LINE
  5
651
330
2
100
AcDbEntity
  8
HOJO
100
AcDbLine
 10
97.38860063626795
 20
108.7714122360973
 30
0.0
 11
98.88620163626796
 21
107.9727132360973
 31
0.0
  0
LINE
  5
652
330
2
100
AcDbEntity
  8
0
100
AcDbLine
 10
95.88620163626798
 20
128.3845142360973
 30
0.0
 11
105.3862016362679
 21
128.3845142360973
 31
0.0
  0
CIRCLE
  5
65D
330
2
100
AcDbEntity
  8
0
100
AcDbCircle
 10
220.3862086362679
 20
112.6845092360973
 30
0.0
 40
20.0
  0
LINE
  5
65E
330
2
100
AcDbEntity
  8
0
100
AcDbLine
 10
180.3862086362679
 20
114.0457842360973
 30
0.0
 11
180.3862086362679
 21
85.32297523609731
 31
0.0
  0
LINE
  5
65F
330
2
100
AcDbEntity
  8
CENTER
100
AcDbLine
 10
220.3862086362679
 20
152.2845152360972
 30
0.0
 11
220.386208636268
 21
40.68451223609733
 31
0.0
  0
LINE
  5
660
330
2
100
AcDbEntity
  8
0
100
AcDbLine
 10
177.8862086362679
 20
123.3851092360973
 30
0.0
 11
177.8862086362679
 21
47.68451223609732
 31
0.0
  0
ARC
  5
661
330
2
100
AcDbEntity
  8
0
100
AcDbCircle
 10
179.8862086362679
 20
53.68452223609732
 30
0.0
 40
2.0
100
AcDbArc
 50
90.0
 51
180.0
  0
LINE
  5
662
330
2
100
AcDbEntity
  8
HIDS
  6
SEKKEI_H
100
AcDbLine
 10
183.1362086362679
 20
55.68451223609731
 30
0.0
 11
183.1362086362679
 21
47.68451223609732
 31
0.0
  0
LINE
  5
663
330
2
100
AcDbEntity
  8
HIDS
  6
SEKKEI_H
100
AcDbLine
 10
189.6362086362679
 20
55.68451223609731
 30
0.0
 11
189.6362086362679
 21
47.68451223609732
 31
0.0
  0
LINE
  5
664
330
2
100
AcDbEntity
  8
CENTER
100
AcDbLine
 10
186.3862086362679
 20
59.1845122360973
 30
0.0
 11
186.3862086362679
 21
44.18451223609731
 31
0.0
  0
LINE
  5
665
330
2
100
AcDbEntity
  8
0
100
AcDbLine
 10
211.4213956362679
 20
82.23773523609731
 30
0.0
 11
214.0112086362679
 21
82.23773523609731
 31
0.0
  0
LINE
  5
666
330
2
100
AcDbEntity
  8
0
100
AcDbLine
 10
208.8660066362679
 20
76.6845132360973
 30
0.0
 11
212.1812986362679
 21
76.6845132360973
 31
0.0
  0
ARC
  5
667
330
2
100
AcDbEntity
  8
0
100
AcDbCircle
 10
211.0976046362679
 20
79.79730223609732
 30
0.0
 40
1.992186999999999
100
AcDbArc
 50
270.0002139999998
 51
0.0001089999998967
  0
LINE
  5
668
330
2
100
AcDbEntity
  8
0
100
AcDbLine
 10
213.0898066362679
 20
81.19183323609732
 30
0.0
 11
211.4213956362679
 21
81.19183323609732
 31
0.0
  0
LINE
  5
669
330
2
100
AcDbEntity
  8
0
100
AcDbLine
 10
208.7936036362679
 20
86.2470132360973
 30
0.0
 11
213.0802096362679
 21
86.2470132360973
 31
0.0
  0
LINE
  5
66A
330
2
100
AcDbEntity
  8
0
100
AcDbLine
 10
212.4986966362679
 20
84.97699323609731
 30
0.0
 11
209.4267976362679
 21
84.97699323609731
 31
0.0
  0
LINE
  5
66B
330
2
100
AcDbEntity
  8
0
100
AcDbLine
 10
208.7069946362679
 20
84.08449123609731
 30
0.0
 11
208.7069946362679
 21
78.5754312360973
 31
0.0
  0
LINE
  5
66C
330
2
100
AcDbEntity
  8
0
100
AcDbLine
 10
207.6362086362679
 20
84.76501423609732
 30
0.0
 11
207.6362086362679
 21
77.9253732360973
 31
0.0
  0
LINE
  5
66D
330
2
100
AcDbEntity
  8
0
100
AcDbLine
 10
207.6362086362679
 20
77.9253732360973
 30
0.0
 11
208.8660066362679
 21
76.6845132360973
 31
0.0
  0
LINE
  5
66E
330
2
100
AcDbEntity
  8
0
100
AcDbLine
 10
211.0976046362679
 20
77.80511323609733
 30
0.0
 11
209.4383026362679
 21
77.80511323609733
 31
0.0
  0
LINE
  5
66F
330
2
100
AcDbEntity
  8
0
100
AcDbLine
 10
208.7069946362679
 20
78.5754312360973
 30
0.0
 11
209.4383026362679
 21
77.80511323609733
 31
0.0
  0
LINE
  5
670
330
2
100
AcDbEntity
  8
0
100
AcDbLine
 10
208.7936036362679
 20
86.2470132360973
 30
0.0
 11
207.6362086362679
 21
84.76501423609732
 31
0.0
  0
LINE
  5
671
330
2
100
AcDbEntity
  8
0
100
AcDbLine
 10
211.4213956362679
 20
82.23773523609731
 30
0.0
 11
211.4213956362679
 21
81.19183323609732
 31
0.0
  0
LINE
  5
672
330
2
100
AcDbEntity
  8
0
100
AcDbLine
 10
209.4267976362679
 20
84.97699323609731
 30
0.0
 11
208.7069946362679
 21
84.08449123609731
 31
0.0
  0
LINE
  5
673
330
2
100
AcDbEntity
  8
0
100
AcDbLine
 10
228.3299956362678
 20
81.15448323609731
 30
0.0
 11
230.3705076362679
 21
81.15448323609731
 31
0.0
  0
LINE
  5
674
330
2
100
AcDbEntity
  8
0
100
AcDbLine
 10
228.3299956362678
 20
82.15034823609732
 30
0.0
 11
230.7847076362679
 21
82.15034823609732
 31
0.0
  0
LINE
  5
675
330
2
100
AcDbEntity
  8
0
100
AcDbLine
 10
228.3299956362678
 20
85.0766032360973
 30
0.0
 11
231.3048946362679
 21
85.0746652360973
 31
0.0
  0
LINE
  5
676
330
2
100
AcDbEntity
  8
0
100
AcDbLine
 10
228.7658016362679
 20
76.6845132360973
 30
0.0
 11
226.7612086362679
 21
76.6845132360973
 31
0.0
  0
LINE
  5
677
330
2
100
AcDbEntity
  8
0
100
AcDbLine
 10
228.3299956362678
 20
77.68060323609731
 30
0.0
 11
228.7658016362679
 21
77.68060323609731
 31
0.0
  0
LINE
  5
678
330
2
100
AcDbEntity
  8
0
100
AcDbLine
 10
226.7612086362679
 20
86.2470132360973
 30
0.0
 11
230.5837036362679
 21
86.2470132360973
 31
0.0
  0
LINE
  5
679
330
2
100
AcDbEntity
  8
0
100
AcDbLine
 10
219.2905056362679
 20
76.6845132360973
 30
0.0
 11
221.3574006362679
 21
76.6845132360973
 31
0.0
  0
LINE
  5
67A
330
2
100
AcDbEntity
  8
0
100
AcDbLine
 10
217.1987086362679
 20
86.2470132360973
 30
0.0
 11
223.5737086362679
 21
86.2470132360973
 31
0.0
  0
LINE
  5
67B
330
2
100
AcDbEntity
  8
0
100
AcDbLine
 10
213.0898066362679
 20
81.19183323609732
 30
0.0
 11
213.0898066362679
 21
79.79730223609732
 31
0.0
  0
LINE
  5
67C
330
2
100
AcDbEntity
  8
0
100
AcDbLine
 10
219.7636046362679
 20
85.0766032360973
 30
0.0
 11
219.7636046362679
 21
77.73041123609733
 31
0.0
  0
LINE
  5
67D
330
2
100
AcDbEntity
  8
0
100
AcDbLine
 10
214.0112086362679
 20
82.23773523609731
 30
0.0
 11
214.0112086362679
 21
76.6845132360973
 31
0.0
  0
LINE
  5
67E
330
2
100
AcDbEntity
  8
0
100
AcDbLine
 10
213.0898066362679
 20
77.44677123609733
 30
0.0
 11
212.1812986362679
 21
76.6845132360973
 31
0.0
  0
LINE
  5
67F
330
2
100
AcDbEntity
  8
0
100
AcDbLine
 10
213.0898066362679
 20
76.6845132360973
 30
0.0
 11
214.0112086362679
 21
76.6845132360973
 31
0.0
  0
LINE
  5
680
330
2
100
AcDbEntity
  8
0
100
AcDbLine
 10
213.0898066362679
 20
77.44677123609733
 30
0.0
 11
213.0898066362679
 21
76.6845132360973
 31
0.0
  0
LINE
  5
681
330
2
100
AcDbEntity
  8
0
100
AcDbLine
 10
213.0898066362679
 20
80.19574323609731
 30
0.0
 11
213.0898066362679
 21
80.99261823609731
 31
0.0
  0
LINE
  5
682
330
2
100
AcDbEntity
  8
0
100
AcDbLine
 10
219.2905056362679
 20
77.73041123609733
 30
0.0
 11
219.7636046362679
 21
77.73041123609733
 31
0.0
  0
LINE
  5
683
330
2
100
AcDbEntity
  8
0
100
AcDbLine
 10
219.2905056362679
 20
77.73041123609733
 30
0.0
 11
219.2905056362679
 21
76.6845132360973
 31
0.0
  0
LINE
  5
684
330
2
100
AcDbEntity
  8
0
100
AcDbLine
 10
213.0898066362679
 20
84.40554823609733
 30
0.0
 11
213.0898066362679
 21
84.2548252360973
 31
0.0
  0
LINE
  5
685
330
2
100
AcDbEntity
  8
0
100
AcDbLine
 10
214.0112086362679
 20
85.21387123609731
 30
0.0
 11
214.0112086362679
 21
84.2548252360973
 31
0.0
  0
LINE
  5
686
330
2
100
AcDbEntity
  8
0
100
AcDbLine
 10
213.0898066362679
 20
84.2548252360973
 30
0.0
 11
214.0112086362679
 21
84.2548252360973
 31
0.0
  0
LINE
  5
687
330
2
100
AcDbEntity
  8
0
100
AcDbLine
 10
213.0802096362679
 20
86.2470132360973
 30
0.0
 11
214.0112086362679
 21
85.21387123609731
 31
0.0
  0
LINE
  5
688
330
2
100
AcDbEntity
  8
0
100
AcDbLine
 10
213.0898066362679
 20
84.40554823609733
 30
0.0
 11
212.4865966362678
 21
84.97699323609731
 31
0.0
  0
LINE
  5
689
330
2
100
AcDbEntity
  8
0
100
AcDbLine
 10
219.7636046362679
 20
85.0766032360973
 30
0.0
 11
218.2486966362679
 21
85.0766032360973
 31
0.0
  0
LINE
  5
68A
330
2
100
AcDbEntity
  8
0
100
AcDbLine
 10
218.2486966362679
 20
85.0766032360973
 30
0.0
 11
217.9063046362679
 21
84.2548252360973
 31
0.0
  0
LINE
  5
68B
330
2
100
AcDbEntity
  8
0
100
AcDbLine
 10
217.1987086362679
 20
84.2548252360973
 30
0.0
 11
217.9063046362679
 21
84.2548252360973
 31
0.0
  0
LINE
  5
68C
330
2
100
AcDbEntity
  8
0
100
AcDbLine
 10
217.1987086362679
 20
84.2548252360973
 30
0.0
 11
217.1987086362679
 21
86.2470132360973
 31
0.0
  0
LINE
  5
68D
330
2
100
AcDbEntity
  8
0
100
AcDbLine
 10
228.3299956362678
 20
81.15448323609731
 30
0.0
 11
228.3299956362678
 21
77.68060323609731
 31
0.0
  0
LINE
  5
68E
330
2
100
AcDbEntity
  8
0
100
AcDbLine
 10
227.2343076362679
 20
85.0766032360973
 30
0.0
 11
227.2343076362679
 21
77.68060323609731
 31
0.0
  0
LINE
  5
68F
330
2
100
AcDbEntity
  8
0
100
AcDbLine
 10
220.9590086362679
 20
85.0766032360973
 30
0.0
 11
220.9590086362679
 21
77.73041123609733
 31
0.0
  0
LINE
  5
690
330
2
100
AcDbEntity
  8
0
100
AcDbLine
 10
221.3574006362679
 20
77.73041123609733
 30
0.0
 11
221.3574006362679
 21
76.6845132360973
 31
0.0
  0
LINE
  5
691
330
2
100
AcDbEntity
  8
0
100
AcDbLine
 10
220.9590086362679
 20
77.73041123609733
 30
0.0
 11
221.3574006362679
 21
77.73041123609733
 31
0.0
  0
LINE
  5
692
330
2
100
AcDbEntity
  8
0
100
AcDbLine
 10
226.7612086362679
 20
77.68060323609731
 30
0.0
 11
226.7612086362679
 21
76.6845132360973
 31
0.0
  0
LINE
  5
693
330
2
100
AcDbEntity
  8
0
100
AcDbLine
 10
226.7612086362679
 20
77.68060323609731
 30
0.0
 11
227.2343076362679
 21
77.68060323609731
 31
0.0
  0
LINE
  5
694
330
2
100
AcDbEntity
  8
0
100
AcDbLine
 10
220.9590086362679
 20
85.0766032360973
 30
0.0
 11
222.6200036362679
 21
85.0766032360973
 31
0.0
  0
LINE
  5
695
330
2
100
AcDbEntity
  8
0
100
AcDbLine
 10
222.6200036362679
 20
85.0766032360973
 30
0.0
 11
222.9087006362679
 21
84.2548252360973
 31
0.0
  0
LINE
  5
696
330
2
100
AcDbEntity
  8
0
100
AcDbLine
 10
222.9087006362679
 20
84.2548252360973
 30
0.0
 11
223.5737086362679
 21
84.2548252360973
 31
0.0
  0
LINE
  5
697
330
2
100
AcDbEntity
  8
0
100
AcDbLine
 10
223.5737086362679
 20
84.2548252360973
 30
0.0
 11
223.5737086362679
 21
86.2470132360973
 31
0.0
  0
LINE
  5
698
330
2
100
AcDbEntity
  8
0
100
AcDbLine
 10
226.7612086362679
 20
85.0766032360973
 30
0.0
 11
227.2343076362679
 21
85.0766032360973
 31
0.0
  0
LINE
  5
699
330
2
100
AcDbEntity
  8
0
100
AcDbLine
 10
228.3299956362678
 20
85.0766032360973
 30
0.0
 11
228.3299956362678
 21
82.15034823609732
 31
0.0
  0
LINE
  5
69A
330
2
100
AcDbEntity
  8
0
100
AcDbLine
 10
226.7612086362679
 20
86.2470132360973
 30
0.0
 11
226.7612086362679
 21
85.0766032360973
 31
0.0
  0
LINE
  5
69B
330
2
100
AcDbEntity
  8
0
100
AcDbLine
 10
230.3705076362679
 20
81.15448323609731
 30
0.0
 11
231.8655026362679
 21
77.68060323609731
 31
0.0
  0
LINE
  5
69C
330
2
100
AcDbEntity
  8
0
100
AcDbLine
 10
231.2880036362679
 20
81.24113423609731
 30
0.0
 11
232.8678986362679
 21
77.68060323609731
 31
0.0
  0
LINE
  5
69D
330
2
100
AcDbEntity
  8
0
100
AcDbLine
 10
231.6670016362678
 20
76.6845132360973
 30
0.0
 11
233.1362086362679
 21
76.6845132360973
 31
0.0
  0
LINE
  5
69E
330
2
100
AcDbEntity
  8
0
100
AcDbLine
 10
228.7658016362679
 20
77.68060323609731
 30
0.0
 11
228.7658016362679
 21
76.6845132360973
 31
0.0
  0
LINE
  5
69F
330
2
100
AcDbEntity
  8
0
100
AcDbLine
 10
231.6670016362678
 20
77.68060323609731
 30
0.0
 11
231.6670016362678
 21
76.6845132360973
 31
0.0
  0
LINE
  5
6A0
330
2
100
AcDbEntity
  8
0
100
AcDbLine
 10
231.6670016362678
 20
77.68060323609731
 30
0.0
 11
231.8655026362679
 21
77.68060323609731
 31
0.0
  0
LINE
  5
6A1
330
2
100
AcDbEntity
  8
0
100
AcDbLine
 10
233.1362086362679
 20
77.68060323609731
 30
0.0
 11
233.1362086362679
 21
76.6845132360973
 31
0.0
  0
LINE
  5
6A2
330
2
100
AcDbEntity
  8
0
100
AcDbLine
 10
232.8678986362679
 20
77.68060323609731
 30
0.0
 11
233.1362086362679
 21
77.68060323609731
 31
0.0
  0
ARC
  5
6A3
330
2
100
AcDbEntity
  8
0
100
AcDbCircle
 10
230.5837036362679
 20
83.69452323609733
 30
0.0
 40
2.55249
100
AcDbArc
 50
286.0181269999995
 51
90.00350999999964
  0
ARC
  5
6A4
330
2
100
AcDbEntity
  8
0
100
AcDbCircle
 10
230.5837036362679
 20
83.69452323609733
 30
0.0
 40
1.557193
100
AcDbArc
 50
277.4147259999995
 51
62.41184999999949
  0
ARC
  5
6A5
330
2
100
AcDbEntity
  8
0
100
AcDbCircle
 10
182.8862086362679
 20
123.3851322360973
 30
0.0
 40
5.0
100
AcDbArc
 50
125.0623019999999
 51
180.0
  0
LINE
  5
6A6
330
2
100
AcDbEntity
  8
0
100
AcDbLine
 10
206.9657076362679
 20
145.2845152360973
 30
0.0
 11
233.8066956362679
 21
145.2845152360973
 31
0.0
  0
LINE
  5
6A7
330
2
100
AcDbEntity
  8
0
100
AcDbLine
 10
180.0138946362678
 20
127.4777752360973
 30
0.0
 11
204.0933016362679
 21
144.3771592360973
 31
0.0
  0
ARC
  5
6A8
330
2
100
AcDbEntity
  8
0
100
AcDbCircle
 10
206.9657076362679
 20
140.2845232360973
 30
0.0
 40
5.0
100
AcDbArc
 50
90.0
 51
125.0622019999999
  0
LINE
  5
6A9
330
2
100
AcDbEntity
  8
0
100
AcDbLine
 10
224.8862086362679
 20
110.1845092360973
 30
0.0
 11
229.8862086362679
 21
110.1845092360973
 31
0.0
  0
LINE
  5
6AA
330
2
100
AcDbEntity
  8
0
100
AcDbLine
 10
224.8862086362679
 20
115.1845092360973
 30
0.0
 11
229.8862086362679
 21
115.1845092360973
 31
0.0
  0
ARC
  5
6AB
330
2
100
AcDbEntity
  8
0
100
AcDbCircle
 10
220.3862086362679
 20
112.6845092360973
 30
0.0
 40
7.5
100
AcDbArc
 50
19.47121000000005
 51
340.5288089999999
  0
LINE
  5
6AC
330
2
100
AcDbEntity
  8
0
100
AcDbLine
 10
224.8862086362679
 20
110.1845092360973
 30
0.0
 11
224.8862086362679
 21
115.1845092360973
 31
0.0
  0
LINE
  5
6AD
330
2
100
AcDbEntity
  8
0
100
AcDbLine
 10
229.8862086362679
 20
115.1845092360973
 30
0.0
 11
229.8862086362679
 21
110.1845092360973
 31
0.0
  0
ARC
  5
6AE
330
2
100
AcDbEntity
  8
0
100
AcDbCircle
 10
233.8068026362678
 20
140.2845002360973
 30
0.0
 40
5.0
100
AcDbArc
 50
54.93843100000013
 51
90.0
  0
LINE
  5
6AF
330
2
100
AcDbEntity
  8
0
100
AcDbLine
 10
146.3860036362679
 20
285.1808271343984
 30
0.0
 11
181.3058866362679
 21
285.1808271343984
 31
0.0
  0
LINE
  5
6B0
330
2
100
AcDbEntity
  8
0
100
AcDbLine
 10
105.3862016362679
 20
270.1808271343984
 30
0.0
 11
175.8862086362679
 21
270.1808271343984
 31
0.0
  0
LINE
  5
6B1
330
2
100
AcDbEntity
  8
0
100
AcDbLine
 10
146.3862016362033
 20
331.1808121343984
 30
0.0
 11
181.3058866362679
 21
331.1808121343984
 31
0.0
  0
LINE
  5
6B2
330
2
100
AcDbEntity
  8
0
100
AcDbLine
 10
175.8862086362679
 20
346.1808121343984
 30
0.0
 11
105.3862016362679
 21
346.1808121343984
 31
0.0
  0
LINE
  5
6B3
330
2
100
AcDbEntity
  8
0
100
AcDbLine
 10
46.88620163626796
 20
273.1808271343984
 30
0.0
 11
46.88620163626796
 21
343.1808121343984
 31
0.0
  0
LINE
  5
6B4
330
2
100
AcDbEntity
  8
0
100
AcDbLine
 10
95.88620163626798
 20
268.1808271343984
 30
0.0
 11
95.88620163626798
 21
300.6808271343984
 31
0.0
  0
LINE
  5
6B5
330
2
100
AcDbEntity
  8
0
100
AcDbLine
 10
105.3862016362679
 20
333.1808271343984
 30
0.0
 11
105.3862016362679
 21
346.1808121343984
 31
0.0
  0
ARC
  5
6B6
330
2
100
AcDbEntity
  8
0
100
AcDbCircle
 10
51.88620163626797
 20
273.1808271343984
 30
0.0
 40
5.0
100
AcDbArc
 50
180.0
 51
270.0
  0
LINE
  5
6B7
330
2
100
AcDbEntity
  8
0
100
AcDbLine
 10
51.88620163626797
 20
268.1808271343984
 30
0.0
 11
95.88620163626798
 21
268.1808271343984
 31
0.0
  0
LINE
  5
6B8
330
2
100
AcDbEntity
  8
0
100
AcDbLine
 10
49.38620163626797
 20
282.1808271343984
 30
0.0
 11
95.88620163626798
 21
282.1808271343984
 31
0.0
  0
LINE
  5
6B9
330
2
100
AcDbEntity
  8
0
100
AcDbLine
 10
105.3862016362679
 20
270.1808271343984
 30
0.0
 11
105.3862016362679
 21
283.1808271343985
 31
0.0
  0
ARC
  5
6BA
330
2
100
AcDbEntity
  8
0
100
AcDbCircle
 10
95.88620163626798
 20
276.4048881343984
 30
0.0
 40
4.5
100
AcDbArc
 50
0.0
 51
90.0
  0
ARC
  5
6BB
330
2
100
AcDbEntity
  8
0
100
AcDbCircle
 10
95.88620163626798
 20
276.4048881343984
 30
0.0
 40
3.0
100
AcDbArc
 50
0.0
 51
90.0
  0
ARC
  5
6BC
330
2
100
AcDbEntity
  8
0
100
AcDbCircle
 10
95.88620163626798
 20
276.4048881343984
 30
0.0
 40
1.5
100
AcDbArc
 50
0.0
 51
90.0
  0
LINE
  5
6BD
330
2
100
AcDbEntity
  8
0
100
AcDbLine
 10
95.88620163626798
 20
285.1808271343984
 30
0.0
 11
96.38609463626801
 21
285.1808271343984
 31
0.0
  0
LINE
  5
6BE
330
2
100
AcDbEntity
  8
0
100
AcDbLine
 10
95.88620163626798
 20
270.1808271343984
 30
0.0
 11
105.3862016362679
 21
270.1808271343984
 31
0.0
  0
LINE
  5
6BF
330
2
100
AcDbEntity
  8
0
100
AcDbLine
 10
100.3862016362679
 20
276.4048881343984
 30
0.0
 11
100.3862016362679
 21
273.1819871343984
 31
0.0
  0
LINE
  5
6C0
330
2
100
AcDbEntity
  8
0
100
AcDbLine
 10
98.88620163626796
 20
276.4048881343984
 30
0.0
 11
98.88620163626796
 21
271.3680831343984
 31
0.0
  0
LINE
  5
6C1
330
2
100
AcDbEntity
  8
0
100
AcDbLine
 10
97.38620163626798
 20
276.4048881343984
 30
0.0
 11
97.38620163626798
 21
272.1622881343984
 31
0.0
  0
LINE
  5
6C2
330
2
100
AcDbEntity
  8
HOJO
100
AcDbLine
 10
98.88620163626796
 20
272.4027821343984
 30
0.0
 11
100.3862016362679
 21
273.1819871343984
 31
0.0
  0
LINE
  5
6C3
330
2
100
AcDbEntity
  8
HOJO
100
AcDbLine
 10
97.38860063626795
 20
272.1667891343984
 30
0.0
 11
98.88620163626796
 21
271.3680831343984
 31
0.0
  0
ARC
  5
6D2
330
2
100
AcDbEntity
  8
0
100
AcDbCircle
 10
51.88622163626792
 20
343.1808431343984
 30
0.0
 40
5.0
100
AcDbArc
 50
90.0
 51
180.0
  0
LINE
  5
6D3
330
2
100
AcDbEntity
  8
0
100
AcDbLine
 10
49.38620163626797
 20
332.1808121343984
 30
0.0
 11
95.88620163626798
 21
332.1808121343984
 31
0.0
  0
LINE
  5
6D4
330
2
100
AcDbEntity
  8
0
100
AcDbLine
 10
51.88620163626797
 20
348.1808121343984
 30
0.0
 11
95.88620163626798
 21
348.1808121343984
 31
0.0
  0
LINE
  5
6D5
330
2
100
AcDbEntity
  8
0
100
AcDbLine
 10
95.88620163626798
 20
331.1808121343984
 30
0.0
 11
96.38609463626801
 21
331.1808121343984
 31
0.0
  0
LINE
  5
6D6
330
2
100
AcDbEntity
  8
0
100
AcDbLine
 10
95.88620163626798
 20
346.1808121343984
 30
0.0
 11
105.3862016362679
 21
346.1808121343984
 31
0.0
  0
LINE
  5
6D7
330
2
100
AcDbEntity
  8
0
100
AcDbLine
 10
181.3058866362679
 20
287.1808271343984
 30
0.0
 11
181.3058866362679
 21
329.1810871343983
 31
0.0
  0
LINE
  5
6D8
330
2
100
AcDbEntity
  8
0
100
AcDbLine
 10
205.3862086362679
 20
337.2157241343984
 30
0.0
 11
205.3862086362679
 21
279.1459151343985
 31
0.0
  0
LINE
  5
6D9
330
2
100
AcDbEntity
  8
0
100
AcDbLine
 10
235.3862086362679
 20
337.2157241343984
 30
0.0
 11
235.3862086362679
 21
279.1459151343985
 31
0.0
  0
LINE
  5
6DA
330
2
100
AcDbEntity
  8
CENTER
100
AcDbLine
 10
220.3862086362679
 20
379.1808121343984
 30
0.0
 11
220.386208636268
 21
237.1808271343985
 31
0.0
  0
ARC
  5
6DB
330
2
100
AcDbEntity
  8
0
100
AcDbCircle
 10
179.3862086362679
 20
275.8286701343984
 30
0.0
 40
1.5
100
AcDbArc
 50
73.28735399999994
 51
180.0
  0
ARC
  5
6DD
330
2
100
AcDbEntity
  8
0
100
AcDbCircle
 10
181.6545656362678
 20
264.1808271343984
 30
0.0
 40
3.0
100
AcDbArc
 50
180.9998470000002
 51
270.0
  0
ARC
  5
6DE
330
2
100
AcDbEntity
  8
0
100
AcDbCircle
 10
180.3927096362679
 20
279.1808271343984
 30
0.0
 40
2.0
100
AcDbArc
 50
181.0000000000001
 51
270.0
  0
LINE
  5
6DF
330
2
100
AcDbEntity
  8
0
100
AcDbLine
 10
178.6550226362679
 20
264.1284751343984
 30
0.0
 11
178.4306426362679
 21
276.9849201343983
 31
0.0
  0
LINE
  5
6E0
330
2
100
AcDbEntity
  8
0
100
AcDbLine
 10
178.3929376362679
 20
279.1459151343985
 30
0.0
 11
178.2876066362679
 21
285.1808271343984
 31
0.0
  0
LINE
  5
6E1
330
2
100
AcDbEntity
  8
0
100
AcDbLine
 10
177.8862086362679
 20
272.1808271343984
 30
0.0
 11
177.8862086362679
 21
275.8286701343984
 31
0.0
  0
ARC
  5
6E2
330
2
100
AcDbEntity
  8
0
100
AcDbCircle
 10
175.8862086362679
 20
272.1808271343984
 30
0.0
 40
2.0
100
AcDbArc
 50
270.0
 51
0.0
  0
LINE
  5
6E3
330
2
100
AcDbEntity
  8
0
100
AcDbLine
 10
227.8862086362679
 20
268.1808271343984
 30
0.0
 11
227.8862086362679
 21
271.1808271343984
 31
0.0
  0
LINE
  5
6E4
330
2
100
AcDbEntity
  8
0
100
AcDbLine
 10
212.8862086362679
 20
244.1808271343984
 30
0.0
 11
212.8862086362679
 21
271.1808271343984
 31
0.0
  0
CIRCLE
  5
6E5
330
2
100
AcDbEntity
  8
0
100
AcDbCircle
 10
186.3862086362679
 20
268.1808271343984
 30
0.0
 40
3.25
  0
LINE
  5
6E7
330
2
100
AcDbEntity
  8
0
100
AcDbLine
 10
181.6545656362678
 20
261.1808271343984
 30
0.0
 11
212.8862086362679
 21
261.1808271343984
 31
0.0
  0
LINE
  5
6E8
330
2
100
AcDbEntity
  8
0
100
AcDbLine
 10
227.4572076362679
 20
268.1808271343984
 30
0.0
 11
227.4572076362679
 21
244.1808271343984
 31
0.0
  0
LINE
  5
6E9
330
2
100
AcDbEntity
  8
0
100
AcDbLine
 10
229.8862086362679
 20
268.1808271343984
 30
0.0
 11
229.8862086362679
 21
244.1808271343984
 31
0.0
  0
LINE
  5
6EA
330
2
100
AcDbEntity
  8
0
100
AcDbLine
 10
212.8862086362679
 20
244.1808271343984
 30
0.0
 11
229.8862086362679
 21
244.1808271343984
 31
0.0
  0
LINE
  5
6EB
330
2
100
AcDbEntity
  8
0
100
AcDbLine
 10
227.4572076362679
 20
268.1808271343984
 30
0.0
 11
229.8862086362679
 21
268.1808271343984
 31
0.0
  0
LINE
  5
6EC
330
2
100
AcDbEntity
  8
0
100
AcDbLine
 10
239.3862086362679
 20
273.1808271343984
 30
0.0
 11
201.3862086362679
 21
273.1808271343984
 31
0.0
  0
LINE
  5
6ED
330
2
100
AcDbEntity
  8
0
100
AcDbLine
 10
211.8862086362679
 20
271.1808271343984
 30
0.0
 11
228.8862086362679
 21
271.1808271343984
 31
0.0
  0
LINE
  5
6EE
330
2
100
AcDbEntity
  8
0
100
AcDbLine
 10
200.3862086362679
 20
274.1808271343984
 30
0.0
 11
200.3862086362679
 21
277.1808271343984
 31
0.0
  0
ARC
  5
6EF
330
2
100
AcDbEntity
  8
0
100
AcDbCircle
 10
201.3862086362679
 20
274.1808271343984
 30
0.0
 40
1.0
100
AcDbArc
 50
180.0
 51
270.0
  0
LINE
  5
6F0
330
2
100
AcDbEntity
  8
0
100
AcDbLine
 10
211.8862086362679
 20
271.1808271343984
 30
0.0
 11
211.8862086362679
 21
273.1808271343984
 31
0.0
  0
LINE
  5
6F1
330
2
100
AcDbEntity
  8
0
100
AcDbLine
 10
228.8862086362679
 20
271.1808271343984
 30
0.0
 11
228.8862086362679
 21
273.1808271343984
 31
0.0
  0
LINE
  5
6F2
330
2
100
AcDbEntity
  8
0
100
AcDbLine
 10
240.3862086362679
 20
274.1808271343984
 30
0.0
 11
240.3862086362679
 21
277.1808271343984
 31
0.0
  0
ARC
  5
6F3
330
2
100
AcDbEntity
  8
0
100
AcDbCircle
 10
239.3862086362679
 20
274.1808271343984
 30
0.0
 40
1.0
100
AcDbArc
 50
270.0
 51
0.0
  0
ARC
  5
6F4
330
2
100
AcDbEntity
  8
0
100
AcDbCircle
 10
179.3862086362679
 20
340.5329851343984
 30
0.0
 40
1.5
100
AcDbArc
 50
180.0
 51
286.712646
  0
ARC
  5
6F6
330
2
100
AcDbEntity
  8
0
100
AcDbCircle
 10
181.6545656362678
 20
352.1808121343984
 30
0.0
 40
3.0
100
AcDbArc
 50
90.0
 51
179.0001529999997
  0
ARC
  5
6F7
330
2
100
AcDbEntity
  8
0
100
AcDbCircle
 10
180.3927096362679
 20
337.1808121343984
 30
0.0
 40
2.0
100
AcDbArc
 50
90.0
 51
178.9999999999998
  0
LINE
  5
6F8
330
2
100
AcDbEntity
  8
0
100
AcDbLine
 10
177.8862086362679
 20
344.1808121343984
 30
0.0
 11
177.8862086362679
 21
340.5329851343984
 31
0.0
  0
LINE
  5
6F9
330
2
100
AcDbEntity
  8
0
100
AcDbLine
 10
178.6550226362679
 20
352.2331801343984
 30
0.0
 11
178.4306426362679
 21
339.3767351343984
 31
0.0
  0
LINE
  5
6FA
330
2
100
AcDbEntity
  8
0
100
AcDbLine
 10
178.3929376362679
 20
337.2157241343984
 30
0.0
 11
178.2876066362679
 21
331.1808121343984
 31
0.0
  0
ARC
  5
6FB
330
2
100
AcDbEntity
  8
0
100
AcDbCircle
 10
175.8862086362679
 20
344.1808121343984
 30
0.0
 40
2.0
100
AcDbArc
 50
0.0
 51
90.0
  0
LINE
  5
6FC
330
2
100
AcDbEntity
  8
0
100
AcDbLine
 10
227.4572076362679
 20
348.1808121343984
 30
0.0
 11
227.4572076362679
 21
372.1808121343984
 31
0.0
  0
LINE
  5
6FD
330
2
100
AcDbEntity
  8
0
100
AcDbLine
 10
229.8862086362679
 20
348.1808121343984
 30
0.0
 11
229.8862086362679
 21
372.1808121343984
 31
0.0
  0
LINE
  5
6FE
330
2
100
AcDbEntity
  8
0
100
AcDbLine
 10
212.8862086362679
 20
372.1808121343984
 30
0.0
 11
212.8862086362679
 21
345.1808121343984
 31
0.0
  0
LINE
  5
6FF
330
2
100
AcDbEntity
  8
0
100
AcDbLine
 10
211.8862086362679
 20
345.1808121343984
 30
0.0
 11
228.8862086362679
 21
345.1808121343984
 31
0.0
  0
LINE
  5
700
330
2
100
AcDbEntity
  8
0
100
AcDbLine
 10
239.3862086362679
 20
343.1808121343984
 30
0.0
 11
201.3862086362679
 21
343.1808121343984
 31
0.0
  0
LINE
  5
701
330
2
100
AcDbEntity
  8
0
100
AcDbLine
 10
181.6545656362678
 20
355.1808121343984
 30
0.0
 11
212.8862086362679
 21
355.1808121343984
 31
0.0
  0
ARC
  5
702
330
2
100
AcDbEntity
  8
0
100
AcDbCircle
 10
201.3862086362679
 20
342.1808121343984
 30
0.0
 40
1.0
100
AcDbArc
 50
90.0
 51
180.0
  0
LINE
  5
704
330
2
100
AcDbEntity
  8
0
100
AcDbLine
 10
200.3862086362679
 20
342.1808121343984
 30
0.0
 11
200.3862086362679
 21
339.1808121343984
 31
0.0
  0
CIRCLE
  5
705
330
2
100
AcDbEntity
  8
0
100
AcDbCircle
 10
186.3862086362679
 20
348.1808121343984
 30
0.0
 40
3.25
  0
LINE
  5
706
330
2
100
AcDbEntity
  8
0
100
AcDbLine
 10
211.8862086362679
 20
345.1808121343984
 30
0.0
 11
211.8862086362679
 21
343.1808121343984
 31
0.0
  0
ARC
  5
707
330
2
100
AcDbEntity
  8
0
100
AcDbCircle
 10
239.3862086362679
 20
342.1808121343984
 30
0.0
 40
1.0
100
AcDbArc
 50
0.0
 51
90.0
  0
LINE
  5
708
330
2
100
AcDbEntity
  8
0
100
AcDbLine
 10
240.3862086362679
 20
342.1808121343984
 30
0.0
 11
240.3862086362679
 21
339.1808121343984
 31
0.0
  0
LINE
  5
709
330
2
100
AcDbEntity
  8
0
100
AcDbLine
 10
227.4572076362679
 20
348.1808121343984
 30
0.0
 11
229.8862086362679
 21
348.1808121343984
 31
0.0
  0
LINE
  5
70A
330
2
100
AcDbEntity
  8
0
100
AcDbLine
 10
227.8862086362679
 20
348.1808121343984
 30
0.0
 11
227.8862086362679
 21
345.1808121343984
 31
0.0
  0
LINE
  5
70B
330
2
100
AcDbEntity
  8
0
100
AcDbLine
 10
228.8862086362679
 20
345.1808121343984
 30
0.0
 11
228.8862086362679
 21
343.1808121343984
 31
0.0
  0
LINE
  5
70C
330
2
100
AcDbEntity
  8
0
100
AcDbLine
 10
212.8862086362679
 20
372.1808121343984
 30
0.0
 11
229.8862086362679
 21
372.1808121343984
 31
0.0
  0
LINE
  5
70D
330
2
100
AcDbEntity
  8
CENTER
100
AcDbLine
 10
362.8747508239037
 20
90.38451423609732
 30
0.0
 11
456.8747508239039
 21
90.38451423609732
 31
0.0
  0
LINE
  5
70E
330
2
100
AcDbEntity
  8
0
100
AcDbLine
 10
380.3808548239038
 20
125.9845202360972
 30
0.0
 11
439.3337658239038
 21
125.9845202360972
 31
0.0
  0
LINE
  5
70F
330
2
100
AcDbEntity
  8
0
100
AcDbLine
 10
380.8398698239037
 20
144.7776102360973
 30
0.0
 11
409.8747508239037
 21
145.2845232360973
 31
0.0
  0
LINE
  5
710
330
2
100
AcDbEntity
  8
0
100
AcDbLine
 10
362.8747508239038
 20
47.68451223609732
 30
0.0
 11
456.8747508239038
 21
47.68451223609732
 31
0.0
  0
LINE
  5
711
330
2
100
AcDbEntity
  8
CENTER
100
AcDbLine
 10
338.8747508239038
 20
112.6845092360973
 30
0.0
 11
480.8747508239036
 21
112.6845092360973
 31
0.0
  0
LINE
  5
712
330
2
100
AcDbEntity
  8
0
100
AcDbLine
 10
369.8747508239037
 20
68.45558123609731
 30
0.0
 11
369.8747508239037
 21
105.1845132360972
 31
0.0
  0
ARC
  5
713
330
2
100
AcDbEntity
  8
0
100
AcDbCircle
 10
409.8747508239037
 20
90.38451423609732
 30
0.0
 40
38.0
100
AcDbArc
 50
158.7057950000002
 51
215.3345029999996
  0
LINE
  5
714
330
2
100
AcDbEntity
  8
0
100
AcDbLine
 10
374.8747508239038
 20
93.68451323609731
 30
0.0
 11
374.8747508239038
 21
131.6845092360973
 31
0.0
  0
LINE
  5
715
330
2
100
AcDbEntity
  8
0
100
AcDbLine
 10
378.8747508239038
 20
58.68451223609731
 30
0.0
 11
378.8747508239038
 21
142.7779162360973
 31
0.0
  0
LINE
  5
716
330
2
100
AcDbEntity
  8
0
100
AcDbLine
 10
260.3862086362679
 20
114.0459132360973
 30
0.0
 11
260.3862086362679
 21
85.32337523609731
 31
0.0
  0
LINE
  5
717
330
2
100
AcDbEntity
  8
0
100
AcDbLine
 10
262.8862086362679
 20
123.3850932360972
 30
0.0
 11
262.8862086362679
 21
47.68451223609732
 31
0.0
  0
LINE
  5
718
330
2
100
AcDbEntity
  8
HIDS
  6
SEKKEI_H
100
AcDbLine
 10
251.1362086362679
 20
55.68451223609731
 30
0.0
 11
251.1362086362679
 21
47.68451223609732
 31
0.0
  0
LINE
  5
719
330
2
100
AcDbEntity
  8
HIDS
  6
SEKKEI_H
100
AcDbLine
 10
257.6362086362678
 20
55.68451223609731
 30
0.0
 11
257.6362086362678
 21
47.68451223609732
 31
0.0
  0
LINE
  5
71A
330
2
100
AcDbEntity
  8
CENTER
100
AcDbLine
 10
254.3862086362679
 20
59.1845122360973
 30
0.0
 11
254.3862086362679
 21
44.18451223609733
 31
0.0
  0
ARC
  5
71B
330
2
100
AcDbEntity
  8
0
100
AcDbCircle
 10
260.8862086362679
 20
53.68450223609731
 30
0.0
 40
2.0
100
AcDbArc
 50
0.0
 51
90.0
  0
LINE
  5
71C
330
2
100
AcDbEntity
  8
HIDS
  6
SEKKEI_H
100
AcDbLine
 10
366.6247508239038
 20
55.68451223609731
 30
0.0
 11
366.6247508239038
 21
47.68451223609732
 31
0.0
  0
LINE
  5
71D
330
2
100
AcDbEntity
  8
HIDS
  6
SEKKEI_H
100
AcDbLine
 10
373.1247508239038
 20
55.68451223609731
 30
0.0
 11
373.1247508239038
 21
47.68451223609732
 31
0.0
  0
LINE
  5
71E
330
2
100
AcDbEntity
  8
CENTER
100
AcDbLine
 10
369.8747508239038
 20
59.1845122360973
 30
0.0
 11
369.8747508239038
 21
44.18451223609731
 31
0.0
  0
LINE
  5
71F
330
2
100
AcDbEntity
  8
0
100
AcDbLine
 10
362.8747508239038
 20
53.68451223609731
 30
0.0
 11
362.8747508239038
 21
47.68451223609732
 31
0.0
  0
LINE
  5
720
330
2
100
AcDbEntity
  8
0
100
AcDbLine
 10
375.8747508239038
 20
55.68451223609731
 30
0.0
 11
364.8747508239038
 21
55.68451223609731
 31
0.0
  0
ARC
  5
721
330
2
100
AcDbEntity
  8
0
100
AcDbCircle
 10
364.8747508239038
 20
53.68452223609732
 30
0.0
 40
2.0
100
AcDbArc
 50
90.0
 51
180.0
  0
LINE
  5
722
330
2
100
AcDbEntity
  8
0
100
AcDbLine
 10
371.3392588239037
 20
64.92004223609732
 30
0.0
 11
378.6683608239037
 21
57.59093223609733
 31
0.0
  0
ARC
  5
723
330
2
100
AcDbEntity
  8
0
100
AcDbCircle
 10
375.8747508239038
 20
58.68450223609733
 30
0.0
 40
3.0
100
AcDbArc
 50
270.0
 51
0.0
  0
ARC
  5
724
330
2
100
AcDbEntity
  8
0
100
AcDbCircle
 10
374.8747508239038
 20
68.45561223609732
 30
0.0
 40
5.0
100
AcDbArc
 50
180.0
 51
225.0003970000001
  0
LINE
  5
725
330
2
100
AcDbEntity
  8
0
100
AcDbLine
 10
375.8747508239038
 20
92.68451323609729
 30
0.0
 11
378.8747508239038
 21
92.68451323609729
 31
0.0
  0
ARC
  5
726
330
2
100
AcDbEntity
  8
0
100
AcDbCircle
 10
375.8747508239038
 20
93.68450923609731
 30
0.0
 40
1.0
100
AcDbArc
 50
180.0
 51
270.0
  0
ARC
  5
727
330
2
100
AcDbEntity
  8
0
100
AcDbCircle
 10
257.8862086362679
 20
123.3850932360972
 30
0.0
 40
5.0
100
AcDbArc
 50
0.0
 51
54.93836999999954
  0
ARC
  5
728
330
2
100
AcDbEntity
  8
0
100
AcDbCircle
 10
367.3747508239038
 20
112.6845092360973
 30
0.0
 40
2.5
100
AcDbArc
 50
270.0
 51
0.0
  0
ARC
  5
729
330
2
100
AcDbEntity
  8
0
100
AcDbCircle
 10
367.3747508239038
 20
112.6845012360973
 30
0.0
 40
2.5
100
AcDbArc
 50
0.0
 51
90.0
  0
LINE
  5
72A
330
2
100
AcDbEntity
  8
0
100
AcDbLine
 10
345.8747508239038
 20
105.1845132360972
 30
0.0
 11
372.8747508239038
 21
105.1845132360972
 31
0.0
  0
LINE
  5
72B
330
2
100
AcDbEntity
  8
0
100
AcDbLine
 10
345.8747508239038
 20
120.1845092360973
 30
0.0
 11
372.8747508239038
 21
120.1845092360973
 31
0.0
  0
LINE
  5
72C
330
2
100
AcDbEntity
  8
0
100
AcDbLine
 10
345.8747508239038
 20
110.1845092360973
 30
0.0
 11
367.3747508239038
 21
110.1845092360973
 31
0.0
  0
LINE
  5
72D
330
2
100
AcDbEntity
  8
0
100
AcDbLine
 10
345.8747508239038
 20
115.1845092360973
 30
0.0
 11
367.3747508239038
 21
115.1845092360973
 31
0.0
  0
LINE
  5
72E
330
2
100
AcDbEntity
  8
0
100
AcDbLine
 10
345.8747508239038
 20
120.1845092360973
 30
0.0
 11
345.8747508239038
 21
105.1845132360972
 31
0.0
  0
LINE
  5
72F
330
2
100
AcDbEntity
  8
0
100
AcDbLine
 10
372.8747508239038
 20
121.1845092360973
 30
0.0
 11
372.8747508239038
 21
104.1845132360972
 31
0.0
  0
LINE
  5
730
330
2
100
AcDbEntity
  8
0
100
AcDbLine
 10
372.8747508239038
 20
104.1845132360972
 30
0.0
 11
374.8747508239038
 21
104.1845132360972
 31
0.0
  0
LINE
  5
731
330
2
100
AcDbEntity
  8
0
100
AcDbLine
 10
372.8747508239038
 20
121.1845092360973
 30
0.0
 11
374.8747508239038
 21
121.1845092360973
 31
0.0
  0
LINE
  5
732
330
2
100
AcDbEntity
  8
0
100
AcDbLine
 10
375.8747508239038
 20
132.6845092360973
 30
0.0
 11
378.8747508239038
 21
132.6845092360973
 31
0.0
  0
ARC
  5
733
330
2
100
AcDbEntity
  8
0
100
AcDbCircle
 10
375.8747508239038
 20
131.6845092360973
 30
0.0
 40
1.0
100
AcDbArc
 50
90.0
 51
180.0
  0
ARC
  5
734
330
2
100
AcDbEntity
  8
0
100
AcDbCircle
 10
380.8747508239038
 20
142.7779232360973
 30
0.0
 40
2.0
100
AcDbArc
 50
91.00064099999967
 51
180.0
  0
LINE
  5
735
330
2
100
AcDbEntity
  8
0
100
AcDbLine
 10
449.8747508239038
 20
67.38451223609732
 30
0.0
 11
449.8747508239038
 21
105.1845132360972
 31
0.0
  0
ARC
  5
736
330
2
100
AcDbEntity
  8
0
100
AcDbCircle
 10
409.8747508239037
 20
90.38451423609732
 30
0.0
 40
38.0
100
AcDbArc
 50
324.6655309999995
 51
21.29424099999966
  0
LINE
  5
737
330
2
100
AcDbEntity
  8
0
100
AcDbLine
 10
444.8747508239038
 20
93.68451323609731
 30
0.0
 11
444.8747508239038
 21
131.6845092360973
 31
0.0
  0
LINE
  5
738
330
2
100
AcDbEntity
  8
0
100
AcDbLine
 10
440.8747508239038
 20
58.68451223609731
 30
0.0
 11
440.8747508239038
 21
142.7780222360973
 31
0.0
  0
LINE
  5
739
330
2
100
AcDbEntity
  8
CENTER
100
AcDbLine
 10
409.8747508239037
 20
40.6845122360973
 30
0.0
 11
409.8747508239037
 21
166.2720122360973
 31
0.0
  0
LINE
  5
73A
330
2
100
AcDbEntity
  8
HIDS
  6
SEKKEI_H
100
AcDbLine
 10
446.6247508239038
 20
55.68451223609731
 30
0.0
 11
446.6247508239038
 21
47.68451223609732
 31
0.0
  0
LINE
  5
73B
330
2
100
AcDbEntity
  8
HIDS
  6
SEKKEI_H
100
AcDbLine
 10
453.1247508239037
 20
55.68451223609731
 30
0.0
 11
453.1247508239037
 21
47.68451223609732
 31
0.0
  0
LINE
  5
73C
330
2
100
AcDbEntity
  8
CENTER
100
AcDbLine
 10
449.8747508239038
 20
59.1845122360973
 30
0.0
 11
449.8747508239037
 21
44.1845122360973
 31
0.0
  0
LINE
  5
73D
330
2
100
AcDbEntity
  8
0
100
AcDbLine
 10
456.8747508239038
 20
53.68451223609731
 30
0.0
 11
456.8747508239038
 21
47.68451223609732
 31
0.0
  0
LINE
  5
73E
330
2
100
AcDbEntity
  8
0
100
AcDbLine
 10
443.8747508239038
 20
55.68451223609731
 30
0.0
 11
454.8747508239038
 21
55.68451223609731
 31
0.0
  0
LINE
  5
73F
330
2
100
AcDbEntity
  8
0
100
AcDbLine
 10
440.8747508239038
 20
61.98754323609731
 30
0.0
 11
443.2717548239038
 21
64.38451223609732
 31
0.0
  0
ARC
  5
740
330
2
100
AcDbEntity
  8
0
100
AcDbCircle
 10
443.8747508239038
 20
58.68451223609731
 30
0.0
 40
3.0
100
AcDbArc
 50
180.0
 51
270.0
  0
LINE
  5
741
330
2
100
AcDbEntity
  8
0
100
AcDbLine
 10
446.8747508239037
 20
64.38451223609732
 30
0.0
 11
443.2717548239038
 21
64.38451223609732
 31
0.0
  0
ARC
  5
742
330
2
100
AcDbEntity
  8
0
100
AcDbCircle
 10
446.8747508239037
 20
67.38450223609731
 30
0.0
 40
3.0
100
AcDbArc
 50
270.0
 51
0.0
  0
ARC
  5
743
330
2
100
AcDbEntity
  8
0
100
AcDbCircle
 10
454.8747508239038
 20
53.68450223609731
 30
0.0
 40
2.0
100
AcDbArc
 50
0.0
 51
90.0
  0
LINE
  5
744
330
2
100
AcDbEntity
  8
0
100
AcDbLine
 10
443.8747508239038
 20
92.68451323609729
 30
0.0
 11
440.8747508239038
 21
92.68451323609729
 31
0.0
  0
ARC
  5
745
330
2
100
AcDbEntity
  8
0
100
AcDbCircle
 10
443.8747508239038
 20
93.68450923609731
 30
0.0
 40
1.0
100
AcDbArc
 50
270.0
 51
0.0
  0
LINE
  5
746
330
2
100
AcDbEntity
  8
0
100
AcDbLine
 10
473.8747508239036
 20
110.1845092360973
 30
0.0
 11
452.3747508239038
 21
110.1845092360973
 31
0.0
  0
LINE
  5
747
330
2
100
AcDbEntity
  8
0
100
AcDbLine
 10
473.8747508239036
 20
115.1845092360973
 30
0.0
 11
452.3747508239038
 21
115.1845092360973
 31
0.0
  0
LINE
  5
748
330
2
100
AcDbEntity
  8
0
100
AcDbLine
 10
473.8747508239036
 20
105.1845132360972
 30
0.0
 11
446.8747508239037
 21
105.1845132360972
 31
0.0
  0
LINE
  5
749
330
2
100
AcDbEntity
  8
0
100
AcDbLine
 10
473.8747508239036
 20
120.1845092360973
 30
0.0
 11
446.8747508239037
 21
120.1845092360973
 31
0.0
  0
LINE
  5
74A
330
2
100
AcDbEntity
  8
0
100
AcDbLine
 10
438.9096638239037
 20
144.7777252360973
 30
0.0
 11
409.8747508239037
 21
145.2845232360973
 31
0.0
  0
ARC
  5
74B
330
2
100
AcDbEntity
  8
0
100
AcDbCircle
 10
452.3747508239038
 20
112.6845092360973
 30
0.0
 40
2.5
100
AcDbArc
 50
180.0
 51
270.0
  0
ARC
  5
74C
330
2
100
AcDbEntity
  8
0
100
AcDbCircle
 10
452.3747508239038
 20
112.6845012360973
 30
0.0
 40
2.5
100
AcDbArc
 50
90.0
 51
180.0
  0
LINE
  5
74D
330
2
100
AcDbEntity
  8
0
100
AcDbLine
 10
446.8747508239037
 20
121.1845092360973
 30
0.0
 11
446.8747508239037
 21
104.1845132360972
 31
0.0
  0
LINE
  5
74E
330
2
100
AcDbEntity
  8
0
100
AcDbLine
 10
444.8747508239038
 20
104.1845132360972
 30
0.0
 11
446.8747508239037
 21
104.1845132360972
 31
0.0
  0
LINE
  5
74F
330
2
100
AcDbEntity
  8
0
100
AcDbLine
 10
444.8747508239038
 20
121.1845092360973
 30
0.0
 11
446.8747508239037
 21
121.1845092360973
 31
0.0
  0
LINE
  5
750
330
2
100
AcDbEntity
  8
0
100
AcDbLine
 10
443.8747508239038
 20
132.6845092360973
 30
0.0
 11
440.8747508239038
 21
132.6845092360973
 31
0.0
  0
ARC
  5
751
330
2
100
AcDbEntity
  8
0
100
AcDbCircle
 10
443.8747508239038
 20
131.6845092360973
 30
0.0
 40
1.0
100
AcDbArc
 50
0.0
 51
90.0
  0
ARC
  5
752
330
2
100
AcDbEntity
  8
0
100
AcDbCircle
 10
438.8747508239037
 20
142.7780222360973
 30
0.0
 40
2.0
100
AcDbArc
 50
0.0
 51
89.00013700000007
  0
LINE
  5
753
330
2
100
AcDbEntity
  8
0
100
AcDbLine
 10
473.8747508239036
 20
120.1845092360973
 30
0.0
 11
473.8747508239036
 21
105.1845132360972
 31
0.0
  0
LINE
  5
755
330
2
100
AcDbEntity
  8
0
100
AcDbLine
 10
262.1172576362679
 20
352.2331801343984
 30
0.0
 11
262.8862086362679
 21
308.1808271343984
 31
0.0
  0
CIRCLE
  5
756
330
2
100
AcDbEntity
  8
0
100
AcDbCircle
 10
254.3862086362679
 20
268.1808271343984
 30
0.0
 40
3.25
  0
LINE
  5
758
330
2
100
AcDbEntity
  8
0
100
AcDbLine
 10
262.1172576362679
 20
264.1284591343984
 30
0.0
 11
262.8862086362679
 21
308.1808271343984
 31
0.0
  0
ARC
  5
75A
330
2
100
AcDbEntity
  8
0
100
AcDbCircle
 10
259.1177156362679
 20
264.1808271343984
 30
0.0
 40
3.0
100
AcDbArc
 50
270.0
 51
358.9999999999998
  0
ARC
  5
75B
330
2
100
AcDbEntity
  8
0
100
AcDbCircle
 10
260.3796936362679
 20
279.1808271343984
 30
0.0
 40
2.0
100
AcDbArc
 50
270.0
 51
358.9999999999998
  0
LINE
  5
75C
330
2
100
AcDbEntity
  8
CENTER
100
AcDbLine
 10
254.3862086362679
 20
353.8894333428602
 30
0.0
 11
254.3862086362679
 21
342.4721909259366
 31
0.0
  0
ARC
  5
75D
330
2
100
AcDbEntity
  8
0
100
AcDbCircle
 10
260.3796936362679
 20
337.1808121343984
 30
0.0
 40
2.0
100
AcDbArc
 50
1.000000000000147
 51
90.0
  0
LINE
  5
75E
330
2
100
AcDbEntity
  8
CENTER
100
AcDbLine
 10
248.677587427806
 20
348.1808121343984
 30
0.0
 11
260.0948298447296
 21
348.1808121343984
 31
0.0
  0
ARC
  5
75F
330
2
100
AcDbEntity
  8
0
100
AcDbCircle
 10
259.1177156362679
 20
352.1808121343984
 30
0.0
 40
3.0
100
AcDbArc
 50
1.000000000000147
 51
90.0
  0
CIRCLE
  5
760
330
2
100
AcDbEntity
  8
0
100
AcDbCircle
 10
254.3862086362679
 20
348.1808121343984
 30
0.0
 40
3.25
  0
LINE
  5
88E
330
2
100
AcDbEntity
  8
CENTER
100
AcDbLine
 10
180.6775874278061
 20
348.1808121343984
 30
0.0
 11
192.0948298447297
 21
348.1808121343984
 31
0.0
  0
LINE
  5
88F
330
2
100
AcDbEntity
  8
CENTER
100
AcDbLine
 10
186.3862086362679
 20
353.8894333428602
 30
0.0
 11
186.3862086362679
 21
342.4721909259366
 31
0.0
  0
LINE
  5
890
330
2
100
AcDbEntity
  8
CENTER
100
AcDbLine
 10
180.6775874278061
 20
268.1808271343984
 30
0.0
 11
192.0948298447297
 21
268.1808271343984
 31
0.0
  0
LINE
  5
891
330
2
100
AcDbEntity
  8
CENTER
100
AcDbLine
 10
186.3862086362679
 20
273.8894483428602
 30
0.0
 11
186.3862086362679
 21
262.4722059259366
 31
0.0
  0
LINE
  5
892
330
2
100
AcDbEntity
  8
CENTER
100
AcDbLine
 10
248.677587427806
 20
268.1808271343984
 30
0.0
 11
260.0948298447296
 21
268.1808271343984
 31
0.0
  0
LINE
  5
893
330
2
100
AcDbEntity
  8
CENTER
100
AcDbLine
 10
254.3862086362679
 20
273.8894483428602
 30
0.0
 11
254.3862086362679
 21
262.4722059259366
 31
0.0
  0
TEXT
  5
8AA
330
2
100
AcDbEntity
  8
TITLE
100
AcDbText
 10
389.2627919427221
 20
289.5629199937054
 30
0.0
 40
5.0
  1
HLMN-15T-10~120-S40WT
 41
0.8
100
AcDbText
  0
TEXT
  5
8AB
330
2
100
AcDbEntity
  8
TITLE
100
AcDbText
 10
389.2627919427221
 20
305.5629199937054
 30
0.0
 40
5.0
  1
HLMN-15T-10~240-S25WT
 41
0.8
100
AcDbText
  0
TEXT
  5
8AC
330
2
100
AcDbEntity
  8
TITLE
100
AcDbText
 10
389.2627919427221
 20
297.5629199937054
 30
0.0
 40
5.0
  1
HLMN-15T-10~120-S40T
 41
0.8
100
AcDbText
  0
TEXT
  5
8AD
330
2
100
AcDbEntity
  8
TITLE
100
AcDbText
 10
389.2627919427221
 20
313.5629199937054
 30
0.0
 40
5.0
  1
HLMN-15T-10~240-S25T
 41
0.8
100
AcDbText
  0
TEXT
  5
8AE
330
2
100
AcDbEntity
  8
TITLE
100
AcDbText
 10
389.2627919427221
 20
321.5629199937054
 30
0.0
 40
5.0
  1
HLMN-15T-10~240-S15WT
 41
0.8
100
AcDbText
  0
TEXT
  5
8AF
330
2
100
AcDbEntity
  8
TITLE
100
AcDbText
 10
389.2627919427221
 20
329.5629199937054
 30
0.0
 40
5.0
  1
HLMN-15T-10~240-S15T
 41
0.8
100
AcDbText
  0
TEXT
  5
8B0
330
2
100
AcDbEntity
  8
TITLE
100
AcDbText
 10
296.3607557335588
 20
289.5629199937054
 30
0.0
 40
5.0
  1
HLMN-15T-10~120-T40WT
 41
0.8
100
AcDbText
  0
TEXT
  5
8B1
330
2
100
AcDbEntity
  8
TITLE
100
AcDbText
 10
296.3607557335588
 20
281.5629199937054
 30
0.0
 40
5.0
  1
HLMN-15T-10~60-T60T
 41
0.8
100
AcDbText
  0
TEXT
  5
8B2
330
2
100
AcDbEntity
  8
TITLE
100
AcDbText
 10
296.3607557335588
 20
297.5629199937054
 30
0.0
 40
5.0
  1
HLMN-15T-10~120-T40T
 41
0.8
100
AcDbText
  0
TEXT
  5
8B3
330
2
100
AcDbEntity
  8
TITLE
100
AcDbText
 10
296.3607557335588
 20
305.5629199937054
 30
0.0
 40
5.0
  1
HLMN-15T-10~240-T25WT
 41
0.8
100
AcDbText
  0
TEXT
  5
8B4
330
2
100
AcDbEntity
  8
TITLE
100
AcDbText
 10
296.3607557335588
 20
321.5629199937054
 30
0.0
 40
5.0
  1
HLMN-15T-10~240-T15WT
 41
0.8
100
AcDbText
  0
TEXT
  5
8B5
330
2
100
AcDbEntity
  8
TITLE
100
AcDbText
 10
296.3607557335588
 20
313.5629199937054
 30
0.0
 40
5.0
  1
HLMN-15T-10~240-T25T
 41
0.8
100
AcDbText
  0
TEXT
  5
8B6
330
2
100
AcDbEntity
  8
TITLE
100
AcDbText
 10
296.3607557335588
 20
329.5629199937054
 30
0.0
 40
5.0
  1
HLMN-15T-10~240-T15T
 41
0.8
100
AcDbText
  0
LINE
  5
1B82
330
2
100
AcDbEntity
  8
0
100
AcDbLine
 10
104.3861950648389
 20
160.8845122360972
 30
0.0
 11
103.8861950648389
 21
160.3845122360972
 31
0.0
  0
LINE
  5
1B84
330
2
100
AcDbEntity
  8
CENTER
100
AcDbLine
 10
88.44244563626796
 20
151.3845122360973
 30
0.0
 11
150.3385046000061
 21
151.3845122360973
 31
0.0
  0
LINE
  5
1B85
330
2
100
AcDbEntity
  8
0
100
AcDbLine
 10
103.8861950648389
 20
159.8845122360973
 30
0.0
 11
146.386208636268
 21
159.8845122360973
 31
0.0
  0
LINE
  5
1B86
330
2
100
AcDbEntity
  8
0
100
AcDbLine
 10
96.38619463626799
 20
131.8845142360973
 30
0.0
 11
146.3862016362679
 21
131.8845142360973
 31
0.0
  0
LINE
  5
1B87
330
2
100
AcDbEntity
  8
0
100
AcDbLine
 10
94.38619463626798
 20
141.8845142360973
 30
0.0
 11
146.3862016362679
 21
141.8845142360973
 31
0.0
  0
LINE
  5
1B88
330
2
100
AcDbEntity
  8
0
100
AcDbLine
 10
97.88619463626799
 20
129.8845142360973
 30
0.0
 11
144.3862016362679
 21
129.8845142360973
 31
0.0
  0
LINE
  5
1B89
330
2
100
AcDbEntity
  8
0
100
AcDbLine
 10
101.2241104522935
 20
160.8845122360973
 30
0.0
 11
145.3862016362679
 21
160.8845122360973
 31
0.0
  0
LINE
  5
1B8C
330
2
100
AcDbEntity
  8
0
100
AcDbLine
 10
103.8861950648389
 20
158.3845122360972
 30
0.0
 11
103.8861950648389
 21
160.3845122360972
 31
0.0
  0
SPLINE
  5
1B8D
330
2
100
AcDbEntity
  8
0
100
AcDbSpline
210
0.0
220
0.0
230
1.0
 70
     8
 71
     3
 72
    11
 73
     7
 74
     0
 42
0.0000000001
 43
0.0000000001
 40
0.0
 40
0.0
 40
0.0
 40
0.0
 40
0.4601364636755307
 40
1.04988694485363
 40
1.713742833862792
 40
2.320347933405154
 40
2.320347933405154
 40
2.320347933405154
 40
2.320347933405179
 10
100.173701636723
 20
159.4675122360972
 30
0.0
 10
100.1961192938309
 20
159.6225356757771
 30
0.0
 10
100.2472693490642
 20
159.9762504936946
 30
0.0
 10
100.6831545105978
 20
160.4009781652963
 30
0.0
 10
101.2882052256052
 20
160.6201653452621
 30
0.0
 10
101.7133898497811
 20
160.5511740456514
 30
0.0
 10
101.9159414594321
 20
160.5369537734748
 30
0.0
  0
LINE
  5
1B8E
330
2
100
AcDbEntity
  8
0
100
AcDbLine
 10
96.38619463626799
 20
159.8845122360973
 30
0.0
 11
97.38619463626799
 21
160.8845122360973
 31
0.0
  0
LINE
  5
1B8F
330
2
100
AcDbEntity
  8
0
100
AcDbLine
 10
97.38619506483894
 20
160.8845122360972
 30
0.0
 11
96.38619463626799
 21
159.8845122360973
 31
0.0
  0
ARC
  5
1B90
330
2
100
AcDbEntity
  8
0
100
AcDbCircle
 10
97.77919088267504
 20
159.3906249603435
 30
0.0
 40
1.3
100
AcDbArc
 50
105.8808500082775
 51
175.0000000000002
  0
SPLINE
  5
1B91
330
2
100
AcDbEntity
  8
0
100
AcDbSpline
210
0.0
220
0.0
230
1.0
 70
     8
 71
     3
 72
    11
 73
     7
 74
     0
 42
0.0000000001
 43
0.0000000001
 40
0.0
 40
0.0
 40
0.0
 40
0.0
 40
0.4601364636755307
 40
1.04988694485363
 40
1.713742833862792
 40
2.320347933405154
 40
2.320347933405154
 40
2.320347933405154
 40
2.320347933405179
 10
99.59870163581308
 20
159.4675122360972
 30
0.0
 10
99.5762839787052
 20
159.6225356757771
 30
0.0
 10
99.52513392347192
 20
159.9762504936946
 30
0.0
 10
99.08924876193829
 20
160.4009781652963
 30
0.0
 10
98.48419804693094
 20
160.6201653452621
 30
0.0
 10
98.05901342275502
 20
160.5511740456514
 30
0.0
 10
97.85646181310404
 20
160.5369537734748
 30
0.0
  0
ARC
  5
1B92
330
2
100
AcDbEntity
  8
0
100
AcDbCircle
 10
101.9932123898608
 20
159.3906249603435
 30
0.0
 40
1.3
100
AcDbArc
 50
4.999999999999743
 51
74.11914999172243
  0
LINE
  5
1B9B
330
2
100
AcDbEntity
  8
0
100
AcDbLine
 10
96.38619463626799
 20
159.8845122360973
 30
0.0
 11
96.38619463626799
 21
131.8845142360973
 31
0.0
  0
LINE
  5
1B9C
330
2
100
AcDbEntity
  8
0
100
AcDbLine
 10
97.88619463626799
 20
129.8845142360973
 30
0.0
 11
97.88619463626799
 21
128.3845142360973
 31
0.0
  0
LINE
  5
1B9D
330
2
100
AcDbEntity
  8
0
100
AcDbLine
 10
96.38619463626799
 20
131.8845142360973
 30
0.0
 11
98.38619463626798
 21
129.8845142360973
 31
0.0
  0
LINE
  5
1B9E
330
2
100
AcDbEntity
  8
0
100
AcDbLine
 10
90.88620963626794
 20
155.3845122360973
 30
0.0
 11
90.88620963626794
 21
147.3845122360973
 31
0.0
  0
LINE
  5
1B9F
330
2
100
AcDbEntity
  8
0
100
AcDbLine
 10
94.38620963626794
 20
157.8845122360973
 30
0.0
 11
94.38619463626798
 21
141.8845142360973
 31
0.0
  0
LINE
  5
1BA0
330
2
100
AcDbEntity
  8
0
100
AcDbLine
 10
90.88619463626798
 20
147.3845122360973
 30
0.0
 11
94.38619463626798
 21
145.8845122360973
 31
0.0
  0
ARC
  5
1BA1
330
2
100
AcDbEntity
  8
0
100
AcDbCircle
 10
95.38620963626796
 20
157.8845122360973
 30
0.0
 40
1.0
100
AcDbArc
 50
90.0
 51
180.0
  0
LINE
  5
1BA2
330
2
100
AcDbEntity
  8
0
100
AcDbLine
 10
90.88620963626794
 20
155.3845122360973
 30
0.0
 11
94.38620963626794
 21
156.8845122360973
 31
0.0
  0
LINE
  5
1BA3
330
2
100
AcDbEntity
  8
0
100
AcDbLine
 10
100.173701636723
 20
159.4675122360972
 30
0.0
 11
99.59870163581308
 21
159.4675122360972
 31
0.0
  0
LINE
  5
1BA4
330
2
100
AcDbEntity
  8
0
100
AcDbLine
 10
103.3862016362679
 20
158.3845122360972
 30
0.0
 11
103.2882654973801
 21
159.5039274259155
 31
0.0
  0
LINE
  5
1BA5
330
2
100
AcDbEntity
  8
0
100
AcDbLine
 10
95.38619463626799
 20
158.8845122360973
 30
0.0
 11
96.38619463626799
 21
158.8845122360973
 31
0.0
  0
LINE
  5
1BA6
330
2
100
AcDbEntity
  8
0
100
AcDbLine
 10
96.38620163626809
 20
158.3845122360972
 30
0.0
 11
96.48413777515589
 21
159.5039274259155
 31
0.0
  0
LINE
  5
1BA7
330
2
100
AcDbEntity
  8
0
100
AcDbLine
 10
103.8861950648389
 20
158.3845122360972
 30
0.0
 11
96.38619506483895
 21
158.3845122360972
 31
0.0
  0
LINE
  5
1BAA
330
2
100
AcDbEntity
  8
0
100
AcDbLine
 10
101.9159414594321
 20
160.5369537734748
 30
0.0
 11
101.9362016362681
 21
160.7479305189364
 31
0.0
  0
LINE
  5
1BAB
330
2
100
AcDbEntity
  8
0
100
AcDbLine
 10
97.38619463626799
 20
160.8845122360973
 30
0.0
 11
98.54829282024264
 21
160.8845122360973
 31
0.0
  0
LINE
  5
1BAC
330
2
100
AcDbEntity
  8
0
100
AcDbLine
 10
97.85646181310404
 20
160.5369537734748
 30
0.0
 11
97.83620163626801
 21
160.7479305189364
 31
0.0
  0
ARC
  5
1BAD
330
2
100
AcDbEntity
  8
0
100
AcDbCircle
 10
99.88620163626809
 20
151.9845122360972
 30
0.0
 40
9.0
100
AcDbArc
 50
74.11914999172243
 51
105.8808500082775
  0
LINE
  5
1BAE
330
2
100
AcDbEntity
  8
0
100
AcDbLine
 10
103.8861950648389
 20
160.3845122360972
 30
0.0
 11
102.8311790258882
 21
160.3845122360972
 31
0.0
  0
LINE
  5
1BAF
330
2
100
AcDbEntity
  8
0
100
AcDbLine
 10
145.386208636268
 20
160.8845122360973
 30
0.0
 11
146.386208636268
 21
159.8845122360973
 31
0.0
  0
LINE
  5
1BB1
330
2
100
AcDbEntity
  8
CENTER
100
AcDbLine
 10
121.3862016362679
 20
125.1908132360973
 30
0.0
 11
121.3862016362679
 21
166.2720122360973
 31
0.0
  0
LINE
  5
1BB2
330
2
100
AcDbEntity
  8
0
100
AcDbLine
 10
146.3862016362679
 20
159.8845122360973
 30
0.0
 11
146.3862016362679
 21
131.8845142360973
 31
0.0
  0
LINE
  5
1BB3
330
2
100
AcDbEntity
  8
0
100
AcDbLine
 10
143.8862016362679
 20
129.8845142360973
 30
0.0
 11
143.8862016362679
 21
128.3845142360973
 31
0.0
  0
LINE
  5
1BB4
330
2
100
AcDbEntity
  8
0
100
AcDbLine
 10
144.3862016362679
 20
129.8845142360973
 30
0.0
 11
146.3862016362679
 21
131.8845142360973
 31
0.0
  0
ARC
  5
1BB5
330
2
100
AcDbEntity
  8
0
100
AcDbCircle
 10
99.88622463626791
 20
286.6808271343984
 30
0.0
 40
4.0
100
AcDbArc
 50
0.0
 51
90.0
  0
LINE
  5
1BB6
330
2
100
AcDbEntity
  8
0
100
AcDbLine
 10
98.78619563626797
 20
331.7808181343984
 30
0.0
 11
138.886094636268
 21
331.7808181343983
 31
0.0
  0
LINE
  5
1BB7
330
2
100
AcDbEntity
  8
0
100
AcDbLine
 10
98.38619463626798
 20
333.1808271343984
 30
0.0
 11
144.386094636268
 21
333.1808271343983
 31
0.0
  0
LINE
  5
1BB9
330
2
100
AcDbEntity
  8
0
100
AcDbLine
 10
98.38619463626798
 20
283.1808271343984
 30
0.0
 11
144.3860946362678
 21
283.1808271343984
 31
0.0
  0
LINE
  5
1BBA
330
2
100
AcDbEntity
  8
0
100
AcDbLine
 10
143.9862996362679
 20
284.5808211343984
 30
0.0
 11
103.8861946362679
 21
284.5808211343984
 31
0.0
  0
LINE
  5
1BBB
330
2
100
AcDbEntity
  8
0
100
AcDbLine
 10
94.38619463626798
 20
301.6808271343984
 30
0.0
 11
94.38619463626798
 21
314.6808271343984
 31
0.0
  0
LINE
  5
1BBC
330
2
100
AcDbEntity
  8
0
100
AcDbLine
 10
90.88619463626798
 20
310.1808271343984
 30
0.0
 11
90.88619463626798
 21
306.1808271343984
 31
0.0
  0
LINE
  5
1BBD
330
2
100
AcDbEntity
  8
0
100
AcDbLine
 10
97.78618863626798
 20
330.7808181343984
 30
0.0
 11
97.78619563626797
 21
290.6808271343984
 31
0.0
  0
LINE
  5
1BBE
330
2
100
AcDbEntity
  8
0
100
AcDbLine
 10
96.38619463626799
 20
331.1808271343984
 30
0.0
 11
96.38619463626799
 21
285.1808271343984
 31
0.0
  0
LINE
  5
1BBF
330
2
100
AcDbEntity
  8
0
100
AcDbLine
 10
103.8861946362679
 20
286.6808271343984
 30
0.0
 11
103.8861946362679
 21
283.1810261343984
 31
0.0
  0
ARC
  5
1BC0
330
2
100
AcDbEntity
  8
0
100
AcDbCircle
 10
101.915924636268
 20
284.6511271343984
 30
0.0
 40
1.742199999999999
100
AcDbArc
 50
89.99869033450025
 51
180.0013096654997
  0
CIRCLE
  5
1BC1
330
2
100
AcDbEntity
  8
0
100
AcDbCircle
 10
99.88622463626791
 20
286.6808271343984
 30
0.0
 40
3.500000000000028
  0
ARC
  5
1BC2
330
2
100
AcDbEntity
  8
0
100
AcDbCircle
 10
97.85652463626798
 20
284.6511271343984
 30
0.0
 40
1.742199999999999
100
AcDbArc
 50
359.9986903345002
 51
90.00130966549322
  0
ARC
  5
1BC3
330
2
100
AcDbEntity
  8
0
100
AcDbCircle
 10
99.88622463626791
 20
286.6808271343984
 30
0.0
 40
2.049999999999998
100
AcDbArc
 50
261.9380399160181
 51
270.0
  0
ARC
  5
1BC4
330
2
100
AcDbEntity
  8
0
100
AcDbCircle
 10
99.88622463626791
 20
286.6808271343984
 30
0.0
 40
2.049999999999998
100
AcDbArc
 50
270.0
 51
278.0619600839818
  0
LINE
  5
1BC5
330
2
100
AcDbEntity
  8
0
100
AcDbLine
 10
96.38619463626799
 20
285.1808271343984
 30
0.0
 11
98.38619463626798
 21
283.1808271343984
 31
0.0
  0
LINE
  5
1BC6
330
2
100
AcDbEntity
  8
0
100
AcDbLine
 10
96.38619463626799
 20
285.1808271343984
 30
0.0
 11
98.38619463626798
 21
283.1808271343984
 31
0.0
  0
ARC
  5
1BC7
330
2
100
AcDbEntity
  8
0
100
AcDbCircle
 10
99.88622463626791
 20
286.6808271343984
 30
0.0
 40
2.049999999999998
100
AcDbArc
 50
90.0
 51
98.06196008398188
  0
ARC
  5
1BC8
330
2
100
AcDbEntity
  8
0
100
AcDbCircle
 10
99.88622463626791
 20
286.6808271343984
 30
0.0
 40
2.049999999999998
100
AcDbArc
 50
0.0
 51
8.061960083982105
  0
ARC
  5
1BC9
330
2
100
AcDbEntity
  8
0
100
AcDbCircle
 10
99.88622463626791
 20
286.6808271343984
 30
0.0
 40
2.049999999999998
100
AcDbArc
 50
81.93803991601813
 51
90.0
  0
ARC
  5
1BCA
330
2
100
AcDbEntity
  8
0
100
AcDbCircle
 10
99.88622463626791
 20
286.6808271343984
 30
0.0
 40
2.049999999999998
100
AcDbArc
 50
351.9380399160179
 51
0.0
  0
ARC
  5
1BCB
330
2
100
AcDbEntity
  8
0
100
AcDbCircle
 10
101.915924636268
 20
288.7105271343983
 30
0.0
 40
1.742199999999999
100
AcDbArc
 50
179.9986903345002
 51
270.0013096654932
  0
ARC
  5
1BCC
330
2
100
AcDbEntity
  8
0
100
AcDbCircle
 10
99.88622463626791
 20
286.6808271343984
 30
0.0
 40
2.049999999999998
100
AcDbArc
 50
171.9380399160178
 51
180.0
  0
ARC
  5
1BCD
330
2
100
AcDbEntity
  8
0
100
AcDbCircle
 10
99.88622463626791
 20
286.6808271343984
 30
0.0
 40
2.049999999999998
100
AcDbArc
 50
180.0
 51
188.0619600839821
  0
LINE
  5
1BCE
330
2
100
AcDbEntity
  8
0
100
AcDbLine
 10
99.88622463626803
 20
290.6808271343984
 30
0.0
 11
96.38622463626802
 21
290.6808271343984
 31
0.0
  0
ARC
  5
1BCF
330
2
100
AcDbEntity
  8
0
100
AcDbCircle
 10
97.85652463626798
 20
288.7105271343983
 30
0.0
 40
1.742199999999999
100
AcDbArc
 50
269.9986903345002
 51
0.0013096654997424
  0
ARC
  5
1BD0
330
2
100
AcDbEntity
  8
0
100
AcDbCircle
 10
95.38619463626787
 20
301.6808271343984
 30
0.0
 40
1.0
100
AcDbArc
 50
180.0
 51
270.0
  0
LINE
  5
1BD1
330
2
100
AcDbEntity
  8
0
100
AcDbLine
 10
94.38619463626798
 20
302.6808271343984
 30
0.0
 11
90.88619463626798
 21
306.1808271343984
 31
0.0
  0
LINE
  5
1BD2
330
2
100
AcDbEntity
  8
0
100
AcDbLine
 10
95.38619463626799
 20
300.6808271343984
 30
0.0
 11
96.38619463626799
 21
300.6808271343984
 31
0.0
  0
ARC
  5
1BD3
330
2
100
AcDbEntity
  8
0
100
AcDbCircle
 10
95.38620963626796
 20
314.6808271343984
 30
0.0
 40
1.0
100
AcDbArc
 50
90.0
 51
180.0
  0
LINE
  5
1BD4
330
2
100
AcDbEntity
  8
0
100
AcDbLine
 10
90.88619463626798
 20
310.1808271343984
 30
0.0
 11
94.38619463626798
 21
313.6808271343984
 31
0.0
  0
LINE
  5
1BD5
330
2
100
AcDbEntity
  8
0
100
AcDbLine
 10
95.38619463626799
 20
315.6808271343984
 30
0.0
 11
96.38619463626799
 21
315.6808271343984
 31
0.0
  0
LINE
  5
1BD6
330
2
100
AcDbEntity
  8
0
100
AcDbLine
 10
96.38619463626799
 20
331.1808271343984
 30
0.0
 11
98.38619463626798
 21
333.1808271343984
 31
0.0
  0
LINE
  5
1BD7
330
2
100
AcDbEntity
  8
0
100
AcDbLine
 10
97.78618863626798
 20
330.7808181343984
 30
0.0
 11
98.78619563626797
 21
331.7808181343984
 31
0.0
  0
LINE
  5
1BD8
330
2
100
AcDbEntity
  8
0
100
AcDbLine
 10
144.9862996362679
 20
285.5808211343984
 30
0.0
 11
144.9862996362679
 21
325.6808271343984
 31
0.0
  0
LINE
  5
1BD9
330
2
100
AcDbEntity
  8
0
100
AcDbLine
 10
146.386094636268
 20
331.1808271343983
 30
0.0
 11
146.3860946362679
 21
285.1808271343984
 31
0.0
  0
LINE
  5
1BDA
330
2
100
AcDbEntity
  8
CENTER
100
AcDbLine
 10
121.3862016362679
 20
338.5700530785062
 30
0.0
 11
121.3862016362679
 21
277.4308271343984
 31
0.0
  0
LINE
  5
1BDB
330
2
100
AcDbEntity
  8
0
100
AcDbLine
 10
143.9862996362679
 20
284.5808211343984
 30
0.0
 11
144.9862996362679
 21
285.5808211343984
 31
0.0
  0
LINE
  5
1BDC
330
2
100
AcDbEntity
  8
0
100
AcDbLine
 10
146.3860946362679
 20
285.1808271343984
 30
0.0
 11
144.3860946362678
 21
283.1808271343984
 31
0.0
  0
LINE
  5
1BDD
330
2
100
AcDbEntity
  8
0
100
AcDbLine
 10
146.3860946362679
 20
285.1808271343984
 30
0.0
 11
144.3860946362678
 21
283.1808271343984
 31
0.0
  0
LINE
  5
1BDE
330
2
100
AcDbEntity
  8
0
100
AcDbLine
 10
146.3862936362679
 20
285.1808271343984
 30
0.0
 11
144.3860946362678
 21
283.1808271343984
 31
0.0
  0
ARC
  5
1BDF
330
2
100
AcDbEntity
  8
0
100
AcDbCircle
 10
142.8862936362679
 20
329.6808271343984
 30
0.0
 40
4.0
100
AcDbArc
 50
180.0
 51
270.0
  0
CIRCLE
  5
1BE0
330
2
100
AcDbEntity
  8
0
100
AcDbCircle
 10
142.8862936362679
 20
329.6808271343984
 30
0.0
 40
3.500000000000028
  0
LINE
  5
1BE1
330
2
100
AcDbEntity
  8
0
100
AcDbLine
 10
138.886094636268
 20
329.6808271343984
 30
0.0
 11
138.886094636268
 21
333.1808271343983
 31
0.0
  0
ARC
  5
1BE2
330
2
100
AcDbEntity
  8
0
100
AcDbCircle
 10
144.9159936362681
 20
327.6511271343983
 30
0.0
 40
1.742199999999999
100
AcDbArc
 50
89.99869033450025
 51
180.0013096654997
  0
ARC
  5
1BE3
330
2
100
AcDbEntity
  8
0
100
AcDbCircle
 10
140.856593636268
 20
327.6511271343983
 30
0.0
 40
1.742199999999999
100
AcDbArc
 50
359.9986903345002
 51
90.00130966549322
  0
LINE
  5
1BE4
330
2
100
AcDbEntity
  8
0
100
AcDbLine
 10
142.886094636268
 20
325.6808271343984
 30
0.0
 11
146.386094636268
 21
325.6808271343984
 31
0.0
  0
ARC
  5
1BE5
330
2
100
AcDbEntity
  8
0
100
AcDbCircle
 10
142.8862936362679
 20
329.6808271343984
 30
0.0
 40
2.049999999999998
100
AcDbArc
 50
261.9380399160181
 51
270.0
  0
ARC
  5
1BE6
330
2
100
AcDbEntity
  8
0
100
AcDbCircle
 10
142.8862936362679
 20
329.6808271343984
 30
0.0
 40
2.049999999999998
100
AcDbArc
 50
270.0
 51
278.0619600839818
  0
LINE
  5
1BE7
330
2
100
AcDbEntity
  8
0
100
AcDbLine
 10
146.386094636268
 20
331.1808271343983
 30
0.0
 11
144.386094636268
 21
333.1808271343983
 31
0.0
  0
LINE
  5
1BE8
330
2
100
AcDbEntity
  8
0
100
AcDbLine
 10
144.386094636268
 20
333.1808271343983
 30
0.0
 11
146.386094636268
 21
331.1808271343983
 31
0.0
  0
ARC
  5
1BE9
330
2
100
AcDbEntity
  8
0
100
AcDbCircle
 10
142.8862936362679
 20
329.6808271343984
 30
0.0
 40
2.049999999999998
100
AcDbArc
 50
90.0
 51
98.06196008398188
  0
ARC
  5
1BEA
330
2
100
AcDbEntity
  8
0
100
AcDbCircle
 10
142.8862936362679
 20
329.6808271343984
 30
0.0
 40
2.049999999999998
100
AcDbArc
 50
81.93803991601813
 51
90.0
  0
ARC
  5
1BEB
330
2
100
AcDbEntity
  8
0
100
AcDbCircle
 10
142.8862936362679
 20
329.6808271343984
 30
0.0
 40
2.049999999999998
100
AcDbArc
 50
0.0
 51
8.061960083982105
  0
ARC
  5
1BEC
330
2
100
AcDbEntity
  8
0
100
AcDbCircle
 10
142.8862936362679
 20
329.6808271343984
 30
0.0
 40
2.049999999999998
100
AcDbArc
 50
351.9380399160179
 51
0.0
  0
ARC
  5
1BED
330
2
100
AcDbEntity
  8
0
100
AcDbCircle
 10
144.9159936362681
 20
331.7105271343983
 30
0.0
 40
1.742199999999999
100
AcDbArc
 50
179.9986903345002
 51
270.0013096654932
  0
ARC
  5
1BEE
330
2
100
AcDbEntity
  8
0
100
AcDbCircle
 10
142.8862936362679
 20
329.6808271343984
 30
0.0
 40
2.049999999999998
100
AcDbArc
 50
171.9380399160178
 51
180.0
  0
ARC
  5
1BEF
330
2
100
AcDbEntity
  8
0
100
AcDbCircle
 10
142.8862936362679
 20
329.6808271343984
 30
0.0
 40
2.049999999999998
100
AcDbArc
 50
180.0
 51
188.0619600839821
  0
ARC
  5
1BF0
330
2
100
AcDbEntity
  8
0
100
AcDbCircle
 10
140.856593636268
 20
331.7105271343983
 30
0.0
 40
1.742199999999999
100
AcDbArc
 50
269.9986903345002
 51
0.0013096654997424
  0
LINE
  5
1BF1
330
2
100
AcDbEntity
  8
CENTER
100
AcDbLine
 10
379.8311438426952
 20
151.3845122360973
 30
0.0
 11
439.9183578051123
 21
151.3845122360973
 31
0.0
  0
LINE
  5
1BF2
330
2
100
AcDbEntity
  8
0
100
AcDbLine
 10
433.8747358239039
 20
160.8845122360972
 30
0.0
 11
434.8747358239038
 21
159.8845122360972
 31
0.0
  0
ARC
  5
1BF3
330
2
100
AcDbEntity
  8
0
100
AcDbCircle
 10
433.4817615774967
 20
159.3906249603436
 30
0.0
 40
1.3
100
AcDbArc
 50
4.999999999999743
 51
74.11914999172243
  0
SPLINE
  5
1BF4
330
2
100
AcDbEntity
  8
0
100
AcDbSpline
210
0.0
220
0.0
230
1.0
 70
     8
 71
     3
 72
    11
 73
     7
 74
     0
 42
0.0000000001
 43
0.0000000001
 40
0.0
 40
0.0
 40
0.0
 40
0.0
 40
0.4601364636755307
 40
1.04988694485363
 40
1.713742833862792
 40
2.320347933405154
 40
2.320347933405154
 40
2.320347933405154
 40
2.320347933405179
 10
431.0872508234488
 20
159.4675122360973
 30
0.0
 10
431.0648331663409
 20
159.6225356757772
 30
0.0
 10
431.0136831111077
 20
159.9762504936947
 30
0.0
 10
430.5777979495741
 20
160.4009781652964
 30
0.0
 10
429.9727472345666
 20
160.6201653452623
 30
0.0
 10
429.5475626103908
 20
160.5511740456515
 30
0.0
 10
429.3450110007397
 20
160.5369537734749
 30
0.0
  0
SPLINE
  5
1BF5
330
2
100
AcDbEntity
  8
0
100
AcDbSpline
210
0.0
220
0.0
230
1.0
 70
     8
 71
     3
 72
    11
 73
     7
 74
     0
 42
0.0000000001
 43
0.0000000001
 40
0.0
 40
0.0
 40
0.0
 40
0.0
 40
0.4601364636755307
 40
1.04988694485363
 40
1.713742833862792
 40
2.320347933405154
 40
2.320347933405154
 40
2.320347933405154
 40
2.320347933405179
 10
431.6622508243589
 20
159.4675122360973
 30
0.0
 10
431.6846684814667
 20
159.6225356757772
 30
0.0
 10
431.7358185367001
 20
159.9762504936947
 30
0.0
 10
432.1717036982335
 20
160.4009781652964
 30
0.0
 10
432.776754413241
 20
160.6201653452623
 30
0.0
 10
433.2019390374169
 20
160.5511740456515
 30
0.0
 10
433.4044906470679
 20
160.5369537734749
 30
0.0
  0
LINE
  5
1BF6
330
2
100
AcDbEntity
  8
0
100
AcDbLine
 10
427.3747358239038
 20
158.3845122360973
 30
0.0
 11
427.3747358239038
 21
160.3845122360974
 31
0.0
  0
ARC
  5
1BF8
330
2
100
AcDbEntity
  8
0
100
AcDbCircle
 10
429.2677400703109
 20
159.3906249603436
 30
0.0
 40
1.3
100
AcDbArc
 50
105.8808500082775
 51
175.0000000000002
  0
LINE
  5
1BF9
330
2
100
AcDbEntity
  8
0
100
AcDbLine
 10
385.8747508239038
 20
160.8845122360973
 30
0.0
 11
384.8747508239038
 21
159.8845122360973
 31
0.0
  0
LINE
  5
1BFB
330
2
100
AcDbEntity
  8
0
100
AcDbLine
 10
384.8747508239038
 20
159.8845122360973
 30
0.0
 11
427.3747358239038
 21
159.8845122360973
 31
0.0
  0
LINE
  5
1BFF
330
2
100
AcDbEntity
  8
0
100
AcDbLine
 10
384.8747508239038
 20
159.8845122360973
 30
0.0
 11
384.8747508239038
 21
144.8480542524634
 31
0.0
  0
LINE
  5
1C02
330
2
100
AcDbEntity
  8
0
100
AcDbLine
 10
434.8747358239038
 20
159.8845122360972
 30
0.0
 11
434.8747358239038
 21
144.8481540140496
 31
0.0
  0
LINE
  5
1C05
330
2
100
AcDbEntity
  8
0
100
AcDbLine
 10
427.3747358239038
 20
158.3845122360973
 30
0.0
 11
434.8747358239038
 21
158.3845122360974
 31
0.0
  0
LINE
  5
1C06
330
2
100
AcDbEntity
  8
0
100
AcDbLine
 10
427.8747508239038
 20
158.3845122360974
 30
0.0
 11
427.9726869627917
 21
159.5039274259156
 31
0.0
  0
LINE
  5
1C07
330
2
100
AcDbEntity
  8
0
100
AcDbLine
 10
434.8747508239037
 20
158.3845122360974
 30
0.0
 11
434.7768146850158
 21
159.5039274259156
 31
0.0
  0
LINE
  5
1C08
330
2
100
AcDbEntity
  8
0
100
AcDbLine
 10
431.6622508243589
 20
159.4675122360973
 30
0.0
 11
431.0872508234488
 21
159.4675122360973
 31
0.0
  0
LINE
  5
1C09
330
2
100
AcDbEntity
  8
0
100
AcDbLine
 10
385.8747508239038
 20
160.8845122360973
 30
0.0
 11
430.0368420078776
 21
160.8845122360972
 31
0.0
  0
LINE
  5
1C0A
330
2
100
AcDbEntity
  8
0
100
AcDbLine
 10
427.3747358239038
 20
160.3845122360972
 30
0.0
 11
428.4297734342835
 21
160.3845122360972
 31
0.0
  0
LINE
  5
1C0B
330
2
100
AcDbEntity
  8
0
100
AcDbLine
 10
426.8747358239038
 20
160.8845122360972
 30
0.0
 11
427.3747358239038
 21
160.3845122360972
 31
0.0
  0
LINE
  5
1C0C
330
2
100
AcDbEntity
  8
0
100
AcDbLine
 10
429.3450110007397
 20
160.5369537734749
 30
0.0
 11
429.3247508239038
 21
160.7479305189365
 31
0.0
  0
LINE
  5
1C0D
330
2
100
AcDbEntity
  8
0
100
AcDbLine
 10
433.4044906470679
 20
160.5369537734749
 30
0.0
 11
433.4247508239038
 21
160.7479305189365
 31
0.0
  0
ARC
  5
1C0E
330
2
100
AcDbEntity
  8
0
100
AcDbCircle
 10
431.3747508239038
 20
151.9845122360973
 30
0.0
 40
9.0
100
AcDbArc
 50
74.11914999172243
 51
105.8808500082775
  0
LINE
  5
1C0F
330
2
100
AcDbEntity
  8
0
100
AcDbLine
 10
432.71265963993
 20
160.8845122360972
 30
0.0
 11
433.8747358239039
 21
160.8845122360972
 31
0.0
  0
LINE
  5
1CEF
330
2
100
AcDbEntity
  8
0
100
AcDbLine
 10
95.88620163626798
 20
315.6808271343984
 30
0.0
 11
95.88620163626798
 21
348.1808121343984
 31
0.0
  0
ENDSEC
  0
SECTION
  2
OBJECTS
  0
DICTIONARY
  5
7
330
0
100
AcDbDictionary
  3
ACAD_GROUP
350
75
  3
ACAD_LAYOUT
350
61
  3
ACAD_MLINESTYLE
350
76
  3
ACAD_PLOTSETTINGS
350
77
  3
ACAD_PLOTSTYLENAME
350
6
  3
ACADDIM
350
480
  3
ACDBHEADERROUNDTRIPXREC
350
1D87
  3
ACDBVARIABLEDICTIONARY
350
102
  3
DWGPROPS
350
3D2
  0
DICTIONARY
  5
1DA8
330
2
100
AcDbDictionary
280
     1
  3
ACAD_LAYOUTSELFREF
360
1DA9
  0
DICTIONARY
  5
1DAA
330
1D81
100
AcDbDictionary
280
     1
  3
ACAD_LAYOUTSELFREF
360
1DAB
  0
DICTIONARY
  5
75
102
{ACAD_REACTORS
330
7
102
}
330
7
100
AcDbDictionary
  0
DICTIONARY
  5
61
102
{ACAD_REACTORS
330
7
102
}
330
7
100
AcDbDictionary
  0
DICTIONARY
  5
76
102
{ACAD_REACTORS
330
7
102
}
330
7
100
AcDbDictionary
  3
STANDARD
350
78
  0
DICTIONARY
  5
77
102
{ACAD_REACTORS
330
7
102
}
330
7
100
AcDbDictionary
  0
ACDBDICTIONARYWDFLT
  5
6
102
{ACAD_REACTORS
330
7
102
}
330
7
100
AcDbDictionary
281
     1
  3
Normal
350
5
100
AcDbDictionaryWithDefault
340
5
  0
XRECORD
  5
480
102
{ACAD_REACTORS
330
7
102
}
330
7
100
AcDbXrecord
 90
   990106
  3

 60
     0
 61
     0
 62
     1
 63
     3
 64
     1
 65
     0
 66
     0
 67
     3
 68
     1
 69
     0
 70
     0
 71
     0
 72
     0
 40
0.0
170
     2
340
0
  0
DICTIONARY
  5
1D87
102
{ACAD_REACTORS
330
7
102
}
330
7
100
AcDbDictionary
  3
CEPSNTYPE
350
1D91
  3
DIMSTYLEDATA
350
1D95
  3
FINGERPRINTGUID
350
1D92
  3
HYPERLINKBASE
350
1D8A
  3
INSUNITS
350
1D90
  3
LAYOUTDICT
350
1D8C
  3
LWETCUNION
350
1D8F
  3
PLOTSETDICT
350
1D8D
  3
PLOTSTYLNAMDICT
350
1D8E
  3
PSVPSCALE
350
1D94
  3
PUCSBASE
350
1D98
  3
PUCSORGBACK
350
1D9E
  3
PUCSORGBOTTOM
350
1D9A
  3
PUCSORGFRONT
350
1D9D
  3
PUCSORGLEFT
350
1D9B
  3
PUCSORGRIGHT
350
1D9C
  3
PUCSORGTOP
350
1D99
  3
PUCSORTHOREF
350
1D96
  3
PUCSORTHOVIEW
350
1D97
  3
STYLESHEET
350
1D8B
  3
TSTACKALIGN
350
1D88
  3
TSTACKSIZE
350
1D89
  3
UCSBASE
350
1DA1
  3
UCSORGBACK
350
1DA7
  3
UCSORGBOTTOM
350
1DA3
  3
UCSORGFRONT
350
1DA6
  3
UCSORGLEFT
350
1DA4
  3
UCSORGRIGHT
350
1DA5
  3
UCSORGTOP
350
1DA2
  3
UCSORTHOREF
350
1D9F
  3
UCSORTHOVIEW
350
1DA0
  3
VERSIONGUID
350
1D93
  0
DICTIONARY
  5
102
102
{ACAD_REACTORS
330
7
102
}
330
7
100
AcDbDictionary
  3
DIMASSOC
350
103
  0
XRECORD
  5
3D2
102
{ACAD_REACTORS
330
7
102
}
330
7
100
AcDbXrecord
  1
DWGPROPS COOKIE
  2

  3

  4

  6

  7

  8

  9

300
=
301
=
302
=
303
=
304
=
305
=
306
=
307
=
308
=
309
=
 40
0.5353330671296296
 41
2452052.431989363
 42
2453406.550756377
  1

 90
        0
  0
XRECORD
  5
1DA9
102
{ACAD_REACTORS
330
1DA8
102
}
330
1DA8
100
AcDbXrecord
340
2
  0
XRECORD
  5
1DAB
102
{ACAD_REACTORS
330
1DAA
102
}
330
1DAA
100
AcDbXrecord
340
1D81
  0
MLINESTYLE
  5
78
102
{ACAD_REACTORS
330
76
102
}
330
76
100
AcDbMlineStyle
  2
STANDARD
 70
     0
  3

 62
     0
 51
90.0
 52
90.0
 71
     2
 49
0.5
 62
   256
  6
BYLAYER
 49
-0.5
 62
   256
  6
BYLAYER
  0
ACDBPLACEHOLDER
  5
5
102
{ACAD_REACTORS
330
6
102
}
330
6
100
AcDbPlaceHolder
280
     0
  0
XRECORD
  5
1D91
102
{ACAD_REACTORS
330
1D87
102
}
330
1D87
100
AcDbXrecord
 90
        0
  0
XRECORD
  5
1D95
102
{ACAD_REACTORS
330
1D87
102
}
330
1D87
100
AcDbXrecord
1000
DSTYLE
1002
{
1070
   179
 70
     2
1070
   277
 70
     6
1002
}
  0
XRECORD
  5
1D92
102
{ACAD_REACTORS
330
1D87
102
}
330
1D87
100
AcDbXrecord
  1
{6385560B-F4B1-4644-A7C2-A3E32AC3D232}
  0
XRECORD
  5
1D8A
102
{ACAD_REACTORS
330
1D87
102
}
330
1D87
100
AcDbXrecord
  1

  0
XRECORD
  5
1D90
102
{ACAD_REACTORS
330
1D87
102
}
330
1D87
100
AcDbXrecord
 90
        0
  0
XRECORD
  5
1D8C
102
{ACAD_REACTORS
330
1D87
102
}
330
1D87
100
AcDbXrecord
340
61
  0
XRECORD
  5
1D8F
102
{ACAD_REACTORS
330
1D87
102
}
330
1D87
100
AcDbXrecord
 90
    10781
  0
XRECORD
  5
1D8D
102
{ACAD_REACTORS
330
1D87
102
}
330
1D87
100
AcDbXrecord
340
77
  0
XRECORD
  5
1D8E
102
{ACAD_REACTORS
330
1D87
102
}
330
1D87
100
AcDbXrecord
340
6
  0
XRECORD
  5
1D94
102
{ACAD_REACTORS
330
1D87
102
}
330
1D87
100
AcDbXrecord
 40
0.0
  0
XRECORD
  5
1D98
102
{ACAD_REACTORS
330
1D87
102
}
330
1D87
100
AcDbXrecord
340
0
  0
XRECORD
  5
1D9E
102
{ACAD_REACTORS
330
1D87
102
}
330
1D87
100
AcDbXrecord
 10
0.0
 20
0.0
 30
0.0
  0
XRECORD
  5
1D9A
102
{ACAD_REACTORS
330
1D87
102
}
330
1D87
100
AcDbXrecord
 10
0.0
 20
0.0
 30
0.0
  0
XRECORD
  5
1D9D
102
{ACAD_REACTORS
330
1D87
102
}
330
1D87
100
AcDbXrecord
 10
0.0
 20
0.0
 30
0.0
  0
XRECORD
  5
1D9B
102
{ACAD_REACTORS
330
1D87
102
}
330
1D87
100
AcDbXrecord
 10
0.0
 20
0.0
 30
0.0
  0
XRECORD
  5
1D9C
102
{ACAD_REACTORS
330
1D87
102
}
330
1D87
100
AcDbXrecord
 10
0.0
 20
0.0
 30
0.0
  0
XRECORD
  5
1D99
102
{ACAD_REACTORS
330
1D87
102
}
330
1D87
100
AcDbXrecord
 10
0.0
 20
0.0
 30
0.0
  0
XRECORD
  5
1D96
102
{ACAD_REACTORS
330
1D87
102
}
330
1D87
100
AcDbXrecord
340
0
  0
XRECORD
  5
1D97
102
{ACAD_REACTORS
330
1D87
102
}
330
1D87
100
AcDbXrecord
 70
     0
  0
XRECORD
  5
1D8B
102
{ACAD_REACTORS
330
1D87
102
}
330
1D87
100
AcDbXrecord
  1
Sekkei.ctb
  0
XRECORD
  5
1D88
102
{ACAD_REACTORS
330
1D87
102
}
330
1D87
100
AcDbXrecord
 90
        1
  0
XRECORD
  5
1D89
102
{ACAD_REACTORS
330
1D87
102
}
330
1D87
100
AcDbXrecord
 90
       70
  0
XRECORD
  5
1DA1
102
{ACAD_REACTORS
330
1D87
102
}
330
1D87
100
AcDbXrecord
340
0
  0
XRECORD
  5
1DA7
102
{ACAD_REACTORS
330
1D87
102
}
330
1D87
100
AcDbXrecord
 10
0.0
 20
0.0
 30
0.0
  0
XRECORD
  5
1DA3
102
{ACAD_REACTORS
330
1D87
102
}
330
1D87
100
AcDbXrecord
 10
0.0
 20
0.0
 30
0.0
  0
XRECORD
  5
1DA6
102
{ACAD_REACTORS
330
1D87
102
}
330
1D87
100
AcDbXrecord
 10
0.0
 20
0.0
 30
0.0
  0
XRECORD
  5
1DA4
102
{ACAD_REACTORS
330
1D87
102
}
330
1D87
100
AcDbXrecord
 10
0.0
 20
0.0
 30
0.0
  0
XRECORD
  5
1DA5
102
{ACAD_REACTORS
330
1D87
102
}
330
1D87
100
AcDbXrecord
 10
0.0
 20
0.0
 30
0.0
  0
XRECORD
  5
1DA2
102
{ACAD_REACTORS
330
1D87
102
}
330
1D87
100
AcDbXrecord
 10
0.0
 20
0.0
 30
0.0
  0
XRECORD
  5
1D9F
102
{ACAD_REACTORS
330
1D87
102
}
330
1D87
100
AcDbXrecord
340
0
  0
XRECORD
  5
1DA0
102
{ACAD_REACTORS
330
1D87
102
}
330
1D87
100
AcDbXrecord
 70
     0
  0
XRECORD
  5
1D93
102
{ACAD_REACTORS
330
1D87
102
}
330
1D87
100
AcDbXrecord
  1
{63152F50-95DB-4F87-AF28-C0D61212EEA2}
  0
DICTIONARYVAR
  5
103
102
{ACAD_REACTORS
330
102
102
}
330
102
100
DictionaryVariables
280
     0
  1
1
  0
ENDSEC
  0
EOF
