  0
SECTION
  2
HEADER
  9
$CLAYER
  8
1
  9
$LTSCALE
 40
3.0
  0
ENDSEC
  0
SECTION
  2
TABLES
  0
TABLE
  2
LTYPE
 70
     4
  0
LTYPE
  2
CONTINUOUS
  3
solid line
 70
    64
 72
    65
 73
     0
 40
0.0
  0
LTYPE
  2
DASHED
  3
__ __ __ __ __ __ __ __ __ __ __ __ __ __ __
 70
    64
 72
    65
 73
     2
 40
0.75
 49
0.5
 49
-0.25
  0
LTYPE
  2
CENTER
  3
____ _ ____ _ ____ _ ____ _ ____ _ ____ _ ____
 70
    64
 72
    65
 73
     4
 40
2.0
 49
1.25
 49
-0.25
 49
0.25
 49
-0.25
  0
LTYPE
  2
PHANTOM
  3
_____ _ _ _____ _ _ _____ _ _ _____ _ _ ____
 70
    64
 72
    65
 73
     6
 40
2.5
 49
1.25
 49
-0.25
 49
0.25
 49
-0.25
 49
0.25
 49
-0.25
  0
ENDTAB
  0
TABLE
  2
LAYER
 70
     1
  0
LAYER
  2
0
 70
    64
 62
     7
  6
CONTINUOUS
  0
ENDTAB
  0
TABLE
  2
STYLE
 70
     1
  0
STYLE
  2
STANDARD
 70
     0
 40
0.000000
 41
1.000000
 50
0.000000
 71
     0
 42
3.000000
  3
txt
  4
BIGFONT
  0
ENDTAB
  0
ENDSEC
  0
SECTION
  2
BLOCKS
  0
ENDSEC
  0
SECTION
  2
ENTITIES
  0
LINE
  8
0
  6
CENTER
 10
71.489998
 20
1.479260
 11
71.489998
 21
131.341248
  0
LINE
  8
0
  6
CENTER
 10
18.365000
 20
58.685001
 11
125.739998
 21
58.685001
  0
LINE
  8
0
  6
CONTINUOUS
 10
129.490005
 20
16.385000
 11
129.490005
 21
9.385000
  0
LINE
  8
0
  6
CONTINUOUS
 10
13.490000
 20
16.385000
 11
13.490000
 21
9.385000
  0
LINE
  8
0
  6
CONTINUOUS
 10
13.490000
 20
9.385000
 11
129.490005
 21
9.385000
  0
LINE
  8
0
  6
CONTINUOUS
 10
111.489998
 20
18.385000
 11
127.489998
 21
18.385000
  0
LINE
  8
0
  6
CONTINUOUS
 10
34.490002
 20
21.385000
 11
34.490002
 21
119.773628
  0
LINE
  8
0
  6
CONTINUOUS
 10
108.489983
 20
21.385000
 11
108.489998
 21
119.773758
  0
LINE
  8
0
  6
CONTINUOUS
 10
113.489998
 20
61.884998
 11
113.489998
 21
106.885002
  0
LINE
  8
0
  6
CONTINUOUS
 10
112.489998
 20
107.885002
 11
110.490021
 21
107.885002
  0
LINE
  8
0
  6
CONTINUOUS
 10
112.489998
 20
60.884998
 11
110.490021
 21
60.884998
  0
LINE
  8
0
  6
CONTINUOUS
 10
71.489998
 20
122.385002
 11
106.524902
 21
121.773468
  0
LINE
  8
0
  6
CONTINUOUS
 10
36.455090
 20
121.773331
 11
71.489998
 21
122.385002
  0
ARC
  8
0
  6
CONTINUOUS
 10
110.489998
 20
109.885002
 40
2.000000
 50
180.000000
 51
270.000000
  0
ARC
  8
0
  6
CONTINUOUS
 10
106.490021
 20
119.773758
 40
2.000000
 50
0.000000
 51
89.000137
  0
ARC
  8
0
  6
CONTINUOUS
 10
36.490009
 20
119.773643
 40
2.000000
 50
91.000641
 51
180.000000
  0
ARC
  8
0
  6
CONTINUOUS
 10
110.490021
 20
58.885006
 40
2.000000
 50
90.000000
 51
180.000000
  0
ARC
  8
0
  6
CONTINUOUS
 10
112.489998
 20
106.884987
 40
1.000000
 50
0.000000
 51
90.000000
  0
ARC
  8
0
  6
CONTINUOUS
 10
112.489998
 20
61.884995
 40
1.000000
 50
-90.000000
 51
0.000000
  0
LINE
  8
0
  6
CONTINUOUS
 10
36.510571
 20
98.885002
 11
106.647552
 21
98.885002
  0
ARC
  8
0
  6
CONTINUOUS
 10
127.489998
 20
16.384991
 40
2.000000
 50
0.000000
 51
90.000000
  0
ARC
  8
0
  6
CONTINUOUS
 10
15.490011
 20
16.385010
 40
2.000000
 50
90.000000
 51
180.000000
  0
LINE
  8
0
  6
CENTER
 10
119.489998
 20
22.341249
 11
119.489998
 21
5.091250
  0
LINE
  8
0
  6
CENTER
 10
23.490000
 20
22.341249
 11
23.490000
 21
4.341250
  0
LINE
  8
0
  6
DASHED
 10
27.740000
 20
18.385000
 11
27.740000
 21
9.385000
  0
LINE
  8
0
  6
DASHED
 10
19.240000
 20
18.385000
 11
19.240000
 21
9.385000
  0
LINE
  8
0
  6
DASHED
 10
123.739998
 20
18.385000
 11
123.739998
 21
9.385000
  0
LINE
  8
0
  6
DASHED
 10
115.239998
 20
18.385000
 11
115.239998
 21
9.385000
  0
ARC
  8
0
  6
CONTINUOUS
 10
71.489998
 20
58.685001
 40
45.000000
 50
158.960602
 51
214.692093
  0
ARC
  8
0
  6
CONTINUOUS
 10
71.489998
 20
58.685001
 40
45.000000
 50
-34.692108
 51
20.437799
  0
LINE
  8
0
  6
CONTINUOUS
 10
29.490000
 20
61.884998
 11
29.490000
 21
106.885002
  0
LINE
  8
0
  6
CONTINUOUS
 10
30.490000
 20
107.885002
 11
32.489990
 21
107.885002
  0
LINE
  8
0
  6
CONTINUOUS
 10
30.490000
 20
60.884998
 11
32.489990
 21
60.884998
  0
ARC
  8
0
  6
CONTINUOUS
 10
32.490002
 20
109.885002
 40
2.000000
 50
-90.000000
 51
0.000000
  0
ARC
  8
0
  6
CONTINUOUS
 10
32.489990
 20
58.885006
 40
2.000000
 50
0.000000
 51
90.000000
  0
ARC
  8
0
  6
CONTINUOUS
 10
30.490000
 20
106.884987
 40
1.000000
 50
90.000000
 51
180.000000
  0
ARC
  8
0
  6
CONTINUOUS
 10
30.490000
 20
61.884995
 40
1.000000
 50
180.000000
 51
270.000000
  0
LINE
  8
0
  6
CENTER
 10
18.365000
 20
84.385002
 11
157.240005
 21
84.385002
  0
LINE
  8
0
  6
CONTINUOUS
 10
31.490000
 20
18.385010
 11
15.490000
 21
18.385000
  0
ARC
  8
0
  6
CONTINUOUS
 10
31.490000
 20
21.385000
 40
3.000000
 50
-90.000000
 51
0.000000
  0
ARC
  8
0
  6
CONTINUOUS
 10
111.489998
 20
21.385000
 40
3.000000
 50
180.000000
 51
270.000000
  0
LINE
  8
0
  6
CONTINUOUS
 10
118.489998
 20
32.584480
 11
118.489998
 21
75.385002
  0
LINE
  8
0
  6
CONTINUOUS
 10
24.490000
 20
84.785507
 11
24.490000
 21
32.584492
  0
LINE
  8
0
  6
CONTINUOUS
 10
116.439758
 20
27.634750
 11
108.820740
 21
20.015671
  0
LINE
  8
0
  6
CONTINUOUS
 10
26.540251
 20
27.634750
 11
34.159283
 21
20.015720
  0
LINE
  8
0
  6
CONTINUOUS
 10
26.540251
 20
89.735252
 11
29.490000
 21
92.684998
  0
ARC
  8
0
  6
CONTINUOUS
 10
111.489998
 20
32.584469
 40
7.000000
 50
-44.999630
 51
0.000000
  0
ARC
  8
0
  6
CONTINUOUS
 10
31.489981
 20
32.584549
 40
7.000000
 50
180.000000
 51
225.000397
  0
ARC
  8
0
  6
CONTINUOUS
 10
31.490019
 20
84.785538
 40
7.000000
 50
135.000305
 51
180.000000
  0
LINE
  8
0
  6
CONTINUOUS
 10
145.490005
 20
75.385002
 11
145.490005
 21
93.385002
  0
LINE
  8
0
  6
CONTINUOUS
 10
115.489998
 20
93.385002
 11
145.490005
 21
93.385002
  0
LINE
  8
0
  6
CONTINUOUS
 10
115.489998
 20
75.385002
 11
145.490005
 21
75.385002
  0
LINE
  8
0
  6
CONTINUOUS
 10
115.489998
 20
94.385002
 11
115.489998
 21
74.385002
  0
LINE
  8
0
  6
CONTINUOUS
 10
113.489998
 20
94.385002
 11
115.489998
 21
94.385002
  0
LINE
  8
0
  6
CONTINUOUS
 10
113.489998
 20
74.385002
 11
115.489998
 21
74.385002
  0
ARC
  8
0
  6
CONTINUOUS
 10
121.489998
 20
84.385002
 40
3.000000
 50
90.000000
 51
270.000000
  0
LINE
  8
0
  6
CONTINUOUS
 10
121.489998
 20
87.385002
 11
145.490005
 21
87.385002
  0
LINE
  8
0
  6
CONTINUOUS
 10
121.490021
 20
81.385002
 11
145.490005
 21
81.385002
  0
LINE
  8
0
  6
CONTINUOUS
 10
397.489990
 20
13.685000
 11
397.489990
 21
103.684998
  0
LINE
  8
0
  6
CENTER
 10
467.879364
 20
58.685001
 11
303.271240
 21
58.685001
  0
LINE
  8
0
  6
CONTINUOUS
 10
223.990005
 20
16.385000
 11
223.990005
 21
9.385000
  0
LINE
  8
0
  6
CONTINUOUS
 10
324.989990
 20
16.384991
 11
324.989990
 21
9.385000
  0
LINE
  8
0
  6
CONTINUOUS
 10
397.489990
 20
13.685000
 11
324.989990
 21
13.685000
  0
LINE
  8
0
  6
CONTINUOUS
 10
397.489990
 20
103.684998
 11
318.147400
 21
103.684998
  0
LINE
  8
0
  6
CENTER
 10
274.489990
 20
132.372498
 11
274.489990
 21
1.479250
  0
LINE
  8
0
  6
CENTER
 10
309.777496
 20
84.385002
 11
233.062500
 21
84.385002
  0
LINE
  8
0
  6
CONTINUOUS
 10
324.989990
 20
9.385000
 11
223.990005
 21
9.385000
  0
LINE
  8
0
  6
CONTINUOUS
 10
289.911102
 20
122.385002
 11
259.068909
 21
122.385002
  0
LINE
  8
0
  6
CONTINUOUS
 10
322.989990
 20
18.385000
 11
225.990005
 21
18.385000
  0
LINE
  8
0
  6
CENTER
 10
236.490005
 20
23.872499
 11
236.490005
 21
2.622500
  0
LINE
  8
0
  6
CENTER
 10
312.489990
 20
24.122499
 11
312.489990
 21
2.122500
  0
LINE
  8
0
  6
CONTINUOUS
 10
226.118607
 20
100.378181
 11
256.197510
 21
121.478287
  0
LINE
  8
0
  6
CONTINUOUS
 10
322.861389
 20
100.378181
 11
292.782501
 21
121.478279
  0
ARC
  8
0
  6
CONTINUOUS
 10
259.068787
 20
117.384987
 40
5.000000
 50
90.000000
 51
125.049103
  0
ARC
  8
0
  6
CONTINUOUS
 10
289.911102
 20
117.385002
 40
5.000000
 50
54.950329
 51
90.000000
  0
ARC
  8
0
  6
CONTINUOUS
 10
319.989990
 20
96.284927
 40
5.000000
 50
0.000000
 51
54.950199
  0
ARC
  8
0
  6
CONTINUOUS
 10
228.990005
 20
96.284882
 40
5.000000
 50
125.049103
 51
180.000000
  0
LINE
  8
0
  6
CONTINUOUS
 10
223.990005
 20
16.385000
 11
223.990005
 21
96.284897
  0
ARC
  8
0
  6
CONTINUOUS
 10
225.990005
 20
16.384991
 40
2.000000
 50
90.000000
 51
180.000000
  0
LINE
  8
0
  6
CONTINUOUS
 10
324.989990
 20
16.384991
 11
324.989990
 21
96.284897
  0
ARC
  8
0
  6
CONTINUOUS
 10
322.989990
 20
16.385000
 40
2.000000
 50
0.000000
 51
90.000000
  0
LINE
  8
0
  6
DASHED
 10
232.240005
 20
18.385000
 11
232.240005
 21
9.385000
  0
LINE
  8
0
  6
DASHED
 10
240.740005
 20
18.385000
 11
240.740005
 21
9.385000
  0
LINE
  8
0
  6
DASHED
 10
308.239990
 20
18.385000
 11
308.239990
 21
9.385000
  0
LINE
  8
0
  6
DASHED
 10
316.739990
 20
18.385000
 11
316.739990
 21
9.385000
  0
CIRCLE
  8
0
  6
CONTINUOUS
 10
274.489990
 20
84.385002
 40
23.500000
  0
CIRCLE
  8
0
  6
CONTINUOUS
 10
274.489990
 20
84.385002
 40
23.500000
  0
LINE
  8
0
  6
CONTINUOUS
 10
268.115997
 20
46.939098
 11
268.115997
 21
41.384998
  0
LINE
  8
0
  6
CONTINUOUS
 10
271.303986
 20
48.956501
 11
271.303986
 21
50.949009
  0
LINE
  8
0
  6
CONTINUOUS
 10
277.679993
 20
48.956501
 11
277.679993
 21
50.949009
  0
LINE
  8
0
  6
CONTINUOUS
 10
273.869293
 20
49.778416
 11
273.869293
 21
42.431061
  0
LINE
  8
0
  6
CONTINUOUS
 10
275.064789
 20
49.778416
 11
275.064789
 21
42.431061
  0
LINE
  8
0
  6
CONTINUOUS
 10
281.341187
 20
49.778416
 11
281.341187
 21
42.381260
  0
LINE
  8
0
  6
CONTINUOUS
 10
282.437103
 20
45.855671
 11
282.437103
 21
42.381260
  0
LINE
  8
0
  6
CONTINUOUS
 10
266.603302
 20
49.678791
 11
263.530792
 21
49.678791
  0
LINE
  8
0
  6
CONTINUOUS
 10
263.530792
 20
49.678791
 11
262.811005
 21
48.786152
  0
LINE
  8
0
  6
CONTINUOUS
 10
262.897491
 20
50.949009
 11
261.739990
 21
49.466785
  0
LINE
  8
0
  6
CONTINUOUS
 10
262.811005
 20
43.276218
 11
263.542389
 21
42.505791
  0
LINE
  8
0
  6
CONTINUOUS
 10
261.739990
 20
42.626041
 11
262.970001
 21
41.384998
  0
LINE
  8
0
  6
CONTINUOUS
 10
261.739990
 20
49.466785
 11
261.739990
 21
42.626041
  0
LINE
  8
0
  6
CONTINUOUS
 10
262.811005
 20
48.786152
 11
262.811005
 21
43.276218
  0
LINE
  8
0
  6
CONTINUOUS
 10
267.194489
 20
49.107258
 11
266.591187
 21
49.678791
  0
LINE
  8
0
  6
CONTINUOUS
 10
267.184906
 20
50.949009
 11
268.115997
 21
49.915699
  0
LINE
  8
0
  6
CONTINUOUS
 10
267.194489
 20
48.956501
 11
268.115997
 21
48.956501
  0
LINE
  8
0
  6
CONTINUOUS
 10
262.897491
 20
50.949009
 11
267.184906
 21
50.949009
  0
LINE
  8
0
  6
CONTINUOUS
 10
267.194489
 20
45.893040
 11
265.525787
 21
45.893040
  0
LINE
  8
0
  6
CONTINUOUS
 10
267.194489
 20
44.896790
 11
267.194489
 21
45.693790
  0
LINE
  8
0
  6
CONTINUOUS
 10
265.201996
 20
42.505791
 11
263.542389
 21
42.505791
  0
ARC
  8
0
  6
CONTINUOUS
 10
265.201996
 20
44.498280
 40
1.992500
 50
-89.999786
 51
0.000109
  0
LINE
  8
0
  6
CONTINUOUS
 10
267.194489
 20
42.147388
 11
267.194489
 21
41.384998
  0
LINE
  8
0
  6
CONTINUOUS
 10
268.115997
 20
49.915699
 11
268.115997
 21
48.956501
  0
LINE
  8
0
  6
CONTINUOUS
 10
267.194489
 20
45.893040
 11
267.194489
 21
44.498280
  0
LINE
  8
0
  6
CONTINUOUS
 10
265.525787
 20
46.939098
 11
265.525787
 21
45.893040
  0
LINE
  8
0
  6
CONTINUOUS
 10
267.194489
 20
41.384998
 11
268.115997
 21
41.384998
  0
LINE
  8
0
  6
CONTINUOUS
 10
267.194489
 20
42.147388
 11
266.285797
 21
41.384998
  0
LINE
  8
0
  6
CONTINUOUS
 10
275.064789
 20
42.431061
 11
275.463287
 21
42.431061
  0
LINE
  8
0
  6
CONTINUOUS
 10
273.396088
 20
42.431061
 11
273.396088
 21
41.384998
  0
LINE
  8
0
  6
CONTINUOUS
 10
275.463287
 20
42.431061
 11
275.463287
 21
41.384998
  0
LINE
  8
0
  6
CONTINUOUS
 10
277.014893
 20
48.956501
 11
277.679993
 21
48.956501
  0
LINE
  8
0
  6
CONTINUOUS
 10
271.303986
 20
48.956501
 11
272.011688
 21
48.956501
  0
LINE
  8
0
  6
CONTINUOUS
 10
271.303986
 20
50.949009
 11
277.679993
 21
50.949009
  0
LINE
  8
0
  6
CONTINUOUS
 10
273.396088
 20
41.384998
 11
275.463287
 21
41.384998
  0
LINE
  8
0
  6
CONTINUOUS
 10
273.396088
 20
42.431061
 11
273.869293
 21
42.431061
  0
ARC
  8
0
  6
CONTINUOUS
 10
284.691101
 20
48.396111
 40
2.552891
 50
-73.981873
 51
90.003510
  0
ARC
  8
0
  6
CONTINUOUS
 10
284.691101
 20
48.396111
 40
1.557438
 50
-82.585274
 51
62.411850
  0
LINE
  8
0
  6
CONTINUOUS
 10
280.868011
 20
50.949009
 11
284.691101
 21
50.949009
  0
LINE
  8
0
  6
CONTINUOUS
 10
280.868011
 20
50.949009
 11
280.868011
 21
49.778416
  0
LINE
  8
0
  6
CONTINUOUS
 10
282.437103
 20
49.778416
 11
282.437103
 21
46.851688
  0
LINE
  8
0
  6
CONTINUOUS
 10
285.395599
 20
45.942341
 11
286.975586
 21
42.381260
  0
LINE
  8
0
  6
CONTINUOUS
 10
284.477814
 20
45.855671
 11
285.973206
 21
42.381260
  0
LINE
  8
0
  6
CONTINUOUS
 10
280.868011
 20
42.381260
 11
281.341187
 21
42.381260
  0
LINE
  8
0
  6
CONTINUOUS
 10
282.437103
 20
42.381260
 11
282.872894
 21
42.381260
  0
LINE
  8
0
  6
CONTINUOUS
 10
282.872894
 20
41.384998
 11
280.868011
 21
41.384998
  0
LINE
  8
0
  6
CONTINUOUS
 10
285.774506
 20
42.381260
 11
285.973206
 21
42.381260
  0
LINE
  8
0
  6
CONTINUOUS
 10
286.975586
 20
42.381260
 11
287.243988
 21
42.381260
  0
LINE
  8
0
  6
CONTINUOUS
 10
285.774506
 20
41.384998
 11
287.243988
 21
41.384998
  0
LINE
  8
0
  6
CONTINUOUS
 10
287.243988
 20
42.381260
 11
287.243988
 21
41.384998
  0
LINE
  8
0
  6
CONTINUOUS
 10
285.774506
 20
42.381260
 11
285.774506
 21
41.384998
  0
LINE
  8
0
  6
CONTINUOUS
 10
282.872894
 20
42.381260
 11
282.872894
 21
41.384998
  0
LINE
  8
0
  6
CONTINUOUS
 10
280.868011
 20
42.381260
 11
280.868011
 21
41.384998
  0
LINE
  8
0
  6
CONTINUOUS
 10
272.354187
 20
49.778416
 11
272.011688
 21
48.956501
  0
LINE
  8
0
  6
CONTINUOUS
 10
276.726105
 20
49.778416
 11
277.014893
 21
48.956501
  0
LINE
  8
0
  6
CONTINUOUS
 10
275.064789
 20
49.778416
 11
276.726105
 21
49.778416
  0
LINE
  8
0
  6
CONTINUOUS
 10
273.869293
 20
49.778416
 11
272.354187
 21
49.778416
  0
LINE
  8
0
  6
CONTINUOUS
 10
280.868011
 20
49.778416
 11
281.341187
 21
49.778416
  0
LINE
  8
0
  6
CONTINUOUS
 10
282.437103
 20
49.778416
 11
285.412415
 21
49.776478
  0
LINE
  8
0
  6
CONTINUOUS
 10
267.194489
 20
49.107258
 11
267.194489
 21
48.956501
  0
LINE
  8
0
  6
CONTINUOUS
 10
262.970001
 20
41.384998
 11
266.285797
 21
41.384998
  0
LINE
  8
0
  6
CONTINUOUS
 10
282.437103
 20
46.851688
 11
284.892090
 21
46.851688
  0
LINE
  8
0
  6
CONTINUOUS
 10
282.437103
 20
45.855671
 11
284.477814
 21
45.855671
  0
LINE
  8
0
  6
CONTINUOUS
 10
265.525787
 20
46.939098
 11
268.115997
 21
46.939098
  0
LINE
  8
0
  6
CONTINUOUS
 10
326.907898
 20
93.094299
 11
397.489990
 21
93.094299
  0
LINE
  8
0
  6
CONTINUOUS
 10
326.907898
 20
24.275700
 11
397.489990
 21
24.275700
  0
LINE
  8
0
  6
CONTINUOUS
 10
406.989990
 20
103.684998
 11
397.489990
 21
103.684998
  0
LINE
  8
0
  6
CONTINUOUS
 10
397.489990
 20
93.094299
 11
406.989990
 21
93.094299
  0
LINE
  8
0
  6
CONTINUOUS
 10
406.989990
 20
13.685000
 11
397.489990
 21
13.685000
  0
LINE
  8
0
  6
CONTINUOUS
 10
397.489990
 20
24.275700
 11
406.989990
 21
24.275700
  0
LINE
  8
0
  6
CONTINUOUS
 10
406.989990
 20
105.684998
 11
406.989990
 21
11.685000
  0
LINE
  8
0
  6
CONTINUOUS
 10
406.989990
 20
87.684998
 11
450.964996
 21
87.684998
  0
LINE
  8
0
  6
CONTINUOUS
 10
406.989990
 20
29.684999
 11
450.964996
 21
29.684999
  0
LINE
  8
0
  6
CONTINUOUS
 10
396.989990
 20
105.184998
 11
396.989990
 21
103.684998
  0
LINE
  8
0
  6
CONTINUOUS
 10
403.989990
 20
105.184998
 11
403.989990
 21
103.684998
  0
LINE
  8
0
  6
CONTINUOUS
 10
403.989990
 20
105.184998
 11
396.989990
 21
105.184998
  0
LINE
  8
0
  6
CONTINUOUS
 10
399.589996
 20
118.184998
 11
399.589996
 21
105.184998
  0
LINE
  8
0
  6
CONTINUOUS
 10
401.390015
 20
118.809998
 11
401.390015
 21
105.184998
  0
LINE
  8
0
  6
CONTINUOUS
 10
403.190002
 20
116.747498
 11
403.190002
 21
105.184998
  0
LINE
  8
0
  6
CONTINUOUS
 10
397.790009
 20
117.559998
 11
397.790009
 21
105.184998
  0
LINE
  8
0
  6
CONTINUOUS
 10
401.390015
 20
118.809998
 11
399.589996
 21
118.184998
  0
LINE
  8
0
  6
CONTINUOUS
 10
403.190002
 20
116.747498
 11
401.390015
 21
117.372498
  0
LINE
  8
0
  6
CONTINUOUS
 10
397.790009
 20
117.559998
 11
399.588989
 21
117.112289
  0
LINE
  8
0
  6
CONTINUOUS
 10
449.489990
 20
105.684998
 11
406.989990
 21
105.684998
  0
LINE
  8
0
  6
CONTINUOUS
 10
449.489990
 20
11.685000
 11
406.989990
 21
11.685000
  0
ARC
  8
0
  6
CONTINUOUS
 10
449.489990
 20
100.685028
 40
5.000000
 50
0.000000
 51
90.000000
  0
ARC
  8
0
  6
CONTINUOUS
 10
449.489990
 20
16.684999
 40
5.000000
 50
-90.000000
 51
0.000000
  0
LINE
  8
0
  6
CONTINUOUS
 10
454.489990
 20
100.685013
 11
454.489990
 21
16.684990
  0
LINE
  8
0
  6
CONTINUOUS
 10
268.989990
 20
87.385002
 11
268.989990
 21
81.385002
  0
LINE
  8
0
  6
CONTINUOUS
 10
262.989990
 20
87.385002
 11
262.989990
 21
81.385002
  0
LINE
  8
0
  6
CONTINUOUS
 10
262.989990
 20
87.385002
 11
268.989990
 21
87.385002
  0
LINE
  8
0
  6
CONTINUOUS
 10
262.989990
 20
81.385002
 11
268.989990
 21
81.385002
  0
ARC
  8
0
  6
CONTINUOUS
 10
274.489990
 20
84.385002
 40
9.000000
 50
-160.528793
 51
160.528793
  0
LINE
  8
0
  6
CENTER
 10
274.489990
 20
205.276871
 11
274.489990
 21
353.131256
  0
LINE
  8
0
  6
CENTER
 10
236.490005
 20
226.928757
 11
236.490005
 21
248.258743
  0
LINE
  8
0
  6
CENTER
 10
466.476257
 20
286.154388
 11
210.348755
 21
286.154388
  0
LINE
  8
0
  6
CONTINUOUS
 10
224.830887
 20
237.979858
 11
223.990005
 21
286.154388
  0
LINE
  8
0
  6
CONTINUOUS
 10
234.829361
 20
228.154373
 11
262.989990
 21
228.154373
  0
LINE
  8
0
  6
CONTINUOUS
 10
322.989990
 20
249.154373
 11
226.601227
 21
249.154373
  0
ARC
  8
0
  6
CONTINUOUS
 10
234.829361
 20
238.154373
 40
10.000000
 50
-179.000000
 51
-90.000000
  0
ARC
  8
0
  6
CONTINUOUS
 10
226.601227
 20
251.154373
 40
2.000000
 50
-179.000000
 51
-90.000000
  0
LINE
  8
0
  6
CENTER
 10
247.982193
 20
238.154373
 11
226.849686
 21
238.154373
  0
CIRCLE
  8
0
  6
CONTINUOUS
 10
236.490005
 20
238.154373
 40
4.250000
  0
LINE
  8
0
  6
CENTER
 10
312.489990
 20
226.731247
 11
312.489990
 21
248.061249
  0
LINE
  8
0
  6
CONTINUOUS
 10
324.149109
 20
237.979858
 11
324.335083
 21
248.634491
  0
ARC
  8
0
  6
CONTINUOUS
 10
314.150635
 20
238.154373
 40
10.000000
 50
-90.000000
 51
-1.000000
  0
ARC
  8
0
  6
CONTINUOUS
 10
322.378754
 20
251.154373
 40
2.000000
 50
-90.000000
 51
-1.000000
  0
LINE
  8
0
  6
CENTER
 10
301.800934
 20
238.154373
 11
322.439697
 21
238.154373
  0
CIRCLE
  8
0
  6
CONTINUOUS
 10
312.489990
 20
238.154373
 40
4.250000
  0
LINE
  8
0
  6
CONTINUOUS
 10
324.989990
 20
247.154373
 11
324.989990
 21
243.154373
  0
LINE
  8
0
  6
CONTINUOUS
 10
326.989990
 20
241.154373
 11
397.489990
 21
241.154373
  0
ARC
  8
0
  6
CONTINUOUS
 10
326.989990
 20
243.154373
 40
2.000000
 50
-180.000000
 51
-90.000000
  0
ARC
  8
0
  6
CONTINUOUS
 10
322.989990
 20
247.154373
 40
2.000000
 50
0.000000
 51
90.000000
  0
LINE
  8
0
  6
CONTINUOUS
 10
324.378448
 20
251.119476
 11
324.483795
 21
257.154388
  0
LINE
  8
0
  6
CONTINUOUS
 10
397.489990
 20
257.154388
 11
318.147461
 21
257.154388
  0
LINE
  8
0
  6
CONTINUOUS
 10
397.489990
 20
315.154388
 11
318.147461
 21
315.154388
  0
LINE
  8
0
  6
CONTINUOUS
 10
326.989990
 20
331.154388
 11
397.489990
 21
331.154388
  0
ARC
  8
0
  6
CONTINUOUS
 10
326.989990
 20
329.154388
 40
2.000000
 50
-270.000000
 51
-180.000000
  0
LINE
  8
0
  6
CENTER
 10
236.490005
 20
347.996246
 11
236.490005
 21
323.901245
  0
LINE
  8
0
  6
CONTINUOUS
 10
224.830887
 20
334.328888
 11
223.990005
 21
286.154388
  0
LINE
  8
0
  6
CONTINUOUS
 10
234.829361
 20
344.154388
 11
274.489990
 21
344.154388
  0
LINE
  8
0
  6
CONTINUOUS
 10
322.989990
 20
323.154388
 11
226.601227
 21
323.154388
  0
ARC
  8
0
  6
CONTINUOUS
 10
234.829361
 20
334.154388
 40
10.000000
 50
-270.000000
 51
-181.000000
  0
ARC
  8
0
  6
CONTINUOUS
 10
226.601227
 20
321.154388
 40
2.000000
 50
-270.000000
 51
-181.000000
  0
LINE
  8
0
  6
CENTER
 10
246.994690
 20
334.154388
 11
226.454681
 21
334.154388
  0
CIRCLE
  8
0
  6
CONTINUOUS
 10
236.490005
 20
334.154388
 40
4.250000
  0
LINE
  8
0
  6
CENTER
 10
312.489990
 20
348.391235
 11
312.489990
 21
323.703735
  0
LINE
  8
0
  6
CONTINUOUS
 10
324.149109
 20
334.328888
 11
324.335083
 21
323.674255
  0
ARC
  8
0
  6
CONTINUOUS
 10
314.150635
 20
334.154388
 40
10.000000
 50
-359.000000
 51
-270.000000
  0
ARC
  8
0
  6
CONTINUOUS
 10
322.378754
 20
321.154388
 40
2.000000
 50
-359.000000
 51
-270.000000
  0
LINE
  8
0
  6
CENTER
 10
303.084686
 20
334.154388
 11
322.637177
 21
334.154388
  0
CIRCLE
  8
0
  6
CONTINUOUS
 10
312.489990
 20
334.154388
 40
4.250000
  0
LINE
  8
0
  6
CONTINUOUS
 10
324.989990
 20
325.154388
 11
324.989990
 21
329.154388
  0
ARC
  8
0
  6
CONTINUOUS
 10
322.989990
 20
325.154388
 40
2.000000
 50
-90.000000
 51
0.000000
  0
LINE
  8
0
  6
CONTINUOUS
 10
324.378448
 20
321.189270
 11
324.483795
 21
315.154388
  0
LINE
  8
0
  6
CONTINUOUS
 10
291.489990
 20
254.154373
 11
291.489990
 21
318.154388
  0
LINE
  8
0
  6
CONTINUOUS
 10
257.489990
 20
254.154373
 11
257.489990
 21
318.154388
  0
LINE
  8
0
  6
CONTINUOUS
 10
318.147461
 20
259.154388
 11
318.147461
 21
313.154388
  0
LINE
  8
0
  6
CONTINUOUS
 10
251.989990
 20
244.154373
 11
296.989990
 21
244.154373
  0
LINE
  8
0
  6
CONTINUOUS
 10
297.989990
 20
245.154373
 11
297.989990
 21
247.154373
  0
LINE
  8
0
  6
CONTINUOUS
 10
250.989990
 20
245.154373
 11
250.989990
 21
247.154373
  0
ARC
  8
0
  6
CONTINUOUS
 10
299.989990
 20
247.154373
 40
2.000000
 50
-270.000000
 51
-180.000000
  0
ARC
  8
0
  6
CONTINUOUS
 10
248.990005
 20
247.154373
 40
2.000000
 50
0.000000
 51
90.000000
  0
ARC
  8
0
  6
CONTINUOUS
 10
296.989990
 20
245.154373
 40
1.000000
 50
-90.000000
 51
0.000000
  0
ARC
  8
0
  6
CONTINUOUS
 10
251.989990
 20
245.154373
 40
1.000000
 50
-180.000000
 51
-90.000000
  0
LINE
  8
0
  6
CONTINUOUS
 10
262.989990
 20
212.154373
 11
283.489990
 21
212.154373
  0
LINE
  8
0
  6
CONTINUOUS
 10
283.489990
 20
242.154373
 11
283.489990
 21
212.154373
  0
LINE
  8
0
  6
CONTINUOUS
 10
265.489990
 20
242.154373
 11
265.489990
 21
239.154373
  0
LINE
  8
0
  6
CONTINUOUS
 10
284.489990
 20
242.154373
 11
264.489990
 21
242.154373
  0
LINE
  8
0
  6
CONTINUOUS
 10
284.489990
 20
244.154373
 11
284.489990
 21
242.154373
  0
LINE
  8
0
  6
CONTINUOUS
 10
264.489990
 20
244.154373
 11
264.489990
 21
242.154373
  0
LINE
  8
0
  6
CONTINUOUS
 10
262.989990
 20
212.154373
 11
262.989990
 21
239.154373
  0
LINE
  8
0
  6
CONTINUOUS
 10
262.989990
 20
239.154373
 11
266.005005
 21
239.154373
  0
LINE
  8
0
  6
CONTINUOUS
 10
266.005005
 20
212.154373
 11
266.005005
 21
239.154373
  0
LINE
  8
0
  6
CONTINUOUS
 10
283.489990
 20
228.154373
 11
314.150635
 21
228.154373
  0
LINE
  8
0
  6
CONTINUOUS
 10
251.989990
 20
328.154388
 11
296.989990
 21
328.154388
  0
LINE
  8
0
  6
CONTINUOUS
 10
297.989990
 20
327.154388
 11
297.989990
 21
325.154388
  0
LINE
  8
0
  6
CONTINUOUS
 10
250.989990
 20
327.154388
 11
250.989990
 21
325.154388
  0
ARC
  8
0
  6
CONTINUOUS
 10
299.989990
 20
325.154388
 40
2.000000
 50
-180.000000
 51
-90.000000
  0
ARC
  8
0
  6
CONTINUOUS
 10
248.990005
 20
325.154388
 40
2.000000
 50
-90.000000
 51
0.000000
  0
ARC
  8
0
  6
CONTINUOUS
 10
296.989990
 20
327.154388
 40
1.000000
 50
0.000000
 51
90.000000
  0
ARC
  8
0
  6
CONTINUOUS
 10
251.989990
 20
327.154388
 40
1.000000
 50
-270.000000
 51
-180.000000
  0
LINE
  8
0
  6
CONTINUOUS
 10
274.489990
 20
344.154388
 11
314.150635
 21
344.154388
  0
LINE
  8
0
  6
CONTINUOUS
 10
406.989990
 20
241.154373
 11
397.489990
 21
241.154373
  0
LINE
  8
0
  6
CONTINUOUS
 10
397.489990
 20
257.154388
 11
406.989990
 21
257.154388
  0
LINE
  8
0
  6
CONTINUOUS
 10
406.989990
 20
331.154388
 11
397.489990
 21
331.154388
  0
LINE
  8
0
  6
CONTINUOUS
 10
397.489990
 20
331.154388
 11
397.489990
 21
293.020386
  0
LINE
  8
0
  6
CONTINUOUS
 10
397.489990
 20
315.154388
 11
406.989990
 21
315.154388
  0
LINE
  8
0
  6
CONTINUOUS
 10
403.989990
 20
292.154388
 11
403.989990
 21
280.154388
  0
LINE
  8
0
  6
CONTINUOUS
 10
396.989990
 20
292.154388
 11
396.989990
 21
280.154388
  0
LINE
  8
0
  6
CONTINUOUS
 10
402.989990
 20
279.154388
 11
397.989990
 21
279.154388
  0
LINE
  8
0
  6
CONTINUOUS
 10
397.989990
 20
293.154388
 11
402.989990
 21
293.154388
  0
ARC
  8
0
  6
CONTINUOUS
 10
397.989990
 20
280.154388
 40
1.000000
 50
180.000000
 51
270.000000
  0
ARC
  8
0
  6
CONTINUOUS
 10
402.989990
 20
280.154388
 40
1.000000
 50
-90.000000
 51
0.000000
  0
ARC
  8
0
  6
CONTINUOUS
 10
402.989990
 20
292.154388
 40
1.000000
 50
0.000000
 51
90.000000
  0
ARC
  8
0
  6
CONTINUOUS
 10
397.989990
 20
292.154388
 40
1.000000
 50
90.000000
 51
180.000000
  0
LINE
  8
0
  6
CONTINUOUS
 10
399.489990
 20
289.654388
 11
399.489990
 21
282.654388
  0
LINE
  8
0
  6
CONTINUOUS
 10
401.489990
 20
289.654388
 11
401.489990
 21
282.654388
  0
ARC
  8
0
  6
CONTINUOUS
 10
400.489990
 20
282.654388
 40
1.000000
 50
-90.000000
 51
0.000000
  0
ARC
  8
0
  6
CONTINUOUS
 10
400.489990
 20
282.654388
 40
1.000000
 50
180.000000
 51
270.000000
  0
ARC
  8
0
  6
CONTINUOUS
 10
400.489990
 20
289.654388
 40
1.000000
 50
0.000000
 51
90.000000
  0
ARC
  8
0
  6
CONTINUOUS
 10
400.489990
 20
289.654388
 40
1.000000
 50
90.000000
 51
180.000000
  0
LINE
  8
0
  6
CONTINUOUS
 10
397.489990
 20
279.288361
 11
397.489990
 21
241.154373
  0
LINE
  8
0
  6
CONTINUOUS
 10
406.989990
 20
239.154373
 11
406.989990
 21
333.154388
  0
LINE
  8
0
  6
CONTINUOUS
 10
406.989990
 20
257.154388
 11
450.965027
 21
257.154388
  0
LINE
  8
0
  6
CONTINUOUS
 10
406.989990
 20
315.154388
 11
450.965027
 21
315.154388
  0
LINE
  8
0
  6
CONTINUOUS
 10
449.490021
 20
239.154373
 11
406.989990
 21
239.154373
  0
LINE
  8
0
  6
CONTINUOUS
 10
449.490021
 20
333.154388
 11
406.989990
 21
333.154388
  0
ARC
  8
0
  6
CONTINUOUS
 10
449.489990
 20
244.154373
 40
5.000000
 50
-90.000000
 51
0.000000
  0
ARC
  8
0
  6
CONTINUOUS
 10
449.490021
 20
328.154388
 40
5.000000
 50
0.000000
 51
90.000000
  0
LINE
  8
0
  6
CONTINUOUS
 10
454.489990
 20
244.154373
 11
454.490021
 21
328.154388
  0
ARC
  8
0
  6
CONTINUOUS
 10
406.989990
 20
325.424225
 40
4.500000
 50
180.000000
 51
270.000000
  0
ARC
  8
0
  6
CONTINUOUS
 10
406.989990
 20
325.424225
 40
3.000000
 50
180.000000
 51
270.000000
  0
ARC
  8
0
  6
CONTINUOUS
 10
406.989990
 20
325.424225
 40
1.500000
 50
180.000000
 51
270.000000
  0
LINE
  8
0
  6
CONTINUOUS
 10
405.489990
 20
325.424225
 11
405.489990
 21
330.439819
  0
LINE
  8
0
  6
CONTINUOUS
 10
403.989990
 20
325.424225
 11
403.989990
 21
329.924225
  0
LINE
  8
0
  6
CONTINUOUS
 10
402.489990
 20
325.424225
 11
402.489990
 21
329.924225
  0
LINE
  8
0
  6
CONTINUOUS
 10
405.489990
 20
330.424225
 11
403.989990
 21
329.924225
  0
LINE
  8
0
  6
CONTINUOUS
 10
403.989990
 20
329.424225
 11
402.489990
 21
329.924225
  0
TEXT
  8
0
 10
-13.000000
 20
1.000000
 40
4.000000
 41
1.000000
  1
HLMN-18L-10~240-S90
 50
0.000000
  0
ENDSEC
  0
EOF
