  0
SECTION
  2
HEADER
  9
$ACADVER
  1
AC1014
  9
$ACADMAINTVER
 70
     9
  9
$DWGCODEPAGE
  3
ANSI_932
  9
$INSBASE
 10
0.0
 20
0.0
 30
0.0
  9
$EXTMIN
 10
46.33056302414343
 20
49.81310296889893
 30
0.0
  9
$EXTMAX
 10
759.0122671316017
 20
412.7859833461896
 30
0.0
  9
$LIMMIN
 10
0.0
 20
0.0
  9
$LIMMAX
 10
297.0
 20
210.0
  9
$ORTHOMODE
 70
     1
  9
$REGENMODE
 70
     1
  9
$FILLMODE
 70
     1
  9
$QTEXTMODE
 70
     0
  9
$MIRRTEXT
 70
     0
  9
$DRAGMODE
 70
     2
  9
$LTSCALE
 40
2.0
  9
$OSMODE
 70
    37
  9
$ATTMODE
 70
     1
  9
$TEXTSIZE
 40
2.0
  9
$TRACEWID
 40
1.0
  9
$TEXTSTYLE
  7
STANDARD
  9
$CLAYER
  8
0
  9
$CELTYPE
  6
BYLAYER
  9
$CECOLOR
 62
   256
  9
$CELTSCALE
 40
1.0
  9
$DELOBJ
 70
     1
  9
$DISPSILH
 70
     0
  9
$DIMSCALE
 40
2.0
  9
$DIMASZ
 40
1.8
  9
$DIMEXO
 40
0.625
  9
$DIMDLI
 40
3.75
  9
$DIMRND
 40
0.0
  9
$DIMDLE
 40
0.0
  9
$DIMEXE
 40
0.8
  9
$DIMTP
 40
0.0
  9
$DIMTM
 40
0.0
  9
$DIMTXT
 40
1.8
  9
$DIMCEN
 40
2.5
  9
$DIMTSZ
 40
0.0
  9
$DIMTOL
 70
     0
  9
$DIMLIM
 70
     0
  9
$DIMTIH
 70
     0
  9
$DIMTOH
 70
     0
  9
$DIMSE1
 70
     0
  9
$DIMSE2
 70
     0
  9
$DIMTAD
 70
     1
  9
$DIMZIN
 70
     8
  9
$DIMBLK
  1

  9
$DIMASO
 70
     1
  9
$DIMSHO
 70
     1
  9
$DIMPOST
  1

  9
$DIMAPOST
  1

  9
$DIMALT
 70
     0
  9
$DIMALTD
 70
     4
  9
$DIMALTF
 40
0.0394
  9
$DIMLFAC
 40
1.0
  9
$DIMTOFL
 70
     1
  9
$DIMTVP
 40
0.0
  9
$DIMTIX
 70
     0
  9
$DIMSOXD
 70
     0
  9
$DIMSAH
 70
     0
  9
$DIMBLK1
  1

  9
$DIMBLK2
  1

  9
$DIMSTYLE
  2
STANDARD
  9
$DIMCLRD
 70
     0
  9
$DIMCLRE
 70
     0
  9
$DIMCLRT
 70
     0
  9
$DIMTFAC
 40
1.0
  9
$DIMGAP
 40
0.75
  9
$DIMJUST
 70
     0
  9
$DIMSD1
 70
     0
  9
$DIMSD2
 70
     0
  9
$DIMTOLJ
 70
     1
  9
$DIMTZIN
 70
     0
  9
$DIMALTZ
 70
     0
  9
$DIMALTTZ
 70
     0
  9
$DIMFIT
 70
     3
  9
$DIMUPT
 70
     0
  9
$DIMUNIT
 70
     8
  9
$DIMDEC
 70
     2
  9
$DIMTDEC
 70
     2
  9
$DIMALTU
 70
     8
  9
$DIMALTTD
 70
     4
  9
$DIMTXSTY
  7
STANDARD
  9
$DIMAUNIT
 70
     0
  9
$LUNITS
 70
     2
  9
$LUPREC
 70
     3
  9
$SKETCHINC
 40
1.0
  9
$FILLETRAD
 40
10.0
  9
$AUNITS
 70
     0
  9
$AUPREC
 70
     2
  9
$MENU
  1
.
  9
$ELEVATION
 40
0.0
  9
$PELEVATION
 40
0.0
  9
$THICKNESS
 40
0.0
  9
$LIMCHECK
 70
     0
  9
$BLIPMODE
 70
     0
  9
$CHAMFERA
 40
0.0
  9
$CHAMFERB
 40
0.0
  9
$CHAMFERC
 40
20.0
  9
$CHAMFERD
 40
0.0
  9
$SKPOLY
 70
     0
  9
$TDCREATE
 40
2453753.554970335
  9
$TDUPDATE
 40
2453832.471066261
  9
$TDINDWG
 40
0.4537346065
  9
$TDUSRTIMER
 40
0.4537346065
  9
$USRTIMER
 70
     1
  9
$ANGBASE
 50
0.0
  9
$ANGDIR
 70
     0
  9
$PDMODE
 70
     0
  9
$PDSIZE
 40
-10.0
  9
$PLINEWID
 40
0.0
  9
$COORDS
 70
     0
  9
$SPLFRAME
 70
     0
  9
$SPLINETYPE
 70
     6
  9
$SPLINESEGS
 70
     8
  9
$ATTDIA
 70
     0
  9
$ATTREQ
 70
     1
  9
$HANDLING
 70
-16383
  9
$HANDSEED
  5
2468
  9
$SURFTAB1
 70
     6
  9
$SURFTAB2
 70
     6
  9
$SURFTYPE
 70
     6
  9
$SURFU
 70
     6
  9
$SURFV
 70
     6
  9
$UCSNAME
  2

  9
$UCSORG
 10
0.0
 20
0.0
 30
0.0
  9
$UCSXDIR
 10
1.0
 20
0.0
 30
0.0
  9
$UCSYDIR
 10
0.0
 20
1.0
 30
0.0
  9
$PUCSNAME
  2

  9
$PUCSORG
 10
0.0
 20
0.0
 30
0.0
  9
$PUCSXDIR
 10
1.0
 20
0.0
 30
0.0
  9
$PUCSYDIR
 10
0.0
 20
1.0
 30
0.0
  9
$USERI1
 70
     0
  9
$USERI2
 70
     0
  9
$USERI3
 70
     0
  9
$USERI4
 70
     0
  9
$USERI5
 70
     0
  9
$USERR1
 40
0.0
  9
$USERR2
 40
0.0
  9
$USERR3
 40
0.0
  9
$USERR4
 40
0.0
  9
$USERR5
 40
0.0
  9
$WORLDVIEW
 70
     1
  9
$SHADEDGE
 70
     3
  9
$SHADEDIF
 70
    70
  9
$TILEMODE
 70
     1
  9
$MAXACTVP
 70
    48
  9
$PINSBASE
 10
0.0
 20
0.0
 30
0.0
  9
$PLIMCHECK
 70
     0
  9
$PEXTMIN
 10
0.0
 20
0.0
 30
0.0
  9
$PEXTMAX
 10
0.0
 20
0.0
 30
0.0
  9
$PLIMMIN
 10
0.0
 20
0.0
  9
$PLIMMAX
 10
12.0
 20
9.0
  9
$UNITMODE
 70
     0
  9
$VISRETAIN
 70
     1
  9
$PLINEGEN
 70
     0
  9
$PSLTSCALE
 70
     1
  9
$TREEDEPTH
 70
  3020
  9
$PICKSTYLE
 70
     1
  9
$CMLSTYLE
  2
STANDARD
  9
$CMLJUST
 70
     0
  9
$CMLSCALE
 40
1.0
  9
$PROXYGRAPHICS
 70
     1
  9
$MEASUREMENT
 70
     0
  0
ENDSEC
  0
SECTION
  2
CLASSES
  0
CLASS
  1
DICTIONARYVAR
  2
AcDbDictionaryVar
  3
AutoCAD 2000
 90
        0
280
     0
281
     0
  0
CLASS
  1
ACDBDICTIONARYWDFLT
  2
AcDbDictionaryWithDefault
  3
AutoCAD 2000
 90
        0
280
     0
281
     0
  0
CLASS
  1
ACDBPLACEHOLDER
  2
AcDbPlaceHolder
  3
AutoCAD 2000
 90
        0
280
     0
281
     0
  0
CLASS
  1
LAYOUT
  2
AcDbLayout
  3
AutoCAD 2000
 90
        0
280
     0
281
     0
  0
CLASS
  1
LONG_TRANSACTION
  2
AcDbLongTransaction
  3
AutoCAD 2000
 90
        0
280
     0
281
     0
  0
CLASS
  1
LWPOLYLINE
  2
AcDbPolyline
  3
AutoCAD 2000
 90
        0
280
     0
281
     1
  0
CLASS
  1
HATCH
  2
AcDbHatch
  3
AutoCAD 2000
 90
        0
280
     0
281
     1
  0
CLASS
  1
XRECORD
  2
AcDbXrecord
  3
AutoCAD 2000
 90
        0
280
     0
281
     0
  0
ENDSEC
  0
SECTION
  2
TABLES
  0
TABLE
  2
VPORT
  5
6E
330
0
100
AcDbSymbolTable
 70
     2
  0
VPORT
  5
2442
330
6E
100
AcDbSymbolTableRecord
100
AcDbViewportTableRecord
  2
*ACTIVE
 70
     0
 10
0.0
 20
0.0
 11
1.0
 21
1.0
 12
394.5332718343221
 22
219.6200825700413
 13
0.0
 23
0.0
 14
10.0
 24
10.0
 15
10.0
 25
10.0
 16
0.0
 26
0.0
 36
1.0
 17
0.0
 27
0.0
 37
0.0
 40
467.6228262373705
 41
1.566970091027308
 42
50.0
 43
0.0
 44
0.0
 50
0.0
 51
0.0
 71
     0
 72
   100
 73
     1
 74
     3
 75
     0
 76
     0
 77
     0
 78
     0
  0
ENDTAB
  0
TABLE
  2
LTYPE
  5
69
330
0
100
AcDbSymbolTable
 70
     4
  0
LTYPE
  5
6A
330
69
100
AcDbSymbolTableRecord
100
AcDbLinetypeTableRecord
  2
BYBLOCK
 70
     0
  3

 72
    65
 73
     0
 40
0.0
  0
LTYPE
  5
6B
330
69
100
AcDbSymbolTableRecord
100
AcDbLinetypeTableRecord
  2
BYLAYER
 70
     0
  3

 72
    65
 73
     0
 40
0.0
  0
LTYPE
  5
8
330
69
100
AcDbSymbolTableRecord
100
AcDbLinetypeTableRecord
  2
CONTINUOUS
 70
     0
  3
Solid line
 72
    65
 73
     0
 40
0.0
  0
LTYPE
  5
27C
330
69
100
AcDbSymbolTableRecord
100
AcDbLinetypeTableRecord
  2
SEKKEI_A2_
 70
     0
  3
center(A2)  ____ _ ____ _ ____ _ ____ _ ____ _ 
 72
    65
 73
     4
 40
14.28749999999999
 49
9.525
 74
     0
 49
-1.587499999999999
 74
     0
 49
1.587499999999999
 74
     0
 49
-1.587499999999999
 74
     0
  0
LTYPE
  5
2B4
330
69
100
AcDbSymbolTableRecord
100
AcDbLinetypeTableRecord
  2
HIDDEN2
 70
     0
  3
Hidden (.5x) _ _ _ _ _ _ _ _ _ _ _ _ _ _ _ _ _
 72
    65
 73
     2
 40
4.762499999999999
 49
3.174999999999999
 74
     0
 49
-1.587499999999999
 74
     0
  0
LTYPE
  5
48F
330
69
100
AcDbSymbolTableRecord
100
AcDbLinetypeTableRecord
  2
SEKKEI_H
 70
     0
  3
Hidden-S _ _ _ _ _ _ _ _ _ _ _ _ _ _ _ _ _
 72
    65
 73
     2
 40
2.381249999999999
 49
1.587499999999999
 74
     0
 49
-0.79375
 74
     0
  0
ENDTAB
  0
TABLE
  2
LAYER
  5
66
330
0
100
AcDbSymbolTable
 70
     9
  0
LAYER
  5
5E
330
66
100
AcDbSymbolTableRecord
100
AcDbLayerTableRecord
  2
0
 70
     0
 62
     7
  6
CONTINUOUS
  0
LAYER
  5
3E
330
66
100
AcDbSymbolTableRecord
100
AcDbLayerTableRecord
  2
CENTER
 70
     0
 62
     3
  6
SEKKEI_A2_
  0
LAYER
  5
2B5
330
66
100
AcDbSymbolTableRecord
100
AcDbLayerTableRecord
  2
HIDS
 70
     0
 62
     1
  6
HIDDEN2
  0
LAYER
  5
2BA
330
66
100
AcDbSymbolTableRecord
100
AcDbLayerTableRecord
  2
HOJO
 70
     0
 62
     4
  6
CONTINUOUS
  0
LAYER
  5
3FA
330
66
100
AcDbSymbolTableRecord
100
AcDbLayerTableRecord
  2
TITLE
 70
     0
 62
     4
  6
CONTINUOUS
  0
ENDTAB
  0
TABLE
  2
STYLE
  5
67
330
0
100
AcDbSymbolTable
 70
     1
  0
STYLE
  5
16
330
67
100
AcDbSymbolTableRecord
100
AcDbTextStyleTableRecord
  2
STANDARD
 70
     0
 40
0.0
 41
1.0
 50
0.0
 71
     0
 42
2.0
  3
simplex.shx
  4
extfont.shx
  0
ENDTAB
  0
TABLE
  2
VIEW
  5
6C
330
0
100
AcDbSymbolTable
 70
     0
  0
ENDTAB
  0
TABLE
  2
UCS
  5
6D
330
0
100
AcDbSymbolTable
 70
     0
  0
ENDTAB
  0
TABLE
  2
APPID
  5
70
330
0
100
AcDbSymbolTable
 70
     1
  0
APPID
  5
71
330
70
100
AcDbSymbolTableRecord
100
AcDbRegAppTableRecord
  2
ACAD
 70
     0
  0
ENDTAB
  0
TABLE
  2
DIMSTYLE
  5
72
330
0
100
AcDbSymbolTable
 70
     2
  0
DIMSTYLE
105
73
330
72
100
AcDbSymbolTableRecord
100
AcDbDimStyleTableRecord
  2
STANDARD
 70
     0
  3

  4

  5

  6

  7

 40
2.0
 41
1.8
 42
0.625
 43
3.75
 44
0.8
 45
0.0
 46
0.0
 47
0.0
 48
0.0
140
1.8
141
2.5
142
0.0
143
0.0394
144
1.0
145
0.0
146
1.0
147
0.75
 71
     0
 72
     0
 73
     0
 74
     0
 75
     0
 76
     0
 77
     1
 78
     8
170
     0
171
     4
172
     1
173
     0
174
     0
175
     0
176
     0
177
     0
178
     0
270
     8
271
     2
272
     2
273
     8
274
     4
340
16
275
     0
280
     0
281
     0
282
     0
283
     1
284
     0
285
     0
286
     0
287
     3
288
     0
  0
ENDTAB
  0
TABLE
  2
BLOCK_RECORD
  5
1
330
0
100
AcDbSymbolTable
 70
    81
  0
BLOCK_RECORD
  5
2
102
{ACAD_XDICTIONARY
360
2464
102
}
330
1
100
AcDbSymbolTableRecord
100
AcDbBlockTableRecord
  2
*MODEL_SPACE
  0
BLOCK_RECORD
  5
243D
102
{ACAD_XDICTIONARY
360
2466
102
}
330
1
100
AcDbSymbolTableRecord
100
AcDbBlockTableRecord
  2
*PAPER_SPACE
  0
ENDTAB
  0
ENDSEC
  0
SECTION
  2
BLOCKS
  0
BLOCK
  5
5D
330
2
100
AcDbEntity
  8
0
100
AcDbBlockBegin
  2
*MODEL_SPACE
 70
     0
 10
0.0
 20
0.0
 30
0.0
  3
*MODEL_SPACE
  1

  0
ENDBLK
  5
5F
330
2
100
AcDbEntity
  8
0
100
AcDbBlockEnd
  0
BLOCK
  5
243F
330
243D
100
AcDbEntity
 67
     1
  8
0
100
AcDbBlockBegin
  2
*PAPER_SPACE
 70
     0
 10
0.0
 20
0.0
 30
0.0
  3
*PAPER_SPACE
  1

  0
ENDBLK
  5
2440
330
243D
100
AcDbEntity
 67
     1
  8
0
100
AcDbBlockEnd
  0
ENDSEC
  0
SECTION
  2
ENTITIES
  0
ARC
  5
61A
330
2
100
AcDbEntity
  8
0
100
AcDbCircle
 10
272.9912075241462
 20
283.7859683461896
 30
0.0
 40
10.0
100
AcDbArc
 50
270.0
 51
358.9999999999998
  0
LINE
  5
61B
330
2
100
AcDbEntity
  8
0
100
AcDbLine
 10
184.8305785241461
 20
294.7859683461897
 30
0.0
 11
281.2193415241462
 21
294.7859683461897
 31
0.0
  0
ARC
  5
61D
330
2
100
AcDbEntity
  8
0
100
AcDbCircle
 10
272.9912075241462
 20
379.7859833461895
 30
0.0
 40
10.0
100
AcDbArc
 50
1.000000000000156
 51
90.0
  0
LINE
  5
61E
330
2
100
AcDbEntity
  8
0
100
AcDbLine
 10
184.8305785241461
 20
368.7859833461896
 30
0.0
 11
281.2193415241462
 21
368.7859833461896
 31
0.0
  0
LINE
  5
61F
330
2
100
AcDbEntity
  8
CENTER
100
AcDbLine
 10
46.33056302414343
 20
331.7859683461897
 30
0.0
 11
290.8305635241461
 21
331.7859683461897
 31
0.0
  0
LINE
  5
620
330
2
100
AcDbEntity
  8
0
100
AcDbLine
 10
523.6408841316017
 20
147.8062839688989
 30
0.0
 11
553.7197871316018
 21
168.9063899688989
 31
0.0
  0
LINE
  5
621
330
2
100
AcDbEntity
  8
0
100
AcDbLine
 10
620.5122671316017
 20
65.81310296889893
 30
0.0
 11
523.5122821316017
 21
65.81310296889893
 31
0.0
  0
LINE
  5
622
330
2
100
AcDbEntity
  8
0
100
AcDbLine
 10
622.5122671316016
 20
56.81310296889893
 30
0.0
 11
521.5122821316017
 21
56.81310296889893
 31
0.0
  0
LINE
  5
623
330
2
100
AcDbEntity
  8
CENTER
100
AcDbLine
 10
335.3049552181622
 20
131.8131049688989
 30
0.0
 11
470.3049602181622
 21
131.8131049688989
 31
0.0
  0
LINE
  5
624
330
2
100
AcDbEntity
  8
0
100
AcDbLine
 10
354.3255262181622
 20
146.3131049688989
 30
0.0
 11
424.4625072181622
 21
146.3131049688989
 31
0.0
  0
LINE
  5
625
330
2
100
AcDbEntity
  8
0
100
AcDbLine
 10
389.3049532181622
 20
169.8131049688989
 30
0.0
 11
424.3398572181622
 21
169.2015709688989
 31
0.0
  0
LINE
  5
626
330
2
100
AcDbEntity
  8
0
100
AcDbLine
 10
331.3049552181622
 20
56.81310296889893
 30
0.0
 11
447.3049602181622
 21
56.81310296889893
 31
0.0
  0
LINE
  5
627
330
2
100
AcDbEntity
  8
CENTER
100
AcDbLine
 10
335.3049552181622
 20
106.1131039688989
 30
0.0
 11
443.3049532181623
 21
106.1131039688989
 31
0.0
  0
LINE
  5
628
330
2
100
AcDbEntity
  8
0
100
AcDbLine
 10
342.3049552181622
 20
132.2136099688989
 30
0.0
 11
342.3049552181622
 21
80.01259496889895
 31
0.0
  0
LINE
  5
629
330
2
100
AcDbEntity
  8
0
100
AcDbLine
 10
347.3049552181622
 20
109.3131009688989
 30
0.0
 11
347.3049552181622
 21
154.3131049688989
 31
0.0
  0
ARC
  5
62A
330
2
100
AcDbEntity
  8
0
100
AcDbCircle
 10
389.3049532181622
 20
106.1131039688989
 30
0.0
 40
45.0
100
AcDbArc
 50
158.960602
 51
214.6920929999997
  0
LINE
  5
62B
330
2
100
AcDbEntity
  8
0
100
AcDbLine
 10
352.3049572181622
 20
68.81310296889893
 30
0.0
 11
352.3049572181622
 21
167.2017309688989
 31
0.0
  0
LINE
  5
62C
330
2
100
AcDbEntity
  8
CENTER
100
AcDbLine
 10
389.3049532181622
 20
49.81310296889896
 30
0.0
 11
389.3049532181622
 21
189.0005989688989
 31
0.0
  0
LINE
  5
62E
330
2
100
AcDbEntity
  8
HIDS
  6
SEKKEI_H
100
AcDbLine
 10
345.5549552181622
 20
65.81310296889893
 30
0.0
 11
345.5549552181622
 21
56.81310296889893
 31
0.0
  0
LINE
  5
62F
330
2
100
AcDbEntity
  8
HIDS
  6
SEKKEI_H
100
AcDbLine
 10
337.0549552181622
 20
65.81310296889893
 30
0.0
 11
337.0549552181622
 21
56.81310296889893
 31
0.0
  0
LINE
  5
630
330
2
100
AcDbEntity
  8
0
100
AcDbLine
 10
331.3049552181622
 20
63.81310296889893
 30
0.0
 11
331.3049552181622
 21
56.81310296889893
 31
0.0
  0
LINE
  5
631
330
2
100
AcDbEntity
  8
CENTER
100
AcDbLine
 10
341.3049552181622
 20
69.31310796889892
 30
0.0
 11
341.3049552181622
 21
53.31310296889893
 31
0.0
  0
LINE
  5
632
330
2
100
AcDbEntity
  8
0
100
AcDbLine
 10
349.3049552181622
 20
65.81311296889893
 30
0.0
 11
333.3049552181622
 21
65.81310296889893
 31
0.0
  0
ARC
  5
633
330
2
100
AcDbEntity
  8
0
100
AcDbCircle
 10
333.3049662181622
 20
63.81311296889894
 30
0.0
 40
2.0
100
AcDbArc
 50
90.0
 51
180.0
  0
LINE
  5
634
330
2
100
AcDbEntity
  8
0
100
AcDbLine
 10
344.3552062181622
 20
75.06285296889894
 30
0.0
 11
351.9742382181622
 21
67.44382296889892
 31
0.0
  0
ARC
  5
635
330
2
100
AcDbEntity
  8
0
100
AcDbCircle
 10
349.3049552181622
 20
68.81310296889893
 30
0.0
 40
3.0
100
AcDbArc
 50
270.0
 51
0.0
  0
ARC
  5
636
330
2
100
AcDbEntity
  8
0
100
AcDbCircle
 10
349.3049362181622
 20
80.01265196889892
 30
0.0
 40
7.0
100
AcDbArc
 50
180.0
 51
225.0003970000001
  0
ARC
  5
637
330
2
100
AcDbEntity
  8
0
100
AcDbCircle
 10
348.3049552181622
 20
109.3130979688989
 30
0.0
 40
1.0
100
AcDbArc
 50
180.0
 51
270.0
  0
ARC
  5
638
330
2
100
AcDbEntity
  8
0
100
AcDbCircle
 10
350.3049452181623
 20
106.3131089688989
 30
0.0
 40
2.0
100
AcDbArc
 50
0.0
 51
90.0
  0
LINE
  5
639
330
2
100
AcDbEntity
  8
0
100
AcDbLine
 10
348.3049552181622
 20
108.3131009688989
 30
0.0
 11
350.3049452181623
 21
108.3131009688989
 31
0.0
  0
ARC
  5
63A
330
2
100
AcDbEntity
  8
0
100
AcDbCircle
 10
354.3049642181622
 20
167.2017459688989
 30
0.0
 40
2.0
100
AcDbArc
 50
91.00064099999967
 51
180.0
  0
ARC
  5
63B
330
2
100
AcDbEntity
  8
0
100
AcDbCircle
 10
349.3049742181622
 20
132.2136409688989
 30
0.0
 40
7.0
100
AcDbArc
 50
135.0003050000002
 51
180.0
  0
LINE
  5
63C
330
2
100
AcDbEntity
  8
0
100
AcDbLine
 10
344.3552062181622
 20
137.1633549688989
 30
0.0
 11
347.3049552181622
 21
140.1131009688989
 31
0.0
  0
ARC
  5
63D
330
2
100
AcDbEntity
  8
0
100
AcDbCircle
 10
348.3049552181622
 20
154.3130899688989
 30
0.0
 40
1.0
100
AcDbArc
 50
90.0
 51
180.0
  0
ARC
  5
63E
330
2
100
AcDbEntity
  8
0
100
AcDbCircle
 10
350.3049572181622
 20
157.3131049688989
 30
0.0
 40
2.0
100
AcDbArc
 50
270.0
 51
0.0
  0
LINE
  5
63F
330
2
100
AcDbEntity
  8
0
100
AcDbLine
 10
348.3049552181622
 20
155.3131049688989
 30
0.0
 11
350.3049452181623
 21
155.3131049688989
 31
0.0
  0
LINE
  5
640
330
2
100
AcDbEntity
  8
0
100
AcDbLine
 10
354.2700452181623
 20
169.2014339688989
 30
0.0
 11
389.3049532181622
 21
169.8131049688989
 31
0.0
  0
LINE
  5
641
330
2
100
AcDbEntity
  8
0
100
AcDbLine
 10
521.5122821316017
 20
63.81310296889893
 30
0.0
 11
521.5122821316017
 21
143.7129999688989
 31
0.0
  0
LINE
  5
642
330
2
100
AcDbEntity
  8
0
100
AcDbLine
 10
436.3049532181622
 20
80.01258296889892
 30
0.0
 11
436.3049532181622
 21
122.8131049688989
 31
0.0
  0
ARC
  5
643
330
2
100
AcDbEntity
  8
0
100
AcDbCircle
 10
389.3049532181622
 20
106.1131039688989
 30
0.0
 40
45.0
100
AcDbArc
 50
325.3078919999996
 51
20.43779900000008
  0
LINE
  5
644
330
2
100
AcDbEntity
  8
0
100
AcDbLine
 10
431.3049532181622
 20
109.3131009688989
 30
0.0
 11
431.3049532181622
 21
154.3131049688989
 31
0.0
  0
LINE
  5
645
330
2
100
AcDbEntity
  8
0
100
AcDbLine
 10
426.3049382181622
 20
68.81310296889893
 30
0.0
 11
426.3049532181622
 21
167.2018609688989
 31
0.0
  0
LINE
  5
646
330
2
100
AcDbEntity
  8
HIDS
  6
SEKKEI_H
100
AcDbLine
 10
433.0549532181622
 20
65.81310296889893
 30
0.0
 11
433.0549532181622
 21
56.81310296889893
 31
0.0
  0
LINE
  5
647
330
2
100
AcDbEntity
  8
HIDS
  6
SEKKEI_H
100
AcDbLine
 10
441.5549532181622
 20
65.81310296889893
 30
0.0
 11
441.5549532181622
 21
56.81310296889893
 31
0.0
  0
LINE
  5
648
330
2
100
AcDbEntity
  8
CENTER
100
AcDbLine
 10
437.3049532181623
 20
69.31310296889893
 30
0.0
 11
437.3049532181623
 21
53.31310296889893
 31
0.0
  0
LINE
  5
649
330
2
100
AcDbEntity
  8
0
100
AcDbLine
 10
447.3049602181622
 20
63.81310296889893
 30
0.0
 11
447.3049602181622
 21
56.81310296889893
 31
0.0
  0
LINE
  5
64A
330
2
100
AcDbEntity
  8
0
100
AcDbLine
 10
434.2547132181622
 20
75.06285296889894
 30
0.0
 11
426.6356952181622
 21
67.44377396889894
 31
0.0
  0
LINE
  5
64B
330
2
100
AcDbEntity
  8
0
100
AcDbLine
 10
429.3049532181623
 20
65.81310296889893
 30
0.0
 11
445.3049532181622
 21
65.81310296889893
 31
0.0
  0
ARC
  5
64C
330
2
100
AcDbEntity
  8
0
100
AcDbCircle
 10
429.3049532181623
 20
68.81310296889893
 30
0.0
 40
3.0
100
AcDbArc
 50
180.0
 51
270.0
  0
ARC
  5
64D
330
2
100
AcDbEntity
  8
0
100
AcDbCircle
 10
428.3049762181622
 20
106.3131089688989
 30
0.0
 40
2.0
100
AcDbArc
 50
90.0
 51
180.0
  0
ARC
  5
64E
330
2
100
AcDbEntity
  8
0
100
AcDbCircle
 10
430.3049532181622
 20
109.3130979688989
 30
0.0
 40
1.0
100
AcDbArc
 50
270.0
 51
0.0
  0
LINE
  5
64F
330
2
100
AcDbEntity
  8
0
100
AcDbLine
 10
430.3049532181622
 20
108.3131009688989
 30
0.0
 11
428.3049762181622
 21
108.3131009688989
 31
0.0
  0
ARC
  5
650
330
2
100
AcDbEntity
  8
0
100
AcDbCircle
 10
445.3049532181622
 20
63.81309396889895
 30
0.0
 40
2.0
100
AcDbArc
 50
0.0
 51
90.0
  0
ARC
  5
651
330
2
100
AcDbEntity
  8
0
100
AcDbCircle
 10
429.3049532181623
 20
80.01257196889895
 30
0.0
 40
7.0
100
AcDbArc
 50
315.00037
 51
0.0
  0
LINE
  5
652
330
2
100
AcDbEntity
  8
0
100
AcDbLine
 10
521.5122821316017
 20
63.81310296889893
 30
0.0
 11
521.5122821316017
 21
56.81310296889893
 31
0.0
  0
ARC
  5
653
330
2
100
AcDbEntity
  8
0
100
AcDbCircle
 10
523.5122821316017
 20
63.81309396889895
 30
0.0
 40
2.0
100
AcDbArc
 50
90.0
 51
180.0
  0
ARC
  5
654
330
2
100
AcDbEntity
  8
0
100
AcDbCircle
 10
424.3049762181622
 20
167.2018609688989
 30
0.0
 40
2.0
100
AcDbArc
 50
0.0
 51
89.00013700000007
  0
LINE
  5
655
330
2
100
AcDbEntity
  8
0
100
AcDbLine
 10
431.3049532181622
 20
121.8131049688989
 30
0.0
 11
433.3049532181623
 21
121.8131049688989
 31
0.0
  0
LINE
  5
656
330
2
100
AcDbEntity
  8
0
100
AcDbLine
 10
431.3049532181622
 20
141.8131049688989
 30
0.0
 11
433.3049532181623
 21
141.8131049688989
 31
0.0
  0
ARC
  5
657
330
2
100
AcDbEntity
  8
0
100
AcDbCircle
 10
430.3049532181622
 20
154.3130899688989
 30
0.0
 40
1.0
100
AcDbArc
 50
0.0
 51
90.0
  0
ARC
  5
658
330
2
100
AcDbEntity
  8
0
100
AcDbCircle
 10
428.3049532181622
 20
157.3131049688989
 30
0.0
 40
2.0
100
AcDbArc
 50
180.0
 51
270.0
  0
LINE
  5
659
330
2
100
AcDbEntity
  8
0
100
AcDbLine
 10
430.3049532181622
 20
155.3131049688989
 30
0.0
 11
428.3049762181622
 21
155.3131049688989
 31
0.0
  0
LINE
  5
65A
330
2
100
AcDbEntity
  8
0
100
AcDbLine
 10
433.3049532181623
 20
141.8131049688989
 30
0.0
 11
433.3049532181623
 21
121.8131049688989
 31
0.0
  0
LINE
  5
65B
330
2
100
AcDbEntity
  8
0
100
AcDbLine
 10
439.3049762181623
 20
128.8131049688989
 30
0.0
 11
463.3049602181622
 21
128.8131049688989
 31
0.0
  0
LINE
  5
65C
330
2
100
AcDbEntity
  8
0
100
AcDbLine
 10
439.3049532181622
 20
134.8131049688989
 30
0.0
 11
463.3049602181622
 21
134.8131049688989
 31
0.0
  0
LINE
  5
65D
330
2
100
AcDbEntity
  8
0
100
AcDbLine
 10
433.3049532181623
 20
122.8131049688989
 30
0.0
 11
463.3049602181622
 21
122.8131049688989
 31
0.0
  0
LINE
  5
65E
330
2
100
AcDbEntity
  8
0
100
AcDbLine
 10
433.3049532181623
 20
140.8131049688989
 30
0.0
 11
463.3049602181622
 21
140.8131049688989
 31
0.0
  0
ARC
  5
65F
330
2
100
AcDbEntity
  8
0
100
AcDbCircle
 10
439.3049532181622
 20
131.8131049688989
 30
0.0
 40
3.0
100
AcDbArc
 50
90.0
 51
270.0
  0
LINE
  5
660
330
2
100
AcDbEntity
  8
0
100
AcDbLine
 10
463.3049602181622
 20
122.8131049688989
 30
0.0
 11
463.3049602181622
 21
140.8131049688989
 31
0.0
  0
ARC
  5
661
330
2
100
AcDbEntity
  8
0
100
AcDbCircle
 10
526.5122821316017
 20
143.7129849688989
 30
0.0
 40
5.0
100
AcDbArc
 50
125.0491029999999
 51
180.0
  0
LINE
  5
663
330
2
100
AcDbEntity
  8
0
100
AcDbLine
 10
282.9896815241461
 20
283.6114683461896
 30
0.0
 11
283.8305635241462
 21
331.7859683461897
 31
0.0
  0
LINE
  5
664
330
2
100
AcDbEntity
  8
0
100
AcDbLine
 10
282.9896815241461
 20
379.9604983461897
 30
0.0
 11
283.8305635241462
 21
331.7859683461897
 31
0.0
  0
ARC
  5
665
330
2
100
AcDbEntity
  8
0
100
AcDbCircle
 10
281.2193415241462
 20
366.7859833461895
 30
0.0
 40
2.0
100
AcDbArc
 50
1.000000000000156
 51
90.0
  0
ARC
  5
666
330
2
100
AcDbEntity
  8
0
100
AcDbCircle
 10
281.2193415241462
 20
296.7859683461896
 30
0.0
 40
2.0
100
AcDbArc
 50
270.0
 51
358.9999999999998
  0
LINE
  5
667
330
2
100
AcDbEntity
  8
0
100
AcDbLine
 10
624.4301751316018
 20
71.70380296889894
 30
0.0
 11
695.0122671316016
 21
71.70380296889894
 31
0.0
  0
LINE
  5
668
330
2
100
AcDbEntity
  8
0
100
AcDbLine
 10
624.4301751316018
 20
140.5224019688989
 30
0.0
 11
695.0122671316016
 21
140.5224019688989
 31
0.0
  0
LINE
  5
669
330
2
100
AcDbEntity
  8
0
100
AcDbLine
 10
695.0122671316016
 20
151.1131009688989
 30
0.0
 11
615.6696771316017
 21
151.1131009688989
 31
0.0
  0
LINE
  5
66A
330
2
100
AcDbEntity
  8
0
100
AcDbLine
 10
695.0122671316016
 20
61.11310296889894
 30
0.0
 11
622.5122671316016
 21
61.11310296889894
 31
0.0
  0
LINE
  5
66B
330
2
100
AcDbEntity
  8
CENTER
100
AcDbLine
 10
759.0122671316017
 20
106.1131039688989
 30
0.0
 11
600.7935171316017
 21
106.1131039688989
 31
0.0
  0
CIRCLE
  5
66C
330
2
100
AcDbEntity
  8
0
100
AcDbCircle
 10
572.0122671316016
 20
131.8131049688989
 30
0.0
 40
23.5
  0
CIRCLE
  5
66D
330
2
100
AcDbEntity
  8
0
100
AcDbCircle
 10
572.0122671316016
 20
131.8131049688989
 30
0.0
 40
23.5
  0
LINE
  5
66E
330
2
100
AcDbEntity
  8
0
100
AcDbLine
 10
622.5122671316016
 20
63.81309396889895
 30
0.0
 11
622.5122671316016
 21
143.7129999688989
 31
0.0
  0
LINE
  5
66F
330
2
100
AcDbEntity
  8
CENTER
100
AcDbLine
 10
572.0122671316017
 20
176.8131049688989
 30
0.0
 11
572.0122671316016
 21
49.81310296889896
 31
0.0
  0
LINE
  5
670
330
2
100
AcDbEntity
  8
HIDS
  6
SEKKEI_H
100
AcDbLine
 10
538.2622821316017
 20
65.81310296889893
 30
0.0
 11
538.2622821316017
 21
56.81310296889893
 31
0.0
  0
LINE
  5
671
330
2
100
AcDbEntity
  8
HIDS
  6
SEKKEI_H
100
AcDbLine
 10
529.7622821316017
 20
65.81310296889893
 30
0.0
 11
529.7622821316017
 21
56.81310296889893
 31
0.0
  0
LINE
  5
672
330
2
100
AcDbEntity
  8
CENTER
100
AcDbLine
 10
534.0122821316017
 20
69.31310296889893
 30
0.0
 11
534.0122821316017
 21
53.31310296889893
 31
0.0
  0
LINE
  5
673
330
2
100
AcDbEntity
  8
0
100
AcDbLine
 10
560.4922781316018
 20
88.81310096889894
 30
0.0
 11
563.8080741316017
 21
88.81310096889894
 31
0.0
  0
LINE
  5
674
330
2
100
AcDbEntity
  8
0
100
AcDbLine
 10
562.7242731316017
 20
89.93389396889893
 30
0.0
 11
561.0646661316017
 21
89.93389396889893
 31
0.0
  0
LINE
  5
675
330
2
100
AcDbEntity
  8
0
100
AcDbLine
 10
560.4197681316017
 20
98.37711196889893
 30
0.0
 11
564.7071831316018
 21
98.37711196889893
 31
0.0
  0
LINE
  5
676
330
2
100
AcDbEntity
  8
0
100
AcDbLine
 10
564.1255791316017
 20
97.10689396889893
 30
0.0
 11
561.0530691316017
 21
97.10689396889893
 31
0.0
  0
LINE
  5
677
330
2
100
AcDbEntity
  8
0
100
AcDbLine
 10
560.3332821316016
 20
96.21425496889896
 30
0.0
 11
560.3332821316016
 21
90.70432096889893
 31
0.0
  0
LINE
  5
678
330
2
100
AcDbEntity
  8
0
100
AcDbLine
 10
559.2622671316016
 20
96.89488796889893
 30
0.0
 11
559.2622671316016
 21
90.05414396889893
 31
0.0
  0
LINE
  5
679
330
2
100
AcDbEntity
  8
0
100
AcDbLine
 10
559.2622671316016
 20
90.05414396889893
 30
0.0
 11
560.4922781316018
 21
88.81310096889894
 31
0.0
  0
LINE
  5
67A
330
2
100
AcDbEntity
  8
0
100
AcDbLine
 10
560.3332821316016
 20
90.70432096889893
 30
0.0
 11
561.0646661316017
 21
89.93389396889893
 31
0.0
  0
LINE
  5
67B
330
2
100
AcDbEntity
  8
0
100
AcDbLine
 10
560.4197681316017
 20
98.37711196889893
 30
0.0
 11
559.2622671316016
 21
96.89488796889893
 31
0.0
  0
LINE
  5
67C
330
2
100
AcDbEntity
  8
0
100
AcDbLine
 10
561.0530691316017
 20
97.10689396889893
 30
0.0
 11
560.3332821316016
 21
96.21425496889896
 31
0.0
  0
LINE
  5
67D
330
2
100
AcDbEntity
  8
0
100
AcDbLine
 10
579.9593801316017
 20
93.28377396889894
 30
0.0
 11
582.0000911316017
 21
93.28377396889894
 31
0.0
  0
LINE
  5
67E
330
2
100
AcDbEntity
  8
0
100
AcDbLine
 10
579.9593801316017
 20
94.27979096889893
 30
0.0
 11
582.4143671316017
 21
94.27979096889893
 31
0.0
  0
LINE
  5
67F
330
2
100
AcDbEntity
  8
0
100
AcDbLine
 10
579.9593801316017
 20
97.20651896889894
 30
0.0
 11
582.9346921316017
 21
97.20458096889894
 31
0.0
  0
LINE
  5
680
330
2
100
AcDbEntity
  8
0
100
AcDbLine
 10
578.3902881316016
 20
98.37711196889893
 30
0.0
 11
582.2133781316018
 21
98.37711196889893
 31
0.0
  0
LINE
  5
681
330
2
100
AcDbEntity
  8
0
100
AcDbLine
 10
570.9183651316017
 20
88.81310096889894
 30
0.0
 11
572.9855641316017
 21
88.81310096889894
 31
0.0
  0
LINE
  5
682
330
2
100
AcDbEntity
  8
0
100
AcDbLine
 10
568.8262631316018
 20
98.37711196889893
 30
0.0
 11
575.2022701316018
 21
98.37711196889893
 31
0.0
  0
LINE
  5
683
330
2
100
AcDbEntity
  8
0
100
AcDbLine
 10
564.7167661316018
 20
93.32114296889892
 30
0.0
 11
564.7167661316018
 21
91.92638296889894
 31
0.0
  0
LINE
  5
684
330
2
100
AcDbEntity
  8
0
100
AcDbLine
 10
564.7167661316018
 20
92.32489296889895
 30
0.0
 11
564.7167661316018
 21
93.12189296889895
 31
0.0
  0
LINE
  5
685
330
2
100
AcDbEntity
  8
0
100
AcDbLine
 10
571.3915701316018
 20
97.20651896889894
 30
0.0
 11
571.3915701316018
 21
89.85916396889894
 31
0.0
  0
LINE
  5
686
330
2
100
AcDbEntity
  8
0
100
AcDbLine
 10
565.6382741316017
 20
94.36720096889894
 30
0.0
 11
565.6382741316017
 21
88.81310096889894
 31
0.0
  0
LINE
  5
687
330
2
100
AcDbEntity
  8
0
100
AcDbLine
 10
564.7167661316018
 20
89.57549096889895
 30
0.0
 11
563.8080741316017
 21
88.81310096889894
 31
0.0
  0
LINE
  5
688
330
2
100
AcDbEntity
  8
0
100
AcDbLine
 10
564.7167661316018
 20
88.81310096889894
 30
0.0
 11
565.6382741316017
 21
88.81310096889894
 31
0.0
  0
LINE
  5
689
330
2
100
AcDbEntity
  8
0
100
AcDbLine
 10
564.7167661316018
 20
89.57549096889895
 30
0.0
 11
564.7167661316018
 21
88.81310096889894
 31
0.0
  0
ARC
  5
68A
330
2
100
AcDbEntity
  8
0
100
AcDbCircle
 10
562.7242731316017
 20
91.92638296889894
 30
0.0
 40
1.992499999999999
100
AcDbArc
 50
270.0002139999998
 51
0.0001089999998967
  0
LINE
  5
68B
330
2
100
AcDbEntity
  8
0
100
AcDbLine
 10
570.9183651316017
 20
89.85916396889894
 30
0.0
 11
571.3915701316018
 21
89.85916396889894
 31
0.0
  0
LINE
  5
68C
330
2
100
AcDbEntity
  8
0
100
AcDbLine
 10
570.9183651316017
 20
89.85916396889894
 30
0.0
 11
570.9183651316017
 21
88.81310096889894
 31
0.0
  0
LINE
  5
68D
330
2
100
AcDbEntity
  8
0
100
AcDbLine
 10
563.0480641316018
 20
94.36720096889894
 30
0.0
 11
565.6382741316017
 21
94.36720096889894
 31
0.0
  0
LINE
  5
68E
330
2
100
AcDbEntity
  8
0
100
AcDbLine
 10
564.7167661316018
 20
96.53536096889894
 30
0.0
 11
564.7167661316018
 21
96.38460396889895
 31
0.0
  0
LINE
  5
68F
330
2
100
AcDbEntity
  8
0
100
AcDbLine
 10
563.0480641316018
 20
94.36720096889894
 30
0.0
 11
563.0480641316018
 21
93.32114296889892
 31
0.0
  0
LINE
  5
690
330
2
100
AcDbEntity
  8
0
100
AcDbLine
 10
565.6382741316017
 20
97.34380196889894
 30
0.0
 11
565.6382741316017
 21
96.38460396889895
 31
0.0
  0
LINE
  5
691
330
2
100
AcDbEntity
  8
0
100
AcDbLine
 10
564.7167661316018
 20
93.32114296889892
 30
0.0
 11
563.0480641316018
 21
93.32114296889892
 31
0.0
  0
LINE
  5
692
330
2
100
AcDbEntity
  8
0
100
AcDbLine
 10
564.7167661316018
 20
96.38460396889895
 30
0.0
 11
565.6382741316017
 21
96.38460396889895
 31
0.0
  0
LINE
  5
693
330
2
100
AcDbEntity
  8
0
100
AcDbLine
 10
564.7071831316018
 20
98.37711196889893
 30
0.0
 11
565.6382741316017
 21
97.34380196889894
 31
0.0
  0
LINE
  5
694
330
2
100
AcDbEntity
  8
0
100
AcDbLine
 10
564.7167661316018
 20
96.53536096889894
 30
0.0
 11
564.1134641316017
 21
97.10689396889893
 31
0.0
  0
LINE
  5
695
330
2
100
AcDbEntity
  8
0
100
AcDbLine
 10
571.3915701316018
 20
97.20651896889894
 30
0.0
 11
569.8764641316017
 21
97.20651896889894
 31
0.0
  0
LINE
  5
696
330
2
100
AcDbEntity
  8
0
100
AcDbLine
 10
569.8764641316017
 20
97.20651896889894
 30
0.0
 11
569.5339651316016
 21
96.38460396889895
 31
0.0
  0
LINE
  5
697
330
2
100
AcDbEntity
  8
0
100
AcDbLine
 10
568.8262631316018
 20
96.38460396889895
 30
0.0
 11
569.5339651316016
 21
96.38460396889895
 31
0.0
  0
LINE
  5
698
330
2
100
AcDbEntity
  8
0
100
AcDbLine
 10
568.8262631316018
 20
96.38460396889895
 30
0.0
 11
568.8262631316018
 21
98.37711196889893
 31
0.0
  0
LINE
  5
699
330
2
100
AcDbEntity
  8
0
100
AcDbLine
 10
579.9593801316017
 20
93.28377396889894
 30
0.0
 11
579.9593801316017
 21
89.80936296889893
 31
0.0
  0
LINE
  5
69A
330
2
100
AcDbEntity
  8
0
100
AcDbLine
 10
578.8634641316017
 20
97.20651896889894
 30
0.0
 11
578.8634641316017
 21
89.80936296889893
 31
0.0
  0
LINE
  5
69B
330
2
100
AcDbEntity
  8
0
100
AcDbLine
 10
572.5870661316017
 20
97.20651896889894
 30
0.0
 11
572.5870661316017
 21
89.85916396889894
 31
0.0
  0
LINE
  5
69C
330
2
100
AcDbEntity
  8
0
100
AcDbLine
 10
572.9855641316017
 20
89.85916396889894
 30
0.0
 11
572.9855641316017
 21
88.81310096889894
 31
0.0
  0
LINE
  5
69D
330
2
100
AcDbEntity
  8
0
100
AcDbLine
 10
572.5870661316017
 20
89.85916396889894
 30
0.0
 11
572.9855641316017
 21
89.85916396889894
 31
0.0
  0
LINE
  5
69E
330
2
100
AcDbEntity
  8
0
100
AcDbLine
 10
578.3902881316016
 20
89.80936296889893
 30
0.0
 11
578.3902881316016
 21
88.81310096889894
 31
0.0
  0
LINE
  5
69F
330
2
100
AcDbEntity
  8
0
100
AcDbLine
 10
580.3951711316017
 20
89.80936296889893
 30
0.0
 11
580.3951711316017
 21
88.81310096889894
 31
0.0
  0
LINE
  5
6A0
330
2
100
AcDbEntity
  8
0
100
AcDbLine
 10
580.3951711316017
 20
88.81310096889894
 30
0.0
 11
578.3902881316016
 21
88.81310096889894
 31
0.0
  0
LINE
  5
6A1
330
2
100
AcDbEntity
  8
0
100
AcDbLine
 10
579.9593801316017
 20
89.80936296889893
 30
0.0
 11
580.3951711316017
 21
89.80936296889893
 31
0.0
  0
LINE
  5
6A2
330
2
100
AcDbEntity
  8
0
100
AcDbLine
 10
578.3902881316016
 20
89.80936296889893
 30
0.0
 11
578.8634641316017
 21
89.80936296889893
 31
0.0
  0
LINE
  5
6A3
330
2
100
AcDbEntity
  8
0
100
AcDbLine
 10
572.5870661316017
 20
97.20651896889894
 30
0.0
 11
574.2483821316016
 21
97.20651896889894
 31
0.0
  0
LINE
  5
6A4
330
2
100
AcDbEntity
  8
0
100
AcDbLine
 10
574.2483821316016
 20
97.20651896889894
 30
0.0
 11
574.5371701316018
 21
96.38460396889895
 31
0.0
  0
LINE
  5
6A5
330
2
100
AcDbEntity
  8
0
100
AcDbLine
 10
574.5371701316018
 20
96.38460396889895
 30
0.0
 11
575.2022701316018
 21
96.38460396889895
 31
0.0
  0
LINE
  5
6A6
330
2
100
AcDbEntity
  8
0
100
AcDbLine
 10
575.2022701316018
 20
96.38460396889895
 30
0.0
 11
575.2022701316018
 21
98.37711196889893
 31
0.0
  0
LINE
  5
6A7
330
2
100
AcDbEntity
  8
0
100
AcDbLine
 10
578.3902881316016
 20
97.20651896889894
 30
0.0
 11
578.8634641316017
 21
97.20651896889894
 31
0.0
  0
LINE
  5
6A8
330
2
100
AcDbEntity
  8
0
100
AcDbLine
 10
579.9593801316017
 20
97.20651896889894
 30
0.0
 11
579.9593801316017
 21
94.27979096889893
 31
0.0
  0
LINE
  5
6A9
330
2
100
AcDbEntity
  8
0
100
AcDbLine
 10
578.3902881316016
 20
98.37711196889893
 30
0.0
 11
578.3902881316016
 21
97.20651896889894
 31
0.0
  0
LINE
  5
6AA
330
2
100
AcDbEntity
  8
0
100
AcDbLine
 10
582.0000911316017
 20
93.28377396889894
 30
0.0
 11
583.4954831316017
 21
89.80936296889893
 31
0.0
  0
LINE
  5
6AB
330
2
100
AcDbEntity
  8
0
100
AcDbLine
 10
582.9178761316017
 20
93.37044396889893
 30
0.0
 11
584.4978631316016
 21
89.80936296889893
 31
0.0
  0
LINE
  5
6AC
330
2
100
AcDbEntity
  8
0
100
AcDbLine
 10
583.2967831316018
 20
89.80936296889893
 30
0.0
 11
583.2967831316018
 21
88.81310096889894
 31
0.0
  0
LINE
  5
6AD
330
2
100
AcDbEntity
  8
0
100
AcDbLine
 10
584.7662651316018
 20
89.80936296889893
 30
0.0
 11
584.7662651316018
 21
88.81310096889894
 31
0.0
  0
LINE
  5
6AE
330
2
100
AcDbEntity
  8
0
100
AcDbLine
 10
583.2967831316018
 20
88.81310096889894
 30
0.0
 11
584.7662651316018
 21
88.81310096889894
 31
0.0
  0
LINE
  5
6AF
330
2
100
AcDbEntity
  8
0
100
AcDbLine
 10
584.4978631316016
 20
89.80936296889893
 30
0.0
 11
584.7662651316018
 21
89.80936296889893
 31
0.0
  0
LINE
  5
6B0
330
2
100
AcDbEntity
  8
0
100
AcDbLine
 10
583.2967831316018
 20
89.80936296889893
 30
0.0
 11
583.4954831316017
 21
89.80936296889893
 31
0.0
  0
ARC
  5
6B1
330
2
100
AcDbEntity
  8
0
100
AcDbCircle
 10
582.2133781316018
 20
95.82421396889893
 30
0.0
 40
1.557437999999999
100
AcDbArc
 50
277.4147259999995
 51
62.41184999999949
  0
ARC
  5
6B2
330
2
100
AcDbEntity
  8
0
100
AcDbCircle
 10
582.2133781316018
 20
95.82421396889893
 30
0.0
 40
2.552890999999999
100
AcDbArc
 50
286.0181269999995
 51
90.00350999999964
  0
LINE
  5
6B3
330
2
100
AcDbEntity
  8
HIDS
  6
SEKKEI_H
100
AcDbLine
 10
614.2622671316017
 20
65.81310296889893
 30
0.0
 11
614.2622671316017
 21
56.81310296889893
 31
0.0
  0
LINE
  5
6B4
330
2
100
AcDbEntity
  8
HIDS
  6
SEKKEI_H
100
AcDbLine
 10
605.7622671316017
 20
65.81310296889893
 30
0.0
 11
605.7622671316017
 21
56.81310296889893
 31
0.0
  0
LINE
  5
6B5
330
2
100
AcDbEntity
  8
CENTER
100
AcDbLine
 10
610.0122671316016
 20
69.31310296889893
 30
0.0
 11
610.0122671316017
 21
53.31310296889893
 31
0.0
  0
LINE
  5
6B6
330
2
100
AcDbEntity
  8
0
100
AcDbLine
 10
622.5122671316016
 20
63.81309396889895
 30
0.0
 11
622.5122671316016
 21
56.81310296889893
 31
0.0
  0
ARC
  5
6B7
330
2
100
AcDbEntity
  8
0
100
AcDbCircle
 10
620.5122671316017
 20
63.81310296889893
 30
0.0
 40
2.0
100
AcDbArc
 50
0.0
 51
90.0
  0
LINE
  5
6B8
330
2
100
AcDbEntity
  8
0
100
AcDbLine
 10
620.3836661316017
 20
147.8062839688989
 30
0.0
 11
590.3047781316018
 21
168.9063819688989
 31
0.0
  0
LINE
  5
6B9
330
2
100
AcDbEntity
  8
CENTER
100
AcDbLine
 10
602.5122671316016
 20
131.8131049688989
 30
0.0
 11
541.5122671316017
 21
131.8131049688989
 31
0.0
  0
LINE
  5
6BA
330
2
100
AcDbEntity
  8
0
100
AcDbLine
 10
560.5122671316016
 20
128.8131049688989
 30
0.0
 11
566.5122671316017
 21
128.8131049688989
 31
0.0
  0
LINE
  5
6BB
330
2
100
AcDbEntity
  8
0
100
AcDbLine
 10
560.5122671316016
 20
134.8131049688989
 30
0.0
 11
566.5122671316017
 21
134.8131049688989
 31
0.0
  0
LINE
  5
6BC
330
2
100
AcDbEntity
  8
0
100
AcDbLine
 10
560.5122671316016
 20
134.8131049688989
 30
0.0
 11
560.5122671316016
 21
128.8131049688989
 31
0.0
  0
ARC
  5
6BD
330
2
100
AcDbEntity
  8
0
100
AcDbCircle
 10
572.0122671316016
 20
131.8131049688989
 30
0.0
 40
9.0
100
AcDbArc
 50
199.4712070000002
 51
160.5287929999997
  0
LINE
  5
6BE
330
2
100
AcDbEntity
  8
0
100
AcDbLine
 10
566.5122671316017
 20
134.8131049688989
 30
0.0
 11
566.5122671316017
 21
128.8131049688989
 31
0.0
  0
LINE
  5
6BF
330
2
100
AcDbEntity
  8
0
100
AcDbLine
 10
587.4333791316018
 20
169.8131049688989
 30
0.0
 11
556.5911861316017
 21
169.8131049688989
 31
0.0
  0
ARC
  5
6C0
330
2
100
AcDbEntity
  8
0
100
AcDbCircle
 10
556.5910641316017
 20
164.8130899688989
 30
0.0
 40
5.0
100
AcDbArc
 50
90.0
 51
125.0491029999999
  0
ARC
  5
6C1
330
2
100
AcDbEntity
  8
0
100
AcDbCircle
 10
587.4333791316018
 20
164.8131049688989
 30
0.0
 40
5.0
100
AcDbArc
 50
54.95032900000033
 51
90.0
  0
ARC
  5
6C2
330
2
100
AcDbEntity
  8
0
100
AcDbCircle
 10
617.5122671316016
 20
143.7130299688989
 30
0.0
 40
5.0
100
AcDbArc
 50
0.0
 51
54.95019900000012
  0
LINE
  5
6C3
330
2
100
AcDbEntity
  8
0
100
AcDbLine
 10
752.0122671316017
 20
148.1131159688989
 30
0.0
 11
752.0122671316017
 21
64.11309296889894
 31
0.0
  0
LINE
  5
6C4
330
2
100
AcDbEntity
  8
0
100
AcDbLine
 10
704.5122671316017
 20
153.1131009688989
 30
0.0
 11
704.5122671316017
 21
59.11310296889894
 31
0.0
  0
LINE
  5
6C5
330
2
100
AcDbEntity
  8
0
100
AcDbLine
 10
695.0122671316016
 20
61.11310296889894
 30
0.0
 11
695.0122671316016
 21
151.1131009688989
 31
0.0
  0
ARC
  5
6C6
330
2
100
AcDbEntity
  8
0
100
AcDbCircle
 10
747.0122671316017
 20
64.11310196889894
 30
0.0
 40
5.0
100
AcDbArc
 50
270.0
 51
0.0
  0
LINE
  5
6C7
330
2
100
AcDbEntity
  8
0
100
AcDbLine
 10
747.0122671316017
 20
59.11310296889894
 30
0.0
 11
704.5122671316017
 21
59.11310296889894
 31
0.0
  0
LINE
  5
6C8
330
2
100
AcDbEntity
  8
0
100
AcDbLine
 10
704.5122671316017
 20
77.11310196889894
 30
0.0
 11
748.4872731316017
 21
77.11310196889894
 31
0.0
  0
LINE
  5
6C9
330
2
100
AcDbEntity
  8
0
100
AcDbLine
 10
695.0122671316016
 20
71.70380296889894
 30
0.0
 11
704.5122671316017
 21
71.70380296889894
 31
0.0
  0
LINE
  5
6CA
330
2
100
AcDbEntity
  8
0
100
AcDbLine
 10
704.5122671316017
 20
61.11310296889894
 30
0.0
 11
695.0122671316016
 21
61.11310296889894
 31
0.0
  0
ARC
  5
6CB
330
2
100
AcDbEntity
  8
0
100
AcDbCircle
 10
747.0122671316017
 20
148.1131309688989
 30
0.0
 40
5.0
100
AcDbArc
 50
0.0
 51
90.0
  0
LINE
  5
6CC
330
2
100
AcDbEntity
  8
0
100
AcDbLine
 10
747.0122671316017
 20
153.1131009688989
 30
0.0
 11
704.5122671316017
 21
153.1131009688989
 31
0.0
  0
LINE
  5
6CD
330
2
100
AcDbEntity
  8
0
100
AcDbLine
 10
704.5122671316017
 20
135.1131009688989
 30
0.0
 11
748.4872731316017
 21
135.1131009688989
 31
0.0
  0
LINE
  5
6CE
330
2
100
AcDbEntity
  8
0
100
AcDbLine
 10
695.0122671316016
 20
140.5224019688989
 30
0.0
 11
704.5122671316017
 21
140.5224019688989
 31
0.0
  0
LINE
  5
6D3
330
2
100
AcDbEntity
  8
0
100
AcDbLine
 10
704.5122671316017
 20
151.1131009688989
 30
0.0
 11
695.0122671316016
 21
151.1131009688989
 31
0.0
  0
LINE
  5
6DA
330
2
100
AcDbEntity
  8
0
100
AcDbLine
 10
180.8305785241461
 20
286.7859683461897
 30
0.0
 11
110.3305785241462
 21
286.7859683461897
 31
0.0
  0
LINE
  5
6DB
330
2
100
AcDbEntity
  8
0
100
AcDbLine
 10
110.3305785241462
 20
302.7859683461897
 30
0.0
 11
189.6731075241461
 21
302.7859683461897
 31
0.0
  0
LINE
  5
6DC
330
2
100
AcDbEntity
  8
0
100
AcDbLine
 10
110.3305785241462
 20
360.7859683461896
 30
0.0
 11
189.6731075241461
 21
360.7859683461896
 31
0.0
  0
LINE
  5
6DD
330
2
100
AcDbEntity
  8
0
100
AcDbLine
 10
180.8305785241461
 20
376.7859833461896
 30
0.0
 11
110.3305785241462
 21
376.7859833461896
 31
0.0
  0
LINE
  5
6DE
330
2
100
AcDbEntity
  8
0
100
AcDbLine
 10
189.6731075241461
 20
358.7859683461896
 30
0.0
 11
189.6731075241461
 21
304.7859683461897
 31
0.0
  0
LINE
  5
6DF
330
2
100
AcDbEntity
  8
0
100
AcDbLine
 10
250.3305785241461
 20
363.7859833461896
 30
0.0
 11
250.3305785241461
 21
299.7859683461896
 31
0.0
  0
LINE
  5
6E0
330
2
100
AcDbEntity
  8
0
100
AcDbLine
 10
216.3305785241461
 20
363.7859833461896
 30
0.0
 11
216.3305785241461
 21
299.7859683461896
 31
0.0
  0
LINE
  5
6E1
330
2
100
AcDbEntity
  8
CENTER
100
AcDbLine
 10
233.3305785241461
 20
412.7859833461896
 30
0.0
 11
233.330578524146
 21
266.7859683461897
 31
0.0
  0
LINE
  5
6E2
330
2
100
AcDbEntity
  8
0
100
AcDbLine
 10
224.3305785241461
 20
389.7859833461896
 30
0.0
 11
193.6699335241461
 21
389.7859833461896
 31
0.0
  0
LINE
  5
6E4
330
2
100
AcDbEntity
  8
0
100
AcDbLine
 10
241.8155635241461
 20
405.7859833461896
 30
0.0
 11
241.8155635241461
 21
378.7859833461896
 31
0.0
  0
LINE
  5
6E5
330
2
100
AcDbEntity
  8
0
100
AcDbLine
 10
244.8305785241462
 20
405.7859833461896
 30
0.0
 11
244.8305785241462
 21
378.7859833461896
 31
0.0
  0
LINE
  5
6E6
330
2
100
AcDbEntity
  8
0
100
AcDbLine
 10
224.3305785241461
 20
375.7859833461896
 30
0.0
 11
224.3305785241461
 21
405.7859833461896
 31
0.0
  0
LINE
  5
6E8
330
2
100
AcDbEntity
  8
0
100
AcDbLine
 10
244.8305785241462
 20
405.7859833461896
 30
0.0
 11
224.3305785241461
 21
405.7859833461896
 31
0.0
  0
LINE
  5
6E9
330
2
100
AcDbEntity
  8
0
100
AcDbLine
 10
272.9912075241462
 20
389.7859833461896
 30
0.0
 11
244.8305785241462
 21
389.7859833461896
 31
0.0
  0
LINE
  5
6EA
330
2
100
AcDbEntity
  8
0
100
AcDbLine
 10
244.8305785241462
 20
378.7859833461896
 30
0.0
 11
241.8155635241461
 21
378.7859833461896
 31
0.0
  0
LINE
  5
6EB
330
2
100
AcDbEntity
  8
0
100
AcDbLine
 10
223.3305785241461
 20
375.7859833461896
 30
0.0
 11
243.3305785241461
 21
375.7859833461896
 31
0.0
  0
LINE
  5
6EC
330
2
100
AcDbEntity
  8
0
100
AcDbLine
 10
255.8305785241461
 20
373.7859833461896
 30
0.0
 11
210.8305785241461
 21
373.7859833461896
 31
0.0
  0
CIRCLE
  5
6ED
330
2
100
AcDbEntity
  8
0
100
AcDbCircle
 10
271.3305635241462
 20
379.7859833461895
 30
0.0
 40
4.25
  0
LINE
  5
6EE
330
2
100
AcDbEntity
  8
0
100
AcDbLine
 10
256.8305785241461
 20
372.7859833461896
 30
0.0
 11
256.8305785241461
 21
370.7859833461896
 31
0.0
  0
ARC
  5
6EF
330
2
100
AcDbEntity
  8
0
100
AcDbCircle
 10
255.8305785241462
 20
372.7859833461895
 30
0.0
 40
1.0
100
AcDbArc
 50
0.0
 51
90.0
  0
LINE
  5
6F0
330
2
100
AcDbEntity
  8
0
100
AcDbLine
 10
243.3305785241461
 20
373.7859833461896
 30
0.0
 11
243.3305785241461
 21
375.7859833461896
 31
0.0
  0
ARC
  5
6F1
330
2
100
AcDbEntity
  8
0
100
AcDbCircle
 10
258.8305635241462
 20
370.7859833461895
 30
0.0
 40
2.0
100
AcDbArc
 50
180.0
 51
270.0
  0
LINE
  5
6F2
330
2
100
AcDbEntity
  8
0
100
AcDbLine
 10
242.3305785241461
 20
375.7859833461896
 30
0.0
 11
242.3305785241461
 21
378.7859833461896
 31
0.0
  0
LINE
  5
6F3
330
2
100
AcDbEntity
  8
0
100
AcDbLine
 10
209.8305785241461
 20
372.7859833461896
 30
0.0
 11
209.8305785241461
 21
370.7859833461896
 31
0.0
  0
LINE
  5
6F4
330
2
100
AcDbEntity
  8
0
100
AcDbLine
 10
223.3305785241461
 20
373.7859833461896
 30
0.0
 11
223.3305785241461
 21
375.7859833461896
 31
0.0
  0
ARC
  5
6F5
330
2
100
AcDbEntity
  8
0
100
AcDbCircle
 10
210.8305785241463
 20
372.7859833461895
 30
0.0
 40
1.0
100
AcDbArc
 50
90.0
 51
180.0
  0
ARC
  5
6F6
330
2
100
AcDbEntity
  8
0
100
AcDbCircle
 10
207.8305785241462
 20
370.7859833461895
 30
0.0
 40
2.0
100
AcDbArc
 50
270.0
 51
0.0
  0
ARC
  5
6F7
330
2
100
AcDbEntity
  8
0
100
AcDbCircle
 10
193.6699335241461
 20
379.7859833461895
 30
0.0
 40
10.0
100
AcDbArc
 50
90.0
 51
178.9999999999998
  0
CIRCLE
  5
6F9
330
2
100
AcDbEntity
  8
0
100
AcDbCircle
 10
195.3305785241463
 20
379.7859833461895
 30
0.0
 40
4.25
  0
LINE
  5
6FA
330
2
100
AcDbEntity
  8
0
100
AcDbLine
 10
182.8305785241461
 20
370.7859833461896
 30
0.0
 11
182.8305785241461
 21
374.7859833461896
 31
0.0
  0
LINE
  5
6FB
330
2
100
AcDbEntity
  8
0
100
AcDbLine
 10
183.6714595241461
 20
379.9604983461897
 30
0.0
 11
183.4854855241461
 21
369.3058653461896
 31
0.0
  0
ARC
  5
6FC
330
2
100
AcDbEntity
  8
0
100
AcDbCircle
 10
180.8305785241462
 20
374.7859833461895
 30
0.0
 40
2.0
100
AcDbArc
 50
0.0
 51
90.0
  0
LINE
  5
6FD
330
2
100
AcDbEntity
  8
0
100
AcDbLine
 10
183.4421205241461
 20
366.8208803461896
 30
0.0
 11
183.3367735241461
 21
360.7859683461896
 31
0.0
  0
ARC
  5
6FE
330
2
100
AcDbEntity
  8
0
100
AcDbCircle
 10
184.8305785241462
 20
370.7859833461895
 30
0.0
 40
2.0
100
AcDbArc
 50
180.0
 51
270.0
  0
ARC
  5
6FF
330
2
100
AcDbEntity
  8
0
100
AcDbCircle
 10
185.4418145241462
 20
366.7859833461895
 30
0.0
 40
2.0
100
AcDbArc
 50
90.0
 51
178.9999999999998
  0
LINE
  5
700
330
2
100
AcDbEntity
  8
0
100
AcDbLine
 10
272.9912075241462
 20
273.7859683461897
 30
0.0
 11
193.6699335241461
 21
273.7859683461897
 31
0.0
  0
LINE
  5
702
330
2
100
AcDbEntity
  8
0
100
AcDbLine
 10
255.8305785241461
 20
289.7859683461896
 30
0.0
 11
210.8305785241461
 21
289.7859683461896
 31
0.0
  0
CIRCLE
  5
703
330
2
100
AcDbEntity
  8
0
100
AcDbCircle
 10
271.3305635241462
 20
283.7859683461896
 30
0.0
 40
4.25
  0
ARC
  5
704
330
2
100
AcDbEntity
  8
0
100
AcDbCircle
 10
255.8305785241462
 20
290.7859683461896
 30
0.0
 40
1.0
100
AcDbArc
 50
270.0
 51
0.0
  0
ARC
  5
705
330
2
100
AcDbEntity
  8
0
100
AcDbCircle
 10
258.8305635241462
 20
292.7859683461896
 30
0.0
 40
2.0
100
AcDbArc
 50
90.0
 51
180.0
  0
LINE
  5
706
330
2
100
AcDbEntity
  8
0
100
AcDbLine
 10
256.8305785241461
 20
290.7859683461897
 30
0.0
 11
256.8305785241461
 21
292.7859683461896
 31
0.0
  0
ARC
  5
707
330
2
100
AcDbEntity
  8
0
100
AcDbCircle
 10
210.8305785241463
 20
290.7859683461896
 30
0.0
 40
1.0
100
AcDbArc
 50
180.0
 51
270.0
  0
ARC
  5
708
330
2
100
AcDbEntity
  8
0
100
AcDbCircle
 10
207.8305785241462
 20
292.7859683461896
 30
0.0
 40
2.0
100
AcDbArc
 50
0.0
 51
90.0
  0
LINE
  5
709
330
2
100
AcDbEntity
  8
0
100
AcDbLine
 10
209.8305785241461
 20
290.7859683461897
 30
0.0
 11
209.8305785241461
 21
292.7859683461896
 31
0.0
  0
ARC
  5
70B
330
2
100
AcDbEntity
  8
0
100
AcDbCircle
 10
193.6699335241461
 20
283.7859683461896
 30
0.0
 40
10.0
100
AcDbArc
 50
181.0000000000001
 51
270.0
  0
LINE
  5
70C
330
2
100
AcDbEntity
  8
CENTER
100
AcDbLine
 10
195.3305785241461
 20
275.9336531059749
 30
0.0
 11
195.3305785241461
 21
291.6382835864044
 31
0.0
  0
LINE
  5
70D
330
2
100
AcDbEntity
  8
CENTER
100
AcDbLine
 10
203.1828937643609
 20
283.7859683461896
 30
0.0
 11
187.4782632839313
 21
283.7859683461896
 31
0.0
  0
CIRCLE
  5
70E
330
2
100
AcDbEntity
  8
0
100
AcDbCircle
 10
195.3305785241463
 20
283.7859683461896
 30
0.0
 40
4.25
  0
LINE
  5
70F
330
2
100
AcDbEntity
  8
0
100
AcDbLine
 10
182.8305785241461
 20
292.7859683461896
 30
0.0
 11
182.8305785241461
 21
288.7859683461897
 31
0.0
  0
LINE
  5
710
330
2
100
AcDbEntity
  8
0
100
AcDbLine
 10
183.6714595241461
 20
283.6114683461896
 30
0.0
 11
183.4854855241461
 21
294.2661013461897
 31
0.0
  0
ARC
  5
711
330
2
100
AcDbEntity
  8
0
100
AcDbCircle
 10
185.4418145241462
 20
296.7859683461896
 30
0.0
 40
2.0
100
AcDbArc
 50
181.0000000000001
 51
270.0
  0
LINE
  5
712
330
2
100
AcDbEntity
  8
0
100
AcDbLine
 10
183.4421205241461
 20
296.7510863461896
 30
0.0
 11
183.3367735241461
 21
302.7859683461897
 31
0.0
  0
ARC
  5
713
330
2
100
AcDbEntity
  8
0
100
AcDbCircle
 10
184.8305785241462
 20
292.7859683461896
 30
0.0
 40
2.0
100
AcDbArc
 50
90.0
 51
180.0
  0
ARC
  5
714
330
2
100
AcDbEntity
  8
0
100
AcDbCircle
 10
180.8305785241462
 20
288.7859683461896
 30
0.0
 40
2.0
100
AcDbArc
 50
270.0
 51
0.0
  0
LINE
  5
715
330
2
100
AcDbEntity
  8
0
100
AcDbLine
 10
53.33057852414618
 20
373.7859833461896
 30
0.0
 11
53.33054752414625
 21
289.7859683461896
 31
0.0
  0
LINE
  5
716
330
2
100
AcDbEntity
  8
0
100
AcDbLine
 10
100.8305785241462
 20
378.7859833461896
 30
0.0
 11
100.8305785241462
 21
339.2859683461896
 31
0.0
  0
ARC
  5
71B
330
2
100
AcDbEntity
  8
0
100
AcDbCircle
 10
58.33057852414618
 20
373.7859833461896
 30
0.0
 40
5.0
100
AcDbArc
 50
90.0
 51
180.0
  0
LINE
  5
71C
330
2
100
AcDbEntity
  8
0
100
AcDbLine
 10
58.33054752414625
 20
378.7859833461896
 30
0.0
 11
100.8305785241462
 21
378.7859833461896
 31
0.0
  0
LINE
  5
71D
330
2
100
AcDbEntity
  8
0
100
AcDbLine
 10
100.8305785241462
 20
360.7859683461896
 30
0.0
 11
56.85554152414624
 21
360.7859683461896
 31
0.0
  0
LINE
  5
71E
330
2
100
AcDbEntity
  8
0
100
AcDbLine
 10
110.3305785241462
 20
356.7859683461897
 30
0.0
 11
110.3305785241462
 21
376.7859833461896
 31
0.0
  0
LINE
  5
71F
330
2
100
AcDbEntity
  8
0
100
AcDbLine
 10
100.8305785241462
 20
376.7859833461896
 30
0.0
 11
110.3305785241462
 21
376.7859833461896
 31
0.0
  0
LINE
  5
720
330
2
100
AcDbEntity
  8
0
100
AcDbLine
 10
110.3305785241462
 20
360.7859683461896
 30
0.0
 11
100.8305785241462
 21
360.7859683461896
 31
0.0
  0
ARC
  5
726
330
2
100
AcDbEntity
  8
0
100
AcDbCircle
 10
58.33054752414625
 20
289.7859683461896
 30
0.0
 40
5.0
100
AcDbArc
 50
180.0
 51
270.0
  0
LINE
  5
727
330
2
100
AcDbEntity
  8
0
100
AcDbLine
 10
58.33054752414625
 20
284.7859683461896
 30
0.0
 11
100.8305785241462
 21
284.7859683461896
 31
0.0
  0
LINE
  5
728
330
2
100
AcDbEntity
  8
0
100
AcDbLine
 10
100.8305785241462
 20
302.7859683461897
 30
0.0
 11
56.85554152414624
 21
302.7859683461897
 31
0.0
  0
LINE
  5
729
330
2
100
AcDbEntity
  8
0
100
AcDbLine
 10
110.3305785241462
 20
286.7859683461897
 30
0.0
 11
110.3305785241462
 21
306.7859683461897
 31
0.0
  0
LINE
  5
72F
330
2
100
AcDbEntity
  8
0
100
AcDbLine
 10
105.3305785241462
 20
292.5161313461897
 30
0.0
 11
105.3305785241462
 21
288.0161313461897
 31
0.0
  0
LINE
  5
730
330
2
100
AcDbEntity
  8
0
100
AcDbLine
 10
103.8305785241462
 20
292.5161313461897
 30
0.0
 11
103.8305785241462
 21
288.0161313461897
 31
0.0
  0
LINE
  5
731
330
2
100
AcDbEntity
  8
0
100
AcDbLine
 10
102.3305785241462
 20
292.5161313461897
 30
0.0
 11
102.3305785241462
 21
287.5005373461896
 31
0.0
  0
ARC
  5
732
330
2
100
AcDbEntity
  8
0
100
AcDbCircle
 10
100.8305785241462
 20
292.5161313461897
 30
0.0
 40
1.5
100
AcDbArc
 50
0.0
 51
90.0
  0
ARC
  5
733
330
2
100
AcDbEntity
  8
0
100
AcDbCircle
 10
100.8305785241462
 20
292.5161313461897
 30
0.0
 40
3.0
100
AcDbArc
 50
0.0
 51
90.0
  0
ARC
  5
734
330
2
100
AcDbEntity
  8
0
100
AcDbCircle
 10
100.8305785241462
 20
292.5161313461897
 30
0.0
 40
4.5
100
AcDbArc
 50
0.0
 51
90.0
  0
LINE
  5
735
330
2
100
AcDbEntity
  8
0
100
AcDbLine
 10
110.3305785241462
 20
302.7859683461897
 30
0.0
 11
100.8305785241462
 21
302.7859683461897
 31
0.0
  0
LINE
  5
736
330
2
100
AcDbEntity
  8
0
100
AcDbLine
 10
100.8305785241462
 20
286.7859683461897
 30
0.0
 11
110.3305785241462
 21
286.7859683461897
 31
0.0
  0
LINE
  5
737
330
2
100
AcDbEntity
  8
HOJO
100
AcDbLine
 10
103.8305785241462
 20
288.5161313461896
 30
0.0
 11
105.3305785241462
 21
288.0161313461897
 31
0.0
  0
LINE
  5
738
330
2
100
AcDbEntity
  8
HOJO
100
AcDbLine
 10
102.3305785241462
 20
287.5161313461897
 30
0.0
 11
103.8305785241462
 21
288.0161313461897
 31
0.0
  0
LINE
  5
746
330
2
100
AcDbEntity
  8
CENTER
100
AcDbLine
 10
271.3305635241462
 20
275.9336531059749
 30
0.0
 11
271.3305635241462
 21
291.6382835864044
 31
0.0
  0
LINE
  5
747
330
2
100
AcDbEntity
  8
CENTER
100
AcDbLine
 10
279.1828787643609
 20
283.7859683461896
 30
0.0
 11
263.4782482839314
 21
283.7859683461896
 31
0.0
  0
LINE
  5
748
330
2
100
AcDbEntity
  8
CENTER
100
AcDbLine
 10
271.3305635241462
 20
371.9336681059749
 30
0.0
 11
271.3305635241462
 21
387.6382985864044
 31
0.0
  0
LINE
  5
749
330
2
100
AcDbEntity
  8
CENTER
100
AcDbLine
 10
279.1828787643609
 20
379.7859833461896
 30
0.0
 11
263.4782482839314
 21
379.7859833461896
 31
0.0
  0
LINE
  5
74A
330
2
100
AcDbEntity
  8
CENTER
100
AcDbLine
 10
195.3305785241461
 20
371.9336681059749
 30
0.0
 11
195.3305785241461
 21
387.6382985864044
 31
0.0
  0
LINE
  5
74B
330
2
100
AcDbEntity
  8
CENTER
100
AcDbLine
 10
203.1828937643609
 20
379.7859833461896
 30
0.0
 11
187.4782632839313
 21
379.7859833461896
 31
0.0
  0
TEXT
  5
752
330
2
100
AcDbEntity
  8
TITLE
100
AcDbText
 10
339.8588270402634
 20
316.6091772521241
 30
0.0
 40
5.0
  1
HLMN-18L-10~240-T90T
 41
0.8
100
AcDbText
  0
TEXT
  5
753
330
2
100
AcDbEntity
  8
TITLE
100
AcDbText
 10
339.8588270402634
 20
308.6091772521242
 30
0.0
 40
5.0
  1
HLMN-18L-10~240-T90WT
 41
0.8
100
AcDbText
  0
TEXT
  5
754
330
2
100
AcDbEntity
  8
TITLE
100
AcDbText
 10
339.8588270402634
 20
340.6091772521242
 30
0.0
 40
5.0
  1
HLMN-18L-160~240-T40WT
 41
0.8
100
AcDbText
  0
TEXT
  5
755
330
2
100
AcDbEntity
  8
TITLE
100
AcDbText
 10
339.8588270402634
 20
348.6091772521242
 30
0.0
 40
5.0
  1
HLMN-18L-160~240-T40T
 41
0.8
100
AcDbText
  0
TEXT
  5
756
330
2
100
AcDbEntity
  8
TITLE
100
AcDbText
 10
339.8588270402634
 20
332.6091772521241
 30
0.0
 40
5.0
  1
HLMN-18L-80~240-T60T
 41
0.8
100
AcDbText
  0
TEXT
  5
757
330
2
100
AcDbEntity
  8
TITLE
100
AcDbText
 10
339.8588270402634
 20
324.6091772521241
 30
0.0
 40
5.0
  1
HLMN-18L-10~240-T60WT
 41
0.8
100
AcDbText
  0
TEXT
  5
758
330
2
100
AcDbEntity
  8
TITLE
100
AcDbText
 10
437.5499761997502
 20
324.6091772521241
 30
0.0
 40
5.0
  1
HLMN-18L-10~240-S60WT
 41
0.8
100
AcDbText
  0
TEXT
  5
759
330
2
100
AcDbEntity
  8
TITLE
100
AcDbText
 10
437.5499761997502
 20
308.6091772521242
 30
0.0
 40
5.0
  1
HLMN-18L-10~240-S90WT
 41
0.8
100
AcDbText
  0
TEXT
  5
75A
330
2
100
AcDbEntity
  8
TITLE
100
AcDbText
 10
437.5499761997502
 20
316.6091772521241
 30
0.0
 40
5.0
  1
HLMN-18L-10~240-S90T
 41
0.8
100
AcDbText
  0
TEXT
  5
75D
330
2
100
AcDbEntity
  8
TITLE
100
AcDbText
 10
437.5499761997502
 20
332.6091772521241
 30
0.0
 40
5.0
  1
HLMN-18L-10~240-S60T
 41
0.8
100
AcDbText
  0
TEXT
  5
75E
330
2
100
AcDbEntity
  8
TITLE
100
AcDbText
 10
437.5499761997502
 20
348.6091772521242
 30
0.0
 40
5.0
  1
HLMN-18L-160~240-S40T
 41
0.8
100
AcDbText
  0
TEXT
  5
75F
330
2
100
AcDbEntity
  8
TITLE
100
AcDbText
 10
437.5499761997502
 20
340.6091772521242
 30
0.0
 40
5.0
  1
HLMN-18L-160~240-S40WT
 41
0.8
100
AcDbText
  0
ARC
  5
7EF
330
2
100
AcDbEntity
  8
0
100
AcDbCircle
 10
217.909482524146
 20
164.8131049688989
 30
0.0
 40
5.0
100
AcDbArc
 50
90.0
 51
125.0496979999983
  0
LINE
  5
7F0
330
2
100
AcDbEntity
  8
CENTER
100
AcDbLine
 10
202.8305785241459
 20
131.8131049688989
 30
0.0
 11
263.8305785241459
 21
131.8131049688989
 31
0.0
  0
CIRCLE
  5
7F1
330
2
100
AcDbEntity
  8
0
100
AcDbCircle
 10
233.3305785241459
 20
131.8131049688989
 30
0.0
 40
23.5
  0
LINE
  5
7F2
330
2
100
AcDbEntity
  8
0
100
AcDbLine
 10
182.8305785241459
 20
56.81310296889893
 30
0.0
 11
283.8305785241459
 21
56.81310296889893
 31
0.0
  0
LINE
  5
7F3
330
2
100
AcDbEntity
  8
0
100
AcDbLine
 10
184.8305785241459
 20
65.81310296889893
 30
0.0
 11
281.8305785241459
 21
65.81310296889893
 31
0.0
  0
ARC
  5
7F4
330
2
100
AcDbEntity
  8
0
100
AcDbCircle
 10
233.3305785241459
 20
116.8131049688989
 30
0.0
 40
50.5
100
AcDbArc
 50
198.1038060000001
 51
341.8962100000007
  0
ARC
  5
7F5
330
2
100
AcDbEntity
  8
0
100
AcDbCircle
 10
233.3305785241459
 20
116.8131049688989
 30
0.0
 40
50.5
100
AcDbArc
 50
18.10378999999926
 51
161.8961939999998
  0
LINE
  5
7F6
330
2
100
AcDbEntity
  8
CENTER
100
AcDbLine
 10
46.33058002414588
 20
106.1131039688989
 30
0.0
 11
206.120083524146
 21
106.1131039688989
 31
0.0
  0
LINE
  5
7F7
330
2
100
AcDbEntity
  8
0
100
AcDbLine
 10
110.330571524146
 20
61.11310296889894
 30
0.0
 11
182.8305785241459
 21
61.11310296889894
 31
0.0
  0
LINE
  5
7F8
330
2
100
AcDbEntity
  8
0
100
AcDbLine
 10
110.330571524146
 20
151.1131009688989
 30
0.0
 11
189.673077524146
 21
151.1131009688989
 31
0.0
  0
LINE
  5
7F9
330
2
100
AcDbEntity
  8
0
100
AcDbLine
 10
110.330571524146
 20
140.5224019688989
 30
0.0
 11
181.2134825241459
 21
140.5224019688989
 31
0.0
  0
LINE
  5
7FA
330
2
100
AcDbEntity
  8
0
100
AcDbLine
 10
110.330571524146
 20
71.70380296889894
 30
0.0
 11
181.2134825241459
 21
71.70380296889894
 31
0.0
  0
LINE
  5
7FB
330
2
100
AcDbEntity
  8
0
100
AcDbLine
 10
100.830571524146
 20
153.1131009688989
 30
0.0
 11
100.830571524146
 21
59.11310296889894
 31
0.0
  0
LINE
  5
7FC
330
2
100
AcDbEntity
  8
0
100
AcDbLine
 10
53.33059252414603
 20
148.1131159688989
 30
0.0
 11
53.33056752414609
 21
64.11309296889894
 31
0.0
  0
LINE
  5
7FD
330
2
100
AcDbEntity
  8
0
100
AcDbLine
 10
110.330571524146
 20
61.11310296889894
 30
0.0
 11
110.330571524146
 21
151.1131009688989
 31
0.0
  0
LINE
  5
7FE
330
2
100
AcDbEntity
  8
0
100
AcDbLine
 10
100.830571524146
 20
77.11310196889894
 30
0.0
 11
56.85556852414606
 21
77.11310196889894
 31
0.0
  0
LINE
  5
7FF
330
2
100
AcDbEntity
  8
0
100
AcDbLine
 10
58.33056752414609
 20
59.11310296889894
 30
0.0
 11
100.830571524146
 21
59.11310296889894
 31
0.0
  0
ARC
  5
800
330
2
100
AcDbEntity
  8
0
100
AcDbCircle
 10
58.33056652414597
 20
64.11310296889894
 30
0.0
 40
5.0
100
AcDbArc
 50
180.0
 51
270.0
  0
LINE
  5
801
330
2
100
AcDbEntity
  8
0
100
AcDbLine
 10
100.830571524146
 20
61.11310296889894
 30
0.0
 11
110.330571524146
 21
61.11310296889894
 31
0.0
  0
LINE
  5
802
330
2
100
AcDbEntity
  8
0
100
AcDbLine
 10
110.330571524146
 20
71.70380296889894
 30
0.0
 11
100.830571524146
 21
71.70380296889894
 31
0.0
  0
LINE
  5
803
330
2
100
AcDbEntity
  8
0
100
AcDbLine
 10
100.830571524146
 20
135.1131009688989
 30
0.0
 11
56.85556952414595
 21
135.1131009688989
 31
0.0
  0
LINE
  5
804
330
2
100
AcDbEntity
  8
0
100
AcDbLine
 10
58.33056752414609
 20
153.1131009688989
 30
0.0
 11
100.830571524146
 21
153.1131009688989
 31
0.0
  0
ARC
  5
805
330
2
100
AcDbEntity
  8
0
100
AcDbCircle
 10
58.33059252414603
 20
148.1131309688989
 30
0.0
 40
5.0
100
AcDbArc
 50
90.0
 51
180.0
  0
LINE
  5
806
330
2
100
AcDbEntity
  8
0
100
AcDbLine
 10
110.330571524146
 20
140.5224019688989
 30
0.0
 11
100.830571524146
 21
140.5224019688989
 31
0.0
  0
ARC
  5
807
330
2
100
AcDbEntity
  8
0
100
AcDbCircle
 10
100.830571524146
 20
134.6425039688989
 30
0.0
 40
4.5
100
AcDbArc
 50
0.0
 51
90.0
  0
ARC
  5
808
330
2
100
AcDbEntity
  8
0
100
AcDbCircle
 10
100.830571524146
 20
134.6425039688989
 30
0.0
 40
3.0
100
AcDbArc
 50
0.0
 51
90.0
  0
ARC
  5
809
330
2
100
AcDbEntity
  8
0
100
AcDbCircle
 10
100.830571524146
 20
134.6425039688989
 30
0.0
 40
1.5
100
AcDbArc
 50
0.0
 51
90.0
  0
LINE
  5
80A
330
2
100
AcDbEntity
  8
HOJO
100
AcDbLine
 10
103.830571524146
 20
130.6425039688989
 30
0.0
 11
105.330571524146
 21
130.1425039688989
 31
0.0
  0
LINE
  5
80B
330
2
100
AcDbEntity
  8
HOJO
100
AcDbLine
 10
102.330571524146
 20
129.6425039688989
 30
0.0
 11
103.830571524146
 21
130.1425039688989
 31
0.0
  0
LINE
  5
80C
330
2
100
AcDbEntity
  8
0
100
AcDbLine
 10
102.330571524146
 20
134.6425039688989
 30
0.0
 11
102.330571524146
 21
129.6269019688989
 31
0.0
  0
LINE
  5
80D
330
2
100
AcDbEntity
  8
0
100
AcDbLine
 10
103.830571524146
 20
134.6425039688989
 30
0.0
 11
103.830571524146
 21
130.1425039688989
 31
0.0
  0
LINE
  5
80E
330
2
100
AcDbEntity
  8
0
100
AcDbLine
 10
105.330571524146
 20
134.6425039688989
 30
0.0
 11
105.330571524146
 21
130.1425039688989
 31
0.0
  0
LINE
  5
810
330
2
100
AcDbEntity
  8
0
100
AcDbLine
 10
100.830571524146
 20
151.1131009688989
 30
0.0
 11
110.330571524146
 21
151.1131009688989
 31
0.0
  0
LINE
  5
81A
330
2
100
AcDbEntity
  8
0
100
AcDbLine
 10
185.3305785241459
 20
132.5052899688989
 30
0.0
 11
185.3305785241459
 21
101.1205889688989
 31
0.0
  0
LINE
  5
81B
330
2
100
AcDbEntity
  8
0
100
AcDbLine
 10
182.8305785241459
 20
143.7130149688989
 30
0.0
 11
182.8304725241459
 21
56.81310296889893
 31
0.0
  0
LINE
  5
81C
330
2
100
AcDbEntity
  8
CENTER
100
AcDbLine
 10
195.3305785241459
 20
69.31310296889893
 30
0.0
 11
195.3305785241459
 21
53.31310296889893
 31
0.0
  0
LINE
  5
81D
330
2
100
AcDbEntity
  8
HIDS
  6
SEKKEI_H
100
AcDbLine
 10
191.0805785241459
 20
65.81310296889893
 30
0.0
 11
191.0805785241459
 21
56.81310296889893
 31
0.0
  0
ARC
  5
81E
330
2
100
AcDbEntity
  8
0
100
AcDbCircle
 10
184.8305785241459
 20
63.81310296889893
 30
0.0
 40
2.0
100
AcDbArc
 50
90.0
 51
180.0
  0
LINE
  5
81F
330
2
100
AcDbEntity
  8
HIDS
  6
SEKKEI_H
100
AcDbLine
 10
199.5805785241459
 20
65.81310296889893
 30
0.0
 11
199.5805785241459
 21
56.81310296889893
 31
0.0
  0
ARC
  5
820
330
2
100
AcDbEntity
  8
0
100
AcDbCircle
 10
187.8305785241459
 20
143.7130299688989
 30
0.0
 40
5.0
100
AcDbArc
 50
125.0497970000001
 51
180.0
  0
LINE
  5
821
330
2
100
AcDbEntity
  8
0
100
AcDbLine
 10
182.8305785241459
 20
143.7130299688989
 30
0.0
 11
182.8305785241459
 21
143.7129999688989
 31
0.0
  0
LINE
  5
822
330
2
100
AcDbEntity
  8
0
100
AcDbLine
 10
184.959179524146
 20
147.8062839688989
 30
0.0
 11
215.038083524146
 21
168.9063819688989
 31
0.0
  0
LINE
  5
823
330
2
100
AcDbEntity
  8
0
100
AcDbLine
 10
283.8305785241459
 20
63.81310296889893
 30
0.0
 11
283.8305785241459
 21
143.7129999688989
 31
0.0
  0
LINE
  5
824
330
2
100
AcDbEntity
  8
0
100
AcDbLine
 10
281.3305785241459
 20
132.5054649688989
 30
0.0
 11
281.3305785241459
 21
101.1207529688989
 31
0.0
  0
LINE
  5
825
330
2
100
AcDbEntity
  8
CENTER
100
AcDbLine
 10
233.330578524146
 20
176.8131049688989
 30
0.0
 11
233.3305785241459
 21
49.81310296889893
 31
0.0
  0
LINE
  5
826
330
2
100
AcDbEntity
  8
0
100
AcDbLine
 10
232.707974524146
 20
97.20519496889892
 30
0.0
 11
232.707974524146
 21
89.85900396889894
 31
0.0
  0
LINE
  5
827
330
2
100
AcDbEntity
  8
0
100
AcDbLine
 10
233.903378524146
 20
97.20519496889892
 30
0.0
 11
233.903378524146
 21
89.85900396889894
 31
0.0
  0
LINE
  5
828
330
2
100
AcDbEntity
  8
0
100
AcDbLine
 10
226.9555785241459
 20
94.36632396889894
 30
0.0
 11
226.9555785241459
 21
88.81310096889894
 31
0.0
  0
LINE
  5
829
330
2
100
AcDbEntity
  8
0
100
AcDbLine
 10
221.651379524146
 20
96.21309096889895
 30
0.0
 11
221.651379524146
 21
90.70402396889894
 31
0.0
  0
LINE
  5
82A
330
2
100
AcDbEntity
  8
0
100
AcDbLine
 10
226.0341765241459
 20
93.32042196889892
 30
0.0
 11
226.0341765241459
 21
91.92589396889895
 31
0.0
  0
LINE
  5
82B
330
2
100
AcDbEntity
  8
0
100
AcDbLine
 10
220.5805785241459
 20
96.89361096889895
 30
0.0
 11
220.5805785241459
 21
90.05396096889894
 31
0.0
  0
LINE
  5
82C
330
2
100
AcDbEntity
  8
0
100
AcDbLine
 10
224.0419745241461
 20
89.93371396889893
 30
0.0
 11
222.382672524146
 21
89.93371396889893
 31
0.0
  0
LINE
  5
82D
330
2
100
AcDbEntity
  8
0
100
AcDbLine
 10
221.810376524146
 20
88.81310096889894
 30
0.0
 11
225.1256835241461
 21
88.81310096889894
 31
0.0
  0
LINE
  5
82E
330
2
100
AcDbEntity
  8
0
100
AcDbLine
 10
221.651379524146
 20
90.70402396889894
 30
0.0
 11
222.382672524146
 21
89.93371396889893
 31
0.0
  0
LINE
  5
82F
330
2
100
AcDbEntity
  8
0
100
AcDbLine
 10
220.5805785241459
 20
90.05396096889894
 30
0.0
 11
221.810376524146
 21
88.81310096889894
 31
0.0
  0
LINE
  5
830
330
2
100
AcDbEntity
  8
0
100
AcDbLine
 10
226.0341765241459
 20
92.32433196889894
 30
0.0
 11
226.0341765241459
 21
93.12121396889892
 31
0.0
  0
LINE
  5
831
330
2
100
AcDbEntity
  8
0
100
AcDbLine
 10
226.0341765241459
 20
89.57537296889894
 30
0.0
 11
226.0341765241459
 21
88.81310096889894
 31
0.0
  0
LINE
  5
832
330
2
100
AcDbEntity
  8
0
100
AcDbLine
 10
226.0341765241459
 20
88.81310096889894
 30
0.0
 11
226.9555785241459
 21
88.81310096889894
 31
0.0
  0
ARC
  5
833
330
2
100
AcDbEntity
  8
0
100
AcDbCircle
 10
224.0419745241461
 20
91.92589396889895
 30
0.0
 40
1.992186999999999
100
AcDbArc
 50
270.0002140000007
 51
0.0001089999998967
  0
LINE
  5
834
330
2
100
AcDbEntity
  8
0
100
AcDbLine
 10
226.0341765241459
 20
89.57537296889894
 30
0.0
 11
225.1256835241461
 21
88.81310096889894
 31
0.0
  0
LINE
  5
835
330
2
100
AcDbEntity
  8
0
100
AcDbLine
 10
232.2348755241459
 20
88.81310096889894
 30
0.0
 11
234.301785524146
 21
88.81310096889894
 31
0.0
  0
LINE
  5
836
330
2
100
AcDbEntity
  8
0
100
AcDbLine
 10
232.2348755241459
 20
89.85900396889894
 30
0.0
 11
232.2348755241459
 21
88.81310096889894
 31
0.0
  0
LINE
  5
837
330
2
100
AcDbEntity
  8
0
100
AcDbLine
 10
232.2348755241459
 20
89.85900396889894
 30
0.0
 11
232.707974524146
 21
89.85900396889894
 31
0.0
  0
LINE
  5
838
330
2
100
AcDbEntity
  8
0
100
AcDbLine
 10
233.903378524146
 20
89.85900396889894
 30
0.0
 11
234.301785524146
 21
89.85900396889894
 31
0.0
  0
LINE
  5
839
330
2
100
AcDbEntity
  8
0
100
AcDbLine
 10
234.301785524146
 20
89.85900396889894
 30
0.0
 11
234.301785524146
 21
88.81310096889894
 31
0.0
  0
LINE
  5
83A
330
2
100
AcDbEntity
  8
0
100
AcDbLine
 10
225.443081524146
 20
97.10558596889894
 30
0.0
 11
222.3711825241459
 21
97.10558596889894
 31
0.0
  0
LINE
  5
83B
330
2
100
AcDbEntity
  8
0
100
AcDbLine
 10
221.737973524146
 20
98.37560496889892
 30
0.0
 11
226.024579524146
 21
98.37560496889892
 31
0.0
  0
LINE
  5
83C
330
2
100
AcDbEntity
  8
0
100
AcDbLine
 10
222.3711825241459
 20
97.10558596889894
 30
0.0
 11
221.651379524146
 21
96.21309096889895
 31
0.0
  0
LINE
  5
83D
330
2
100
AcDbEntity
  8
0
100
AcDbLine
 10
221.737973524146
 20
98.37560496889892
 30
0.0
 11
220.5805785241459
 21
96.89361096889895
 31
0.0
  0
LINE
  5
83E
330
2
100
AcDbEntity
  8
0
100
AcDbLine
 10
226.024579524146
 20
98.37560496889892
 30
0.0
 11
226.9555785241459
 21
97.34246296889892
 31
0.0
  0
LINE
  5
83F
330
2
100
AcDbEntity
  8
0
100
AcDbLine
 10
226.0341765241459
 20
96.38341796889893
 30
0.0
 11
226.9555785241459
 21
96.38341796889893
 31
0.0
  0
LINE
  5
840
330
2
100
AcDbEntity
  8
0
100
AcDbLine
 10
226.9555785241459
 20
97.34246296889892
 30
0.0
 11
226.9555785241459
 21
96.38341796889893
 31
0.0
  0
LINE
  5
841
330
2
100
AcDbEntity
  8
0
100
AcDbLine
 10
226.0341765241459
 20
96.53414396889894
 30
0.0
 11
226.0341765241459
 21
96.38341796889893
 31
0.0
  0
LINE
  5
842
330
2
100
AcDbEntity
  8
0
100
AcDbLine
 10
224.3657805241459
 20
94.36632396889894
 30
0.0
 11
224.3657805241459
 21
93.32042196889892
 31
0.0
  0
LINE
  5
843
330
2
100
AcDbEntity
  8
0
100
AcDbLine
 10
226.0341765241459
 20
96.53414396889894
 30
0.0
 11
225.4309815241461
 21
97.10558596889894
 31
0.0
  0
LINE
  5
844
330
2
100
AcDbEntity
  8
0
100
AcDbLine
 10
226.0341765241459
 20
93.32042196889892
 30
0.0
 11
224.3657805241459
 21
93.32042196889892
 31
0.0
  0
LINE
  5
845
330
2
100
AcDbEntity
  8
0
100
AcDbLine
 10
224.3657805241459
 20
94.36632396889894
 30
0.0
 11
226.9555785241459
 21
94.36632396889894
 31
0.0
  0
LINE
  5
846
330
2
100
AcDbEntity
  8
0
100
AcDbLine
 10
230.1430785241459
 20
98.37560496889892
 30
0.0
 11
236.5180785241459
 21
98.37560496889892
 31
0.0
  0
LINE
  5
847
330
2
100
AcDbEntity
  8
0
100
AcDbLine
 10
231.1930815241459
 20
97.20519496889892
 30
0.0
 11
230.8506745241459
 21
96.38341796889893
 31
0.0
  0
LINE
  5
848
330
2
100
AcDbEntity
  8
0
100
AcDbLine
 10
232.707974524146
 20
97.20519496889892
 30
0.0
 11
231.1930815241459
 21
97.20519496889892
 31
0.0
  0
LINE
  5
849
330
2
100
AcDbEntity
  8
0
100
AcDbLine
 10
230.1430785241459
 20
96.38341796889893
 30
0.0
 11
230.1430785241459
 21
98.37560496889892
 31
0.0
  0
LINE
  5
84A
330
2
100
AcDbEntity
  8
0
100
AcDbLine
 10
230.1430785241459
 20
96.38341796889893
 30
0.0
 11
230.8506745241459
 21
96.38341796889893
 31
0.0
  0
LINE
  5
84B
330
2
100
AcDbEntity
  8
0
100
AcDbLine
 10
236.5180785241459
 20
96.38341796889893
 30
0.0
 11
236.5180785241459
 21
98.37560496889892
 31
0.0
  0
LINE
  5
84C
330
2
100
AcDbEntity
  8
0
100
AcDbLine
 10
235.853085524146
 20
96.38341796889893
 30
0.0
 11
236.5180785241459
 21
96.38341796889893
 31
0.0
  0
LINE
  5
84D
330
2
100
AcDbEntity
  8
0
100
AcDbLine
 10
235.5643745241459
 20
97.20519496889892
 30
0.0
 11
235.853085524146
 21
96.38341796889893
 31
0.0
  0
LINE
  5
84E
330
2
100
AcDbEntity
  8
0
100
AcDbLine
 10
233.903378524146
 20
97.20519496889892
 30
0.0
 11
235.5643745241459
 21
97.20519496889892
 31
0.0
  0
LINE
  5
84F
330
2
100
AcDbEntity
  8
0
100
AcDbLine
 10
240.1786775241459
 20
97.20519496889892
 30
0.0
 11
240.1786775241459
 21
89.80919096889895
 31
0.0
  0
LINE
  5
850
330
2
100
AcDbEntity
  8
0
100
AcDbLine
 10
241.2743805241459
 20
93.28307196889893
 30
0.0
 11
241.2743805241459
 21
89.80919096889895
 31
0.0
  0
LINE
  5
851
330
2
100
AcDbEntity
  8
0
100
AcDbLine
 10
244.2323735241459
 20
93.36972296889895
 30
0.0
 11
245.812283524146
 21
89.80919096889895
 31
0.0
  0
LINE
  5
852
330
2
100
AcDbEntity
  8
0
100
AcDbLine
 10
243.314877524146
 20
93.28307196889893
 30
0.0
 11
244.809979524146
 21
89.80919096889895
 31
0.0
  0
LINE
  5
853
330
2
100
AcDbEntity
  8
0
100
AcDbLine
 10
239.7055785241459
 20
89.80919096889895
 30
0.0
 11
240.1786775241459
 21
89.80919096889895
 31
0.0
  0
LINE
  5
854
330
2
100
AcDbEntity
  8
0
100
AcDbLine
 10
241.2743805241459
 20
89.80919096889895
 30
0.0
 11
241.710187524146
 21
89.80919096889895
 31
0.0
  0
LINE
  5
855
330
2
100
AcDbEntity
  8
0
100
AcDbLine
 10
241.710187524146
 20
88.81310096889894
 30
0.0
 11
239.7055785241459
 21
88.81310096889894
 31
0.0
  0
LINE
  5
856
330
2
100
AcDbEntity
  8
0
100
AcDbLine
 10
241.710187524146
 20
89.80919096889895
 30
0.0
 11
241.710187524146
 21
88.81310096889894
 31
0.0
  0
LINE
  5
857
330
2
100
AcDbEntity
  8
0
100
AcDbLine
 10
239.7055785241459
 20
89.80919096889895
 30
0.0
 11
239.7055785241459
 21
88.81310096889894
 31
0.0
  0
LINE
  5
858
330
2
100
AcDbEntity
  8
0
100
AcDbLine
 10
244.6113865241459
 20
89.80919096889895
 30
0.0
 11
244.809979524146
 21
89.80919096889895
 31
0.0
  0
LINE
  5
859
330
2
100
AcDbEntity
  8
0
100
AcDbLine
 10
245.812283524146
 20
89.80919096889895
 30
0.0
 11
246.0805785241459
 21
89.80919096889895
 31
0.0
  0
LINE
  5
85A
330
2
100
AcDbEntity
  8
0
100
AcDbLine
 10
244.6113865241459
 20
88.81310096889894
 30
0.0
 11
246.0805785241459
 21
88.81310096889894
 31
0.0
  0
LINE
  5
85B
330
2
100
AcDbEntity
  8
0
100
AcDbLine
 10
246.0805785241459
 20
89.80919096889895
 30
0.0
 11
246.0805785241459
 21
88.81310096889894
 31
0.0
  0
LINE
  5
85C
330
2
100
AcDbEntity
  8
0
100
AcDbLine
 10
244.6113865241459
 20
89.80919096889895
 30
0.0
 11
244.6113865241459
 21
88.81310096889894
 31
0.0
  0
ARC
  5
85D
330
2
100
AcDbEntity
  8
0
100
AcDbCircle
 10
243.528073524146
 20
95.82311496889895
 30
0.0
 40
2.55249
100
AcDbArc
 50
286.0181270000003
 51
90.00351000000046
  0
ARC
  5
85E
330
2
100
AcDbEntity
  8
0
100
AcDbCircle
 10
243.528073524146
 20
95.82311496889895
 30
0.0
 40
1.557193
100
AcDbArc
 50
277.4147260000004
 51
62.41184999999767
  0
LINE
  5
85F
330
2
100
AcDbEntity
  8
0
100
AcDbLine
 10
241.2743805241459
 20
97.20519496889892
 30
0.0
 11
244.2492805241461
 21
97.20325696889894
 31
0.0
  0
LINE
  5
860
330
2
100
AcDbEntity
  8
0
100
AcDbLine
 10
239.7055785241459
 20
98.37560496889892
 30
0.0
 11
239.7055785241459
 21
97.20519496889892
 31
0.0
  0
LINE
  5
861
330
2
100
AcDbEntity
  8
0
100
AcDbLine
 10
241.2743805241459
 20
97.20519496889892
 30
0.0
 11
241.2743805241459
 21
94.27894496889894
 31
0.0
  0
LINE
  5
862
330
2
100
AcDbEntity
  8
0
100
AcDbLine
 10
239.7055785241459
 20
97.20519496889892
 30
0.0
 11
240.1786775241459
 21
97.20519496889892
 31
0.0
  0
LINE
  5
863
330
2
100
AcDbEntity
  8
0
100
AcDbLine
 10
241.2743805241459
 20
93.28307196889893
 30
0.0
 11
243.314877524146
 21
93.28307196889893
 31
0.0
  0
LINE
  5
864
330
2
100
AcDbEntity
  8
0
100
AcDbLine
 10
239.7055785241459
 20
98.37560496889892
 30
0.0
 11
243.528073524146
 21
98.37560496889892
 31
0.0
  0
LINE
  5
865
330
2
100
AcDbEntity
  8
0
100
AcDbLine
 10
241.2743805241459
 20
94.27894496889894
 30
0.0
 11
243.729077524146
 21
94.27894496889894
 31
0.0
  0
LINE
  5
866
330
2
100
AcDbEntity
  8
CENTER
100
AcDbLine
 10
271.3305785241459
 20
69.31310296889893
 30
0.0
 11
271.3305785241459
 21
53.31310296889893
 31
0.0
  0
LINE
  5
867
330
2
100
AcDbEntity
  8
HIDS
  6
SEKKEI_H
100
AcDbLine
 10
275.5805785241459
 20
65.81310296889893
 30
0.0
 11
275.5805785241459
 21
56.81310296889893
 31
0.0
  0
LINE
  5
868
330
2
100
AcDbEntity
  8
HIDS
  6
SEKKEI_H
100
AcDbLine
 10
267.0805785241459
 20
65.81310296889893
 30
0.0
 11
267.0805785241459
 21
56.81310296889893
 31
0.0
  0
LINE
  5
869
330
2
100
AcDbEntity
  8
0
100
AcDbLine
 10
283.8305785241459
 20
63.81310296889893
 30
0.0
 11
283.8305785241459
 21
56.81310296889893
 31
0.0
  0
ARC
  5
86A
330
2
100
AcDbEntity
  8
0
100
AcDbCircle
 10
281.8305785241459
 20
63.81309296889895
 30
0.0
 40
2.0
100
AcDbArc
 50
0.0
 51
90.0
  0
LINE
  5
86B
330
2
100
AcDbEntity
  8
0
100
AcDbLine
 10
281.701977524146
 20
147.8062839688989
 30
0.0
 11
251.6230745241459
 21
168.9063899688989
 31
0.0
  0
ARC
  5
86C
330
2
100
AcDbEntity
  8
HIDS
100
AcDbCircle
 10
233.3305785241459
 20
131.8131049688989
 30
0.0
 40
9.0
100
AcDbArc
 50
19.47120999999955
 51
340.5288089999994
  0
LINE
  5
86D
330
2
100
AcDbEntity
  8
HIDS
100
AcDbLine
 10
244.8305785241459
 20
128.8131429688989
 30
0.0
 11
238.8305785241459
 21
128.8131199688989
 31
0.0
  0
LINE
  5
86E
330
2
100
AcDbEntity
  8
HIDS
100
AcDbLine
 10
244.8305785241459
 20
134.8131429688989
 30
0.0
 11
238.8305785241459
 21
134.8131199688989
 31
0.0
  0
LINE
  5
86F
330
2
100
AcDbEntity
  8
HIDS
100
AcDbLine
 10
238.8305785241459
 20
128.8131199688989
 30
0.0
 11
238.8305785241459
 21
134.8131199688989
 31
0.0
  0
LINE
  5
870
330
2
100
AcDbEntity
  8
HIDS
100
AcDbLine
 10
244.8305785241459
 20
128.8131429688989
 30
0.0
 11
244.8305785241459
 21
134.8131429688989
 31
0.0
  0
LINE
  5
871
330
2
100
AcDbEntity
  8
0
100
AcDbLine
 10
217.909482524146
 20
169.8131049688989
 30
0.0
 11
248.7516755241461
 21
169.8131049688989
 31
0.0
  0
ARC
  5
872
330
2
100
AcDbEntity
  8
0
100
AcDbCircle
 10
248.7517825241459
 20
164.8130899688989
 30
0.0
 40
5.0
100
AcDbArc
 50
54.95087800000017
 51
90.0
  0
ARC
  5
873
330
2
100
AcDbEntity
  8
0
100
AcDbCircle
 10
278.8305785241459
 20
143.7129849688989
 30
0.0
 40
5.0
100
AcDbArc
 50
0.0
 51
54.95090100000179
  0
LINE
  5
20C9
330
2
100
AcDbEntity
  8
0
100
AcDbLine
 10
706.0122741316018
 20
164.6131009688989
 30
0.0
 11
654.0122671316017
 21
164.6131009688989
 31
0.0
  0
LINE
  5
20CA
330
2
100
AcDbEntity
  8
CENTER
100
AcDbLine
 10
711.9560231316016
 20
174.1130989688989
 30
0.0
 11
650.0599641678636
 21
174.1130989688989
 31
0.0
  0
LINE
  5
20CB
330
2
100
AcDbEntity
  8
0
100
AcDbLine
 10
702.5122741316017
 20
152.6131009688989
 30
0.0
 11
656.0122671316016
 21
152.6131009688989
 31
0.0
  0
LINE
  5
20CC
330
2
100
AcDbEntity
  8
0
100
AcDbLine
 10
704.0122741316017
 20
154.6131009688989
 30
0.0
 11
654.0122671316017
 21
154.6131009688989
 31
0.0
  0
LINE
  5
20CE
330
2
100
AcDbEntity
  8
0
100
AcDbLine
 10
661.5122675601726
 20
182.6130989688989
 30
0.0
 11
704.0122741316016
 21
182.6130989688989
 31
0.0
  0
LINE
  5
20CF
330
2
100
AcDbEntity
  8
0
100
AcDbLine
 10
658.8501759476271
 20
183.6130989688989
 30
0.0
 11
703.0122671316016
 21
183.6130989688989
 31
0.0
  0
ARC
  5
211E
330
2
100
AcDbEntity
  8
0
100
AcDbCircle
 10
104.830594524146
 20
310.2859683461896
 30
0.0
 40
4.0
100
AcDbArc
 50
0.0
 51
90.0
  0
LINE
  5
211F
330
2
100
AcDbEntity
  8
0
100
AcDbLine
 10
103.730565524146
 20
355.3859593461897
 30
0.0
 11
143.8304645241461
 21
355.3859593461896
 31
0.0
  0
LINE
  5
2120
330
2
100
AcDbEntity
  8
0
100
AcDbLine
 10
103.3305645241461
 20
356.7859683461897
 30
0.0
 11
149.3304645241461
 21
356.7859683461896
 31
0.0
  0
LINE
  5
2122
330
2
100
AcDbEntity
  8
0
100
AcDbLine
 10
103.3305645241461
 20
306.7859683461897
 30
0.0
 11
149.330464524146
 21
306.7859683461897
 31
0.0
  0
LINE
  5
2123
330
2
100
AcDbEntity
  8
0
100
AcDbLine
 10
148.930669524146
 20
308.1859623461896
 30
0.0
 11
108.8305645241461
 21
308.1859623461896
 31
0.0
  0
LINE
  5
2124
330
2
100
AcDbEntity
  8
0
100
AcDbLine
 10
99.33056452414611
 20
325.2859683461896
 30
0.0
 11
99.33056452414611
 21
338.2859683461897
 31
0.0
  0
LINE
  5
2125
330
2
100
AcDbEntity
  8
0
100
AcDbLine
 10
95.83056452414609
 20
333.7859683461896
 30
0.0
 11
95.83056452414609
 21
329.7859683461897
 31
0.0
  0
LINE
  5
2126
330
2
100
AcDbEntity
  8
0
100
AcDbLine
 10
102.730558524146
 20
354.3859593461896
 30
0.0
 11
102.730565524146
 21
314.2859683461896
 31
0.0
  0
LINE
  5
2127
330
2
100
AcDbEntity
  8
0
100
AcDbLine
 10
101.3305645241461
 20
354.7859683461897
 30
0.0
 11
101.3305645241461
 21
308.7859683461896
 31
0.0
  0
LINE
  5
2128
330
2
100
AcDbEntity
  8
0
100
AcDbLine
 10
108.8305645241461
 20
310.2859683461896
 30
0.0
 11
108.8305645241461
 21
306.7861673461897
 31
0.0
  0
ARC
  5
2129
330
2
100
AcDbEntity
  8
0
100
AcDbCircle
 10
106.8602945241461
 20
308.2562683461897
 30
0.0
 40
1.742199999999999
100
AcDbArc
 50
89.99869033450025
 51
180.0013096654997
  0
CIRCLE
  5
212A
330
2
100
AcDbEntity
  8
0
100
AcDbCircle
 10
104.830594524146
 20
310.2859683461896
 30
0.0
 40
3.500000000000028
  0
ARC
  5
212B
330
2
100
AcDbEntity
  8
0
100
AcDbCircle
 10
102.800894524146
 20
308.2562683461897
 30
0.0
 40
1.742199999999999
100
AcDbArc
 50
359.9986903345002
 51
90.00130966549322
  0
ARC
  5
212C
330
2
100
AcDbEntity
  8
0
100
AcDbCircle
 10
104.830594524146
 20
310.2859683461896
 30
0.0
 40
2.049999999999998
100
AcDbArc
 50
261.9380399160181
 51
270.0
  0
ARC
  5
212D
330
2
100
AcDbEntity
  8
0
100
AcDbCircle
 10
104.830594524146
 20
310.2859683461896
 30
0.0
 40
2.049999999999998
100
AcDbArc
 50
270.0
 51
278.0619600839818
  0
LINE
  5
212E
330
2
100
AcDbEntity
  8
0
100
AcDbLine
 10
101.3305645241461
 20
308.7859683461896
 30
0.0
 11
103.3305645241461
 21
306.7859683461897
 31
0.0
  0
LINE
  5
212F
330
2
100
AcDbEntity
  8
0
100
AcDbLine
 10
101.3305645241461
 20
308.7859683461896
 30
0.0
 11
103.3305645241461
 21
306.7859683461897
 31
0.0
  0
ARC
  5
2130
330
2
100
AcDbEntity
  8
0
100
AcDbCircle
 10
104.830594524146
 20
310.2859683461896
 30
0.0
 40
2.049999999999998
100
AcDbArc
 50
90.0
 51
98.06196008398188
  0
ARC
  5
2131
330
2
100
AcDbEntity
  8
0
100
AcDbCircle
 10
104.830594524146
 20
310.2859683461896
 30
0.0
 40
2.049999999999998
100
AcDbArc
 50
0.0
 51
8.061960083981649
  0
ARC
  5
2132
330
2
100
AcDbEntity
  8
0
100
AcDbCircle
 10
104.830594524146
 20
310.2859683461896
 30
0.0
 40
2.049999999999998
100
AcDbArc
 50
81.93803991601813
 51
90.0
  0
ARC
  5
2133
330
2
100
AcDbEntity
  8
0
100
AcDbCircle
 10
104.830594524146
 20
310.2859683461896
 30
0.0
 40
2.049999999999998
100
AcDbArc
 50
351.9380399160183
 51
0.0
  0
ARC
  5
2134
330
2
100
AcDbEntity
  8
0
100
AcDbCircle
 10
106.8602945241461
 20
312.3156683461896
 30
0.0
 40
1.742199999999999
100
AcDbArc
 50
179.9986903345002
 51
270.0013096654932
  0
ARC
  5
2135
330
2
100
AcDbEntity
  8
0
100
AcDbCircle
 10
104.830594524146
 20
310.2859683461896
 30
0.0
 40
2.049999999999998
100
AcDbArc
 50
171.9380399160183
 51
180.0
  0
ARC
  5
2136
330
2
100
AcDbEntity
  8
0
100
AcDbCircle
 10
104.830594524146
 20
310.2859683461896
 30
0.0
 40
2.049999999999998
100
AcDbArc
 50
180.0
 51
188.0619600839816
  0
LINE
  5
2137
330
2
100
AcDbEntity
  8
0
100
AcDbLine
 10
104.8305945241461
 20
314.2859683461896
 30
0.0
 11
101.3305945241461
 21
314.2859683461896
 31
0.0
  0
ARC
  5
2138
330
2
100
AcDbEntity
  8
0
100
AcDbCircle
 10
102.800894524146
 20
312.3156683461896
 30
0.0
 40
1.742199999999999
100
AcDbArc
 50
269.9986903345002
 51
0.0013096654997424
  0
ARC
  5
2139
330
2
100
AcDbEntity
  8
0
100
AcDbCircle
 10
100.3305645241459
 20
325.2859683461896
 30
0.0
 40
1.0
100
AcDbArc
 50
180.0
 51
270.0
  0
LINE
  5
213A
330
2
100
AcDbEntity
  8
0
100
AcDbLine
 10
99.33056452414611
 20
326.2859683461897
 30
0.0
 11
95.83056452414609
 21
329.7859683461897
 31
0.0
  0
LINE
  5
213B
330
2
100
AcDbEntity
  8
0
100
AcDbLine
 10
100.3305645241461
 20
324.2859683461897
 30
0.0
 11
101.3305645241461
 21
324.2859683461897
 31
0.0
  0
ARC
  5
213C
330
2
100
AcDbEntity
  8
0
100
AcDbCircle
 10
100.330579524146
 20
338.2859683461897
 30
0.0
 40
1.0
100
AcDbArc
 50
90.0
 51
180.0
  0
LINE
  5
213D
330
2
100
AcDbEntity
  8
0
100
AcDbLine
 10
95.83056452414609
 20
333.7859683461896
 30
0.0
 11
99.33056452414611
 21
337.2859683461896
 31
0.0
  0
LINE
  5
213E
330
2
100
AcDbEntity
  8
0
100
AcDbLine
 10
100.3305645241461
 20
339.2859683461896
 30
0.0
 11
101.3305645241461
 21
339.2859683461896
 31
0.0
  0
LINE
  5
213F
330
2
100
AcDbEntity
  8
0
100
AcDbLine
 10
101.3305645241461
 20
354.7859683461897
 30
0.0
 11
103.3305645241461
 21
356.7859683461897
 31
0.0
  0
LINE
  5
2140
330
2
100
AcDbEntity
  8
0
100
AcDbLine
 10
102.730558524146
 20
354.3859593461896
 30
0.0
 11
103.730565524146
 21
355.3859593461897
 31
0.0
  0
LINE
  5
2141
330
2
100
AcDbEntity
  8
0
100
AcDbLine
 10
149.930669524146
 20
309.1859623461896
 30
0.0
 11
149.930669524146
 21
349.2859683461896
 31
0.0
  0
LINE
  5
2142
330
2
100
AcDbEntity
  8
0
100
AcDbLine
 10
151.3304645241461
 20
354.7859683461896
 30
0.0
 11
151.330464524146
 21
308.7859683461896
 31
0.0
  0
LINE
  5
2143
330
2
100
AcDbEntity
  8
CENTER
100
AcDbLine
 10
126.330571524146
 20
362.1751942902974
 30
0.0
 11
126.330571524146
 21
301.0359683461897
 31
0.0
  0
LINE
  5
2144
330
2
100
AcDbEntity
  8
0
100
AcDbLine
 10
148.930669524146
 20
308.1859623461896
 30
0.0
 11
149.930669524146
 21
309.1859623461896
 31
0.0
  0
LINE
  5
2145
330
2
100
AcDbEntity
  8
0
100
AcDbLine
 10
151.330464524146
 20
308.7859683461896
 30
0.0
 11
149.330464524146
 21
306.7859683461897
 31
0.0
  0
LINE
  5
2146
330
2
100
AcDbEntity
  8
0
100
AcDbLine
 10
151.330464524146
 20
308.7859683461896
 30
0.0
 11
149.330464524146
 21
306.7859683461897
 31
0.0
  0
LINE
  5
2147
330
2
100
AcDbEntity
  8
0
100
AcDbLine
 10
151.330663524146
 20
308.7859683461896
 30
0.0
 11
149.330464524146
 21
306.7859683461897
 31
0.0
  0
ARC
  5
2148
330
2
100
AcDbEntity
  8
0
100
AcDbCircle
 10
147.830663524146
 20
353.2859683461897
 30
0.0
 40
4.0
100
AcDbArc
 50
180.0
 51
270.0
  0
CIRCLE
  5
2149
330
2
100
AcDbEntity
  8
0
100
AcDbCircle
 10
147.830663524146
 20
353.2859683461897
 30
0.0
 40
3.500000000000028
  0
LINE
  5
214A
330
2
100
AcDbEntity
  8
0
100
AcDbLine
 10
143.8304645241461
 20
353.2859683461896
 30
0.0
 11
143.8304645241461
 21
356.7859683461896
 31
0.0
  0
ARC
  5
214B
330
2
100
AcDbEntity
  8
0
100
AcDbCircle
 10
149.8603635241462
 20
351.2562683461896
 30
0.0
 40
1.742199999999999
100
AcDbArc
 50
89.99869033450025
 51
180.0013096654997
  0
ARC
  5
214C
330
2
100
AcDbEntity
  8
0
100
AcDbCircle
 10
145.8009635241461
 20
351.2562683461896
 30
0.0
 40
1.742199999999999
100
AcDbArc
 50
359.9986903345002
 51
90.00130966549322
  0
LINE
  5
214D
330
2
100
AcDbEntity
  8
0
100
AcDbLine
 10
147.8304645241461
 20
349.2859683461896
 30
0.0
 11
151.3304645241461
 21
349.2859683461896
 31
0.0
  0
ARC
  5
214E
330
2
100
AcDbEntity
  8
0
100
AcDbCircle
 10
147.830663524146
 20
353.2859683461897
 30
0.0
 40
2.049999999999998
100
AcDbArc
 50
261.9380399160181
 51
270.0
  0
ARC
  5
214F
330
2
100
AcDbEntity
  8
0
100
AcDbCircle
 10
147.830663524146
 20
353.2859683461897
 30
0.0
 40
2.049999999999998
100
AcDbArc
 50
270.0
 51
278.0619600839818
  0
LINE
  5
2150
330
2
100
AcDbEntity
  8
0
100
AcDbLine
 10
151.3304645241461
 20
354.7859683461896
 30
0.0
 11
149.3304645241461
 21
356.7859683461896
 31
0.0
  0
LINE
  5
2151
330
2
100
AcDbEntity
  8
0
100
AcDbLine
 10
149.3304645241461
 20
356.7859683461896
 30
0.0
 11
151.3304645241461
 21
354.7859683461896
 31
0.0
  0
ARC
  5
2152
330
2
100
AcDbEntity
  8
0
100
AcDbCircle
 10
147.830663524146
 20
353.2859683461897
 30
0.0
 40
2.049999999999998
100
AcDbArc
 50
90.0
 51
98.06196008398188
  0
ARC
  5
2153
330
2
100
AcDbEntity
  8
0
100
AcDbCircle
 10
147.830663524146
 20
353.2859683461897
 30
0.0
 40
2.049999999999998
100
AcDbArc
 50
81.93803991601813
 51
90.0
  0
ARC
  5
2154
330
2
100
AcDbEntity
  8
0
100
AcDbCircle
 10
147.830663524146
 20
353.2859683461897
 30
0.0
 40
2.049999999999998
100
AcDbArc
 50
0.0
 51
8.061960083981649
  0
ARC
  5
2155
330
2
100
AcDbEntity
  8
0
100
AcDbCircle
 10
147.830663524146
 20
353.2859683461897
 30
0.0
 40
2.049999999999998
100
AcDbArc
 50
351.9380399160183
 51
0.0
  0
ARC
  5
2156
330
2
100
AcDbEntity
  8
0
100
AcDbCircle
 10
149.8603635241462
 20
355.3156683461896
 30
0.0
 40
1.742199999999999
100
AcDbArc
 50
179.9986903345002
 51
270.0013096654932
  0
ARC
  5
2157
330
2
100
AcDbEntity
  8
0
100
AcDbCircle
 10
147.830663524146
 20
353.2859683461897
 30
0.0
 40
2.049999999999998
100
AcDbArc
 50
171.9380399160183
 51
180.0
  0
ARC
  5
2158
330
2
100
AcDbEntity
  8
0
100
AcDbCircle
 10
147.830663524146
 20
353.2859683461897
 30
0.0
 40
2.049999999999998
100
AcDbArc
 50
180.0
 51
188.0619600839816
  0
ARC
  5
2159
330
2
100
AcDbEntity
  8
0
100
AcDbCircle
 10
145.8009635241461
 20
355.3156683461896
 30
0.0
 40
1.742199999999999
100
AcDbArc
 50
269.9986903345002
 51
0.0013096654997424
  0
LINE
  5
215A
330
2
100
AcDbEntity
  8
CENTER
100
AcDbLine
 10
359.2613462369537
 20
174.113098968899
 30
0.0
 11
419.3485601993708
 21
174.113098968899
 31
0.0
  0
LINE
  5
215B
330
2
100
AcDbEntity
  8
0
100
AcDbLine
 10
413.3049382181622
 20
183.6130989688989
 30
0.0
 11
414.3049382181622
 21
182.6130989688989
 31
0.0
  0
ARC
  5
215C
330
2
100
AcDbEntity
  8
0
100
AcDbCircle
 10
412.9119639717552
 20
182.1192116931453
 30
0.0
 40
1.3
100
AcDbArc
 50
5.000000000000026
 51
74.11914999172243
  0
SPLINE
  5
215D
330
2
100
AcDbEntity
  8
0
100
AcDbSpline
210
0.0
220
0.0
230
1.0
 70
     8
 71
     3
 72
    11
 73
     7
 74
     0
 42
0.0000000001
 43
0.0000000001
 40
0.0
 40
0.0
 40
0.0
 40
0.0
 40
0.4601364636755307
 40
1.04988694485363
 40
1.713742833862792
 40
2.320347933405154
 40
2.320347933405154
 40
2.320347933405154
 40
2.320347933405179
 10
410.5174532177072
 20
182.196098968899
 30
0.0
 10
410.4950355605994
 20
182.3511224085788
 30
0.0
 10
410.4438855053662
 20
182.7048372264964
 30
0.0
 10
410.0080003438326
 20
183.1295648980981
 30
0.0
 10
409.4029496288251
 20
183.3487520780639
 30
0.0
 10
408.9777650046492
 20
183.2797607784532
 30
0.0
 10
408.7752133949981
 20
183.2655405062766
 30
0.0
  0
SPLINE
  5
215E
330
2
100
AcDbEntity
  8
0
100
AcDbSpline
210
0.0
220
0.0
230
1.0
 70
     8
 71
     3
 72
    11
 73
     7
 74
     0
 42
0.0000000001
 43
0.0000000001
 40
0.0
 40
0.0
 40
0.0
 40
0.0
 40
0.4601364636755307
 40
1.04988694485363
 40
1.713742833862792
 40
2.320347933405154
 40
2.320347933405154
 40
2.320347933405154
 40
2.320347933405179
 10
411.0924532186174
 20
182.196098968899
 30
0.0
 10
411.1148708757252
 20
182.3511224085788
 30
0.0
 10
411.1660209309585
 20
182.7048372264964
 30
0.0
 10
411.601906092492
 20
183.1295648980981
 30
0.0
 10
412.2069568074995
 20
183.3487520780639
 30
0.0
 10
412.6321414316753
 20
183.2797607784532
 30
0.0
 10
412.8346930413264
 20
183.2655405062766
 30
0.0
  0
LINE
  5
215F
330
2
100
AcDbEntity
  8
0
100
AcDbLine
 10
406.8049382181623
 20
181.1130989688989
 30
0.0
 11
406.8049382181623
 21
183.113098968899
 31
0.0
  0
ARC
  5
2161
330
2
100
AcDbEntity
  8
0
100
AcDbCircle
 10
408.6979424645693
 20
182.1192116931453
 30
0.0
 40
1.3
100
AcDbArc
 50
105.8808500082775
 51
174.9999999999999
  0
LINE
  5
2162
330
2
100
AcDbEntity
  8
0
100
AcDbLine
 10
365.3049532181622
 20
183.613098968899
 30
0.0
 11
364.3049532181622
 21
182.613098968899
 31
0.0
  0
LINE
  5
2164
330
2
100
AcDbEntity
  8
0
100
AcDbLine
 10
364.3049532181622
 20
182.613098968899
 30
0.0
 11
406.8049382181623
 21
182.613098968899
 31
0.0
  0
LINE
  5
2168
330
2
100
AcDbEntity
  8
0
100
AcDbLine
 10
364.3049532181622
 20
182.613098968899
 30
0.0
 11
364.3049532181622
 21
169.3766324369887
 31
0.0
  0
LINE
  5
216B
330
2
100
AcDbEntity
  8
0
100
AcDbLine
 10
414.3049382181622
 20
182.6130989688989
 30
0.0
 11
414.3049382181622
 21
169.376730408632
 31
0.0
  0
LINE
  5
216E
330
2
100
AcDbEntity
  8
0
100
AcDbLine
 10
406.8049382181623
 20
181.1130989688989
 30
0.0
 11
414.3049382181622
 21
181.113098968899
 31
0.0
  0
LINE
  5
216F
330
2
100
AcDbEntity
  8
0
100
AcDbLine
 10
407.3049532181622
 20
181.113098968899
 30
0.0
 11
407.4028893570502
 21
182.2325141587173
 31
0.0
  0
LINE
  5
2170
330
2
100
AcDbEntity
  8
0
100
AcDbLine
 10
414.3049532181622
 20
181.113098968899
 30
0.0
 11
414.2070170792743
 21
182.2325141587173
 31
0.0
  0
LINE
  5
2171
330
2
100
AcDbEntity
  8
0
100
AcDbLine
 10
411.0924532186174
 20
182.196098968899
 30
0.0
 11
410.5174532177072
 21
182.196098968899
 31
0.0
  0
LINE
  5
2172
330
2
100
AcDbEntity
  8
0
100
AcDbLine
 10
365.3049532181622
 20
183.613098968899
 30
0.0
 11
409.4670444021361
 21
183.6130989688989
 31
0.0
  0
LINE
  5
2173
330
2
100
AcDbEntity
  8
0
100
AcDbLine
 10
406.8049382181623
 20
183.1130989688989
 30
0.0
 11
407.8599758285418
 21
183.1130989688989
 31
0.0
  0
LINE
  5
2174
330
2
100
AcDbEntity
  8
0
100
AcDbLine
 10
406.3049382181622
 20
183.6130989688989
 30
0.0
 11
406.8049382181623
 21
183.1130989688989
 31
0.0
  0
LINE
  5
2175
330
2
100
AcDbEntity
  8
0
100
AcDbLine
 10
408.7752133949981
 20
183.2655405062766
 30
0.0
 11
408.7549532181623
 21
183.4765172517381
 31
0.0
  0
LINE
  5
2176
330
2
100
AcDbEntity
  8
0
100
AcDbLine
 10
412.8346930413264
 20
183.2655405062766
 30
0.0
 11
412.8549532181623
 21
183.4765172517381
 31
0.0
  0
ARC
  5
2177
330
2
100
AcDbEntity
  8
0
100
AcDbCircle
 10
410.8049532181622
 20
174.7130989688989
 30
0.0
 40
9.0
100
AcDbArc
 50
74.11914999172243
 51
105.8808500082775
  0
LINE
  5
2178
330
2
100
AcDbEntity
  8
0
100
AcDbLine
 10
412.1428620341885
 20
183.6130989688989
 30
0.0
 11
413.3049382181622
 21
183.6130989688989
 31
0.0
  0
LINE
  5
2179
330
2
100
AcDbEntity
  8
0
100
AcDbLine
 10
661.5122675601726
 20
181.1130989688988
 30
0.0
 11
661.5122675601726
 21
183.1130989688988
 31
0.0
  0
SPLINE
  5
217A
330
2
100
AcDbEntity
  8
0
100
AcDbSpline
210
0.0
220
0.0
230
1.0
 70
     8
 71
     3
 72
    11
 73
     7
 74
     0
 42
0.0000000001
 43
0.0000000001
 40
0.0
 40
0.0
 40
0.0
 40
0.0
 40
0.4601364636755307
 40
1.04988694485363
 40
1.713742833862792
 40
2.320347933405154
 40
2.320347933405154
 40
2.320347933405154
 40
2.320347933405179
 10
657.7997671320567
 20
182.1960989688988
 30
0.0
 10
657.8221847891645
 20
182.3511224085787
 30
0.0
 10
657.873334844398
 20
182.7048372264963
 30
0.0
 10
658.3092200059314
 20
183.1295648980979
 30
0.0
 10
658.9142707209389
 20
183.3487520780638
 30
0.0
 10
659.3394553451147
 20
183.2797607784531
 30
0.0
 10
659.5420069547658
 20
183.2655405062764
 30
0.0
  0
ARC
  5
217B
330
2
100
AcDbEntity
  8
0
100
AcDbCircle
 10
659.6192778851945
 20
182.1192116931451
 30
0.0
 40
1.3
100
AcDbArc
 50
5.000000000000026
 51
74.11914999172243
  0
LINE
  5
217C
330
2
100
AcDbEntity
  8
0
100
AcDbLine
 10
654.0122671316017
 20
182.6130989688989
 30
0.0
 11
655.0122671316016
 21
183.6130989688989
 31
0.0
  0
ARC
  5
217D
330
2
100
AcDbEntity
  8
0
100
AcDbCircle
 10
655.4052563780087
 20
182.1192116931451
 30
0.0
 40
1.3
100
AcDbArc
 50
105.8808500082775
 51
174.9999999999999
  0
SPLINE
  5
217E
330
2
100
AcDbEntity
  8
0
100
AcDbSpline
210
0.0
220
0.0
230
1.0
 70
     8
 71
     3
 72
    11
 73
     7
 74
     0
 42
0.0000000001
 43
0.0000000001
 40
0.0
 40
0.0
 40
0.0
 40
0.0
 40
0.4601364636755307
 40
1.04988694485363
 40
1.713742833862792
 40
2.320347933405154
 40
2.320347933405154
 40
2.320347933405154
 40
2.320347933405179
 10
657.2247671311466
 20
182.1960989688988
 30
0.0
 10
657.2023494740387
 20
182.3511224085787
 30
0.0
 10
657.1511994188056
 20
182.7048372264963
 30
0.0
 10
656.715314257272
 20
183.1295648980979
 30
0.0
 10
656.1102635422645
 20
183.3487520780638
 30
0.0
 10
655.6850789180887
 20
183.2797607784531
 30
0.0
 10
655.4825273084376
 20
183.2655405062764
 30
0.0
  0
LINE
  5
217F
330
2
100
AcDbEntity
  8
0
100
AcDbLine
 10
654.0122671316017
 20
182.6130989688989
 30
0.0
 11
654.0122671316017
 21
154.6131009688989
 31
0.0
  0
LINE
  5
2180
330
2
100
AcDbEntity
  8
0
100
AcDbLine
 10
656.5122671316016
 20
152.6131009688989
 30
0.0
 11
656.5122671316016
 21
151.1131009688989
 31
0.0
  0
LINE
  5
2181
330
2
100
AcDbEntity
  8
0
100
AcDbLine
 10
656.0122671316016
 20
152.6131009688989
 30
0.0
 11
654.0122671316017
 21
154.6131009688989
 31
0.0
  0
LINE
  5
2182
330
2
100
AcDbEntity
  8
0
100
AcDbLine
 10
661.5122675601726
 20
181.1130989688988
 30
0.0
 11
654.0122675601726
 21
181.1130989688988
 31
0.0
  0
LINE
  5
2183
330
2
100
AcDbEntity
  8
0
100
AcDbLine
 10
657.7997671320567
 20
182.1960989688988
 30
0.0
 11
657.2247671311466
 21
182.1960989688988
 31
0.0
  0
LINE
  5
2184
330
2
100
AcDbEntity
  8
0
100
AcDbLine
 10
654.0122671316017
 20
181.1130989688988
 30
0.0
 11
654.1102032704896
 21
182.2325141587171
 31
0.0
  0
LINE
  5
2185
330
2
100
AcDbEntity
  8
0
100
AcDbLine
 10
661.0122671316016
 20
181.1130989688988
 30
0.0
 11
660.9143309927137
 21
182.2325141587171
 31
0.0
  0
LINE
  5
2186
330
2
100
AcDbEntity
  8
0
100
AcDbLine
 10
661.5122675601726
 20
183.1130989688988
 30
0.0
 11
660.4572445212219
 21
183.1130989688988
 31
0.0
  0
LINE
  5
2187
330
2
100
AcDbEntity
  8
0
100
AcDbLine
 10
659.5420069547658
 20
183.2655405062764
 30
0.0
 11
659.5622671316017
 21
183.476517251738
 31
0.0
  0
LINE
  5
2188
330
2
100
AcDbEntity
  8
0
100
AcDbLine
 10
655.0122671316016
 20
183.6130989688989
 30
0.0
 11
656.1743583155763
 21
183.6130989688989
 31
0.0
  0
LINE
  5
2189
330
2
100
AcDbEntity
  8
0
100
AcDbLine
 10
655.4825273084376
 20
183.2655405062764
 30
0.0
 11
655.4622671316017
 21
183.476517251738
 31
0.0
  0
ARC
  5
218A
330
2
100
AcDbEntity
  8
0
100
AcDbCircle
 10
657.5122671316016
 20
174.7130989688988
 30
0.0
 40
9.0
100
AcDbArc
 50
74.11914999172243
 51
105.8808500082775
  0
LINE
  5
218B
330
2
100
AcDbEntity
  8
0
100
AcDbLine
 10
662.0122675601726
 20
183.6130989688988
 30
0.0
 11
661.5122675601726
 21
183.1130989688988
 31
0.0
  0
LINE
  5
218C
330
2
100
AcDbEntity
  8
0
100
AcDbLine
 10
703.0122741316016
 20
183.6130989688989
 30
0.0
 11
704.0122741316016
 21
182.6130989688989
 31
0.0
  0
LINE
  5
218D
330
2
100
AcDbEntity
  8
CENTER
100
AcDbLine
 10
679.0122671316017
 20
147.9193999688989
 30
0.0
 11
679.0122671316017
 21
189.0005989688989
 31
0.0
  0
LINE
  5
218E
330
2
100
AcDbEntity
  8
0
100
AcDbLine
 10
704.0122741316017
 20
182.6130989688989
 30
0.0
 11
704.0122741316017
 21
154.6131009688989
 31
0.0
  0
LINE
  5
218F
330
2
100
AcDbEntity
  8
0
100
AcDbLine
 10
702.5122741316017
 20
152.6131009688989
 30
0.0
 11
702.5122741316017
 21
151.1131009688989
 31
0.0
  0
LINE
  5
2190
330
2
100
AcDbEntity
  8
0
100
AcDbLine
 10
704.0122741316017
 20
154.6131009688989
 30
0.0
 11
702.0122741316018
 21
152.6131009688989
 31
0.0
  0
LINE
  5
2191
330
2
100
AcDbEntity
  8
0
100
AcDbLine
 10
709.5122591316017
 20
178.1130989688989
 30
0.0
 11
709.5122591316017
 21
170.1130989688989
 31
0.0
  0
LINE
  5
2192
330
2
100
AcDbEntity
  8
0
100
AcDbLine
 10
706.0122591316017
 20
180.6130989688989
 30
0.0
 11
706.0122741316018
 21
164.6131009688989
 31
0.0
  0
LINE
  5
2193
330
2
100
AcDbEntity
  8
0
100
AcDbLine
 10
709.5122741316018
 20
170.1130989688989
 30
0.0
 11
706.0122741316018
 21
168.6130989688989
 31
0.0
  0
ARC
  5
2194
330
2
100
AcDbEntity
  8
0
100
AcDbCircle
 10
705.0122591316017
 20
180.6130989688989
 30
0.0
 40
1.0
100
AcDbArc
 50
0.0
 51
90.0
  0
LINE
  5
2195
330
2
100
AcDbEntity
  8
0
100
AcDbLine
 10
709.5122591316017
 20
178.1130989688989
 30
0.0
 11
706.0122591316017
 21
179.6130989688989
 31
0.0
  0
LINE
  5
2196
330
2
100
AcDbEntity
  8
0
100
AcDbLine
 10
705.0122741316017
 20
181.6130989688989
 30
0.0
 11
704.0122741316017
 21
181.6130989688989
 31
0.0
  0
LINE
  5
21D7
330
2
100
AcDbEntity
  8
0
100
AcDbLine
 10
151.330571524146
 20
182.6130989688989
 30
0.0
 11
151.330571524146
 21
154.6131009688989
 31
0.0
  0
LINE
  5
21D8
330
2
100
AcDbEntity
  8
CENTER
100
AcDbLine
 10
126.330571524146
 20
147.9193999688989
 30
0.0
 11
126.330571524146
 21
189.0005989688989
 31
0.0
  0
LINE
  5
21D9
330
2
100
AcDbEntity
  8
0
100
AcDbLine
 10
101.3305645241461
 20
182.6130989688989
 30
0.0
 11
101.3305645241461
 21
154.6131009688989
 31
0.0
  0
LINE
  5
21DB
330
2
100
AcDbEntity
  8
0
100
AcDbLine
 10
102.830564524146
 20
152.6131009688989
 30
0.0
 11
149.330571524146
 21
152.6131009688989
 31
0.0
  0
LINE
  5
21DC
330
2
100
AcDbEntity
  8
0
100
AcDbLine
 10
101.3305645241461
 20
154.6131009688989
 30
0.0
 11
151.330571524146
 21
154.6131009688989
 31
0.0
  0
LINE
  5
21DD
330
2
100
AcDbEntity
  8
0
100
AcDbLine
 10
101.3305645241461
 20
154.6131009688989
 30
0.0
 11
103.3305645241461
 21
152.6131009688989
 31
0.0
  0
LINE
  5
21DE
330
2
100
AcDbEntity
  8
0
100
AcDbLine
 10
102.830564524146
 20
152.6131009688989
 30
0.0
 11
102.830564524146
 21
151.1131009688989
 31
0.0
  0
LINE
  5
21DF
330
2
100
AcDbEntity
  8
0
100
AcDbLine
 10
149.330571524146
 20
152.6131009688989
 30
0.0
 11
151.330571524146
 21
154.6131009688989
 31
0.0
  0
LINE
  5
21E0
330
2
100
AcDbEntity
  8
0
100
AcDbLine
 10
148.830571524146
 20
152.6131009688989
 30
0.0
 11
148.830571524146
 21
151.1131009688989
 31
0.0
  0
LINE
  5
21E1
330
2
100
AcDbEntity
  8
0
100
AcDbLine
 10
108.830564952717
 20
183.1130989688988
 30
0.0
 11
107.7755489137663
 21
183.1130989688988
 31
0.0
  0
LINE
  5
21E2
330
2
100
AcDbEntity
  8
0
100
AcDbLine
 10
108.830564952717
 20
181.1130989688988
 30
0.0
 11
101.330564952717
 21
181.1130989688988
 31
0.0
  0
ARC
  5
21E3
330
2
100
AcDbEntity
  8
0
100
AcDbCircle
 10
106.937582277739
 20
182.1192116931451
 30
0.0
 40
1.3
100
AcDbArc
 50
5.000000000000026
 51
74.11914999172243
  0
LINE
  5
21E5
330
2
100
AcDbEntity
  8
0
100
AcDbLine
 10
106.1684803401716
 20
183.6130989688989
 30
0.0
 11
150.330571524146
 21
183.6130989688989
 31
0.0
  0
LINE
  5
21E6
330
2
100
AcDbEntity
  8
0
100
AcDbLine
 10
99.33056452414611
 20
164.6131009688989
 30
0.0
 11
151.330571524146
 21
164.6131009688989
 31
0.0
  0
LINE
  5
21E7
330
2
100
AcDbEntity
  8
CENTER
100
AcDbLine
 10
93.38681552414607
 20
174.1130989688989
 30
0.0
 11
155.2828744878842
 21
174.1130989688989
 31
0.0
  0
LINE
  5
21E8
330
2
100
AcDbEntity
  8
0
100
AcDbLine
 10
99.33057952414607
 20
180.6130989688989
 30
0.0
 11
99.33056452414611
 21
164.6131009688989
 31
0.0
  0
LINE
  5
21E9
330
2
100
AcDbEntity
  8
0
100
AcDbLine
 10
95.83057952414606
 20
178.1130989688989
 30
0.0
 11
95.83057952414606
 21
170.1130989688989
 31
0.0
  0
LINE
  5
21EA
330
2
100
AcDbEntity
  8
0
100
AcDbLine
 10
95.83056452414609
 20
170.1130989688989
 30
0.0
 11
99.33056452414611
 21
168.6130989688989
 31
0.0
  0
LINE
  5
21EB
330
2
100
AcDbEntity
  8
0
100
AcDbLine
 10
95.83057952414606
 20
178.1130989688989
 30
0.0
 11
99.33057952414607
 21
179.6130989688989
 31
0.0
  0
LINE
  5
21EC
330
2
100
AcDbEntity
  8
0
100
AcDbLine
 10
100.3305645241461
 20
181.6130989688989
 30
0.0
 11
101.3305645241461
 21
181.6130989688989
 31
0.0
  0
ARC
  5
21ED
330
2
100
AcDbEntity
  8
0
100
AcDbCircle
 10
100.330579524146
 20
180.6130989688989
 30
0.0
 40
1.0
100
AcDbArc
 50
90.0
 51
180.0
  0
ARC
  5
21EE
330
2
100
AcDbEntity
  8
0
100
AcDbCircle
 10
104.8305715241461
 20
174.7130989688988
 30
0.0
 40
9.0
100
AcDbArc
 50
74.11914999172243
 51
105.8808500082775
  0
LINE
  5
21EF
330
2
100
AcDbEntity
  8
0
100
AcDbLine
 10
102.8008317009821
 20
183.2655405062764
 30
0.0
 11
102.7805715241461
 21
183.476517251738
 31
0.0
  0
LINE
  5
21F0
330
2
100
AcDbEntity
  8
0
100
AcDbLine
 10
102.3305645241461
 20
183.6130989688989
 30
0.0
 11
103.4926627081207
 21
183.6130989688989
 31
0.0
  0
LINE
  5
21F1
330
2
100
AcDbEntity
  8
0
100
AcDbLine
 10
106.8603113473102
 20
183.2655405062764
 30
0.0
 11
106.8805715241462
 21
183.476517251738
 31
0.0
  0
LINE
  5
21F2
330
2
100
AcDbEntity
  8
0
100
AcDbLine
 10
101.3305715241461
 20
181.1130989688988
 30
0.0
 11
101.4285076630339
 21
182.2325141587171
 31
0.0
  0
LINE
  5
21F3
330
2
100
AcDbEntity
  8
0
100
AcDbLine
 10
105.1180715246011
 20
182.1960989688988
 30
0.0
 11
104.5430715236912
 21
182.1960989688988
 31
0.0
  0
SPLINE
  5
21F4
330
2
100
AcDbEntity
  8
0
100
AcDbSpline
210
0.0
220
0.0
230
1.0
 70
     8
 71
     3
 72
    11
 73
     7
 74
     0
 42
0.0000000001
 43
0.0000000001
 40
0.0
 40
0.0
 40
0.0
 40
0.0
 40
0.4601364636755307
 40
1.04988694485363
 40
1.713742833862792
 40
2.320347933405154
 40
2.320347933405154
 40
2.320347933405154
 40
2.320347933405179
 10
104.5430715236912
 20
182.1960989688988
 30
0.0
 10
104.5206538665833
 20
182.3511224085787
 30
0.0
 10
104.46950381135
 20
182.7048372264963
 30
0.0
 10
104.0336186498163
 20
183.1295648980979
 30
0.0
 10
103.428567934809
 20
183.3487520780638
 30
0.0
 10
103.0033833106331
 20
183.2797607784531
 30
0.0
 10
102.8008317009821
 20
183.2655405062764
 30
0.0
  0
ARC
  5
21F5
330
2
100
AcDbEntity
  8
0
100
AcDbCircle
 10
102.7235607705531
 20
182.1192116931451
 30
0.0
 40
1.3
100
AcDbArc
 50
105.8808500082775
 51
174.9999999999999
  0
LINE
  5
21F6
330
2
100
AcDbEntity
  8
0
100
AcDbLine
 10
102.330564952717
 20
183.6130989688988
 30
0.0
 11
101.3305645241461
 21
182.6130989688989
 31
0.0
  0
LINE
  5
21F7
330
2
100
AcDbEntity
  8
0
100
AcDbLine
 10
101.3305645241461
 20
182.6130989688989
 30
0.0
 11
102.3305645241461
 21
183.6130989688989
 31
0.0
  0
SPLINE
  5
21F8
330
2
100
AcDbEntity
  8
0
100
AcDbSpline
210
0.0
220
0.0
230
1.0
 70
     8
 71
     3
 72
    11
 73
     7
 74
     0
 42
0.0000000001
 43
0.0000000001
 40
0.0
 40
0.0
 40
0.0
 40
0.0
 40
0.4601364636755307
 40
1.04988694485363
 40
1.713742833862792
 40
2.320347933405154
 40
2.320347933405154
 40
2.320347933405154
 40
2.320347933405179
 10
105.1180715246011
 20
182.1960989688988
 30
0.0
 10
105.140489181709
 20
182.3511224085787
 30
0.0
 10
105.1916392369423
 20
182.7048372264963
 30
0.0
 10
105.627524398476
 20
183.1295648980979
 30
0.0
 10
106.2325751134833
 20
183.3487520780638
 30
0.0
 10
106.6577597376592
 20
183.2797607784531
 30
0.0
 10
106.8603113473102
 20
183.2655405062764
 30
0.0
  0
LINE
  5
21F9
330
2
100
AcDbEntity
  8
0
100
AcDbLine
 10
108.830564952717
 20
182.6130989688989
 30
0.0
 11
151.3305785241461
 21
182.6130989688989
 31
0.0
  0
LINE
  5
21FA
330
2
100
AcDbEntity
  8
0
100
AcDbLine
 10
108.330571524146
 20
181.1130989688988
 30
0.0
 11
108.2326353852582
 21
182.2325141587171
 31
0.0
  0
LINE
  5
21FB
330
2
100
AcDbEntity
  8
0
100
AcDbLine
 10
108.830564952717
 20
181.1130989688988
 30
0.0
 11
108.830564952717
 21
183.1130989688988
 31
0.0
  0
LINE
  5
21FC
330
2
100
AcDbEntity
  8
0
100
AcDbLine
 10
109.330564952717
 20
183.6130989688988
 30
0.0
 11
108.830564952717
 21
183.1130989688988
 31
0.0
  0
LINE
  5
21FD
330
2
100
AcDbEntity
  8
0
100
AcDbLine
 10
150.3305785241461
 20
183.6130989688989
 30
0.0
 11
151.3305785241461
 21
182.6130989688989
 31
0.0
  0
LINE
  5
22C2
330
2
100
AcDbEntity
  8
0
100
AcDbLine
 10
100.8305785241462
 20
324.2859683461897
 30
0.0
 11
100.8305785241462
 21
284.7859683461896
 31
0.0
  0
ENDSEC
  0
SECTION
  2
OBJECTS
  0
DICTIONARY
  5
7
330
0
100
AcDbDictionary
  3
ACAD_GROUP
350
75
  3
ACAD_LAYOUT
350
61
  3
ACAD_MLINESTYLE
350
76
  3
ACAD_PLOTSETTINGS
350
77
  3
ACAD_PLOTSTYLENAME
350
6
  3
ACADDIM
350
480
  3
ACDBHEADERROUNDTRIPXREC
350
2443
  3
ACDBVARIABLEDICTIONARY
350
102
  3
DWGPROPS
350
3D2
  0
DICTIONARY
  5
2464
330
2
100
AcDbDictionary
280
     1
  3
ACAD_LAYOUTSELFREF
360
2465
  0
DICTIONARY
  5
2466
330
243D
100
AcDbDictionary
280
     1
  3
ACAD_LAYOUTSELFREF
360
2467
  0
DICTIONARY
  5
75
102
{ACAD_REACTORS
330
7
102
}
330
7
100
AcDbDictionary
  0
DICTIONARY
  5
61
102
{ACAD_REACTORS
330
7
102
}
330
7
100
AcDbDictionary
  0
DICTIONARY
  5
76
102
{ACAD_REACTORS
330
7
102
}
330
7
100
AcDbDictionary
  3
STANDARD
350
78
  0
DICTIONARY
  5
77
102
{ACAD_REACTORS
330
7
102
}
330
7
100
AcDbDictionary
  0
ACDBDICTIONARYWDFLT
  5
6
102
{ACAD_REACTORS
330
7
102
}
330
7
100
AcDbDictionary
281
     1
  3
Normal
350
5
100
AcDbDictionaryWithDefault
340
5
  0
XRECORD
  5
480
102
{ACAD_REACTORS
330
7
102
}
330
7
100
AcDbXrecord
 90
   990106
  3

 60
     0
 61
     0
 62
     1
 63
     3
 64
     1
 65
     0
 66
     0
 67
     3
 68
     1
 69
     0
 70
     0
 71
     0
 72
     0
 40
0.0
170
     2
340
0
  0
DICTIONARY
  5
2443
102
{ACAD_REACTORS
330
7
102
}
330
7
100
AcDbDictionary
  3
CEPSNTYPE
350
244D
  3
DIMSTYLEDATA
350
2451
  3
FINGERPRINTGUID
350
244E
  3
HYPERLINKBASE
350
2446
  3
INSUNITS
350
244C
  3
LAYOUTDICT
350
2448
  3
LWETCUNION
350
244B
  3
PLOTSETDICT
350
2449
  3
PLOTSTYLNAMDICT
350
244A
  3
PSVPSCALE
350
2450
  3
PUCSBASE
350
2454
  3
PUCSORGBACK
350
245A
  3
PUCSORGBOTTOM
350
2456
  3
PUCSORGFRONT
350
2459
  3
PUCSORGLEFT
350
2457
  3
PUCSORGRIGHT
350
2458
  3
PUCSORGTOP
350
2455
  3
PUCSORTHOREF
350
2452
  3
PUCSORTHOVIEW
350
2453
  3
STYLESHEET
350
2447
  3
TSTACKALIGN
350
2444
  3
TSTACKSIZE
350
2445
  3
UCSBASE
350
245D
  3
UCSORGBACK
350
2463
  3
UCSORGBOTTOM
350
245F
  3
UCSORGFRONT
350
2462
  3
UCSORGLEFT
350
2460
  3
UCSORGRIGHT
350
2461
  3
UCSORGTOP
350
245E
  3
UCSORTHOREF
350
245B
  3
UCSORTHOVIEW
350
245C
  3
VERSIONGUID
350
244F
  0
DICTIONARY
  5
102
102
{ACAD_REACTORS
330
7
102
}
330
7
100
AcDbDictionary
  3
DIMASSOC
350
103
  0
XRECORD
  5
3D2
102
{ACAD_REACTORS
330
7
102
}
330
7
100
AcDbXrecord
  1
DWGPROPS COOKIE
  2

  3

  4

  6

  7

  8

  9

300
=
301
=
302
=
303
=
304
=
305
=
306
=
307
=
308
=
309
=
 40
0.5353330671296296
 41
2452052.431989363
 42
2453406.550756377
  1

 90
        0
  0
XRECORD
  5
2465
102
{ACAD_REACTORS
330
2464
102
}
330
2464
100
AcDbXrecord
340
2
  0
XRECORD
  5
2467
102
{ACAD_REACTORS
330
2466
102
}
330
2466
100
AcDbXrecord
340
243D
  0
MLINESTYLE
  5
78
102
{ACAD_REACTORS
330
76
102
}
330
76
100
AcDbMlineStyle
  2
STANDARD
 70
     0
  3

 62
     0
 51
90.0
 52
90.0
 71
     2
 49
0.5
 62
   256
  6
BYLAYER
 49
-0.5
 62
   256
  6
BYLAYER
  0
ACDBPLACEHOLDER
  5
5
102
{ACAD_REACTORS
330
6
102
}
330
6
100
AcDbPlaceHolder
280
     0
  0
XRECORD
  5
244D
102
{ACAD_REACTORS
330
2443
102
}
330
2443
100
AcDbXrecord
 90
        0
  0
XRECORD
  5
2451
102
{ACAD_REACTORS
330
2443
102
}
330
2443
100
AcDbXrecord
1000
DSTYLE
1002
{
1070
   179
 70
     2
1070
   277
 70
     6
1002
}
  0
XRECORD
  5
244E
102
{ACAD_REACTORS
330
2443
102
}
330
2443
100
AcDbXrecord
  1
{6385560B-F4B1-4644-A7C2-A3E32AC3D232}
  0
XRECORD
  5
2446
102
{ACAD_REACTORS
330
2443
102
}
330
2443
100
AcDbXrecord
  1

  0
XRECORD
  5
244C
102
{ACAD_REACTORS
330
2443
102
}
330
2443
100
AcDbXrecord
 90
        0
  0
XRECORD
  5
2448
102
{ACAD_REACTORS
330
2443
102
}
330
2443
100
AcDbXrecord
340
61
  0
XRECORD
  5
244B
102
{ACAD_REACTORS
330
2443
102
}
330
2443
100
AcDbXrecord
 90
    10781
  0
XRECORD
  5
2449
102
{ACAD_REACTORS
330
2443
102
}
330
2443
100
AcDbXrecord
340
77
  0
XRECORD
  5
244A
102
{ACAD_REACTORS
330
2443
102
}
330
2443
100
AcDbXrecord
340
6
  0
XRECORD
  5
2450
102
{ACAD_REACTORS
330
2443
102
}
330
2443
100
AcDbXrecord
 40
0.0
  0
XRECORD
  5
2454
102
{ACAD_REACTORS
330
2443
102
}
330
2443
100
AcDbXrecord
340
0
  0
XRECORD
  5
245A
102
{ACAD_REACTORS
330
2443
102
}
330
2443
100
AcDbXrecord
 10
0.0
 20
0.0
 30
0.0
  0
XRECORD
  5
2456
102
{ACAD_REACTORS
330
2443
102
}
330
2443
100
AcDbXrecord
 10
0.0
 20
0.0
 30
0.0
  0
XRECORD
  5
2459
102
{ACAD_REACTORS
330
2443
102
}
330
2443
100
AcDbXrecord
 10
0.0
 20
0.0
 30
0.0
  0
XRECORD
  5
2457
102
{ACAD_REACTORS
330
2443
102
}
330
2443
100
AcDbXrecord
 10
0.0
 20
0.0
 30
0.0
  0
XRECORD
  5
2458
102
{ACAD_REACTORS
330
2443
102
}
330
2443
100
AcDbXrecord
 10
0.0
 20
0.0
 30
0.0
  0
XRECORD
  5
2455
102
{ACAD_REACTORS
330
2443
102
}
330
2443
100
AcDbXrecord
 10
0.0
 20
0.0
 30
0.0
  0
XRECORD
  5
2452
102
{ACAD_REACTORS
330
2443
102
}
330
2443
100
AcDbXrecord
340
0
  0
XRECORD
  5
2453
102
{ACAD_REACTORS
330
2443
102
}
330
2443
100
AcDbXrecord
 70
     0
  0
XRECORD
  5
2447
102
{ACAD_REACTORS
330
2443
102
}
330
2443
100
AcDbXrecord
  1
Sekkei.ctb
  0
XRECORD
  5
2444
102
{ACAD_REACTORS
330
2443
102
}
330
2443
100
AcDbXrecord
 90
        1
  0
XRECORD
  5
2445
102
{ACAD_REACTORS
330
2443
102
}
330
2443
100
AcDbXrecord
 90
       70
  0
XRECORD
  5
245D
102
{ACAD_REACTORS
330
2443
102
}
330
2443
100
AcDbXrecord
340
0
  0
XRECORD
  5
2463
102
{ACAD_REACTORS
330
2443
102
}
330
2443
100
AcDbXrecord
 10
0.0
 20
0.0
 30
0.0
  0
XRECORD
  5
245F
102
{ACAD_REACTORS
330
2443
102
}
330
2443
100
AcDbXrecord
 10
0.0
 20
0.0
 30
0.0
  0
XRECORD
  5
2462
102
{ACAD_REACTORS
330
2443
102
}
330
2443
100
AcDbXrecord
 10
0.0
 20
0.0
 30
0.0
  0
XRECORD
  5
2460
102
{ACAD_REACTORS
330
2443
102
}
330
2443
100
AcDbXrecord
 10
0.0
 20
0.0
 30
0.0
  0
XRECORD
  5
2461
102
{ACAD_REACTORS
330
2443
102
}
330
2443
100
AcDbXrecord
 10
0.0
 20
0.0
 30
0.0
  0
XRECORD
  5
245E
102
{ACAD_REACTORS
330
2443
102
}
330
2443
100
AcDbXrecord
 10
0.0
 20
0.0
 30
0.0
  0
XRECORD
  5
245B
102
{ACAD_REACTORS
330
2443
102
}
330
2443
100
AcDbXrecord
340
0
  0
XRECORD
  5
245C
102
{ACAD_REACTORS
330
2443
102
}
330
2443
100
AcDbXrecord
 70
     0
  0
XRECORD
  5
244F
102
{ACAD_REACTORS
330
2443
102
}
330
2443
100
AcDbXrecord
  1
{538CB079-CFAC-49B6-BEF0-0E3F08790866}
  0
DICTIONARYVAR
  5
103
102
{ACAD_REACTORS
330
102
102
}
330
102
100
DictionaryVariables
280
     0
  1
1
  0
ENDSEC
  0
EOF
