  0
SECTION
  2
HEADER
  9
$CLAYER
  8
1
  9
$LTSCALE
 40
3.0
  0
ENDSEC
  0
SECTION
  2
TABLES
  0
TABLE
  2
LTYPE
 70
     4
  0
LTYPE
  2
CONTINUOUS
  3
solid line
 70
    64
 72
    65
 73
     0
 40
0.0
  0
LTYPE
  2
DASHED
  3
__ __ __ __ __ __ __ __ __ __ __ __ __ __ __
 70
    64
 72
    65
 73
     2
 40
0.75
 49
0.5
 49
-0.25
  0
LTYPE
  2
CENTER
  3
____ _ ____ _ ____ _ ____ _ ____ _ ____ _ ____
 70
    64
 72
    65
 73
     4
 40
2.0
 49
1.25
 49
-0.25
 49
0.25
 49
-0.25
  0
LTYPE
  2
PHANTOM
  3
_____ _ _ _____ _ _ _____ _ _ _____ _ _ ____
 70
    64
 72
    65
 73
     6
 40
2.5
 49
1.25
 49
-0.25
 49
0.25
 49
-0.25
 49
0.25
 49
-0.25
  0
ENDTAB
  0
TABLE
  2
LAYER
 70
     1
  0
LAYER
  2
0
 70
    64
 62
     7
  6
CONTINUOUS
  0
ENDTAB
  0
TABLE
  2
STYLE
 70
     1
  0
STYLE
  2
STANDARD
 70
     0
 40
0.000000
 41
1.000000
 50
0.000000
 71
     0
 42
3.000000
  3
txt
  4
BIGFONT
  0
ENDTAB
  0
ENDSEC
  0
SECTION
  2
BLOCKS
  0
ENDSEC
  0
SECTION
  2
ENTITIES
  0
LINE
  8
0
  6
CONTINUOUS
 10
382.989990
 20
293.184998
 11
324.489990
 21
293.184998
  0
LINE
  8
0
  6
CONTINUOUS
 10
382.989990
 20
293.184998
 11
382.989990
 21
291.684998
  0
LINE
  8
0
  6
CONTINUOUS
 10
336.989990
 20
293.184998
 11
336.989990
 21
291.684998
  0
LINE
  8
0
  6
CONTINUOUS
 10
384.489990
 20
342.184998
 11
384.489990
 21
295.184998
  0
LINE
  8
0
  6
CONTINUOUS
 10
322.489990
 20
342.185028
 11
322.489990
 21
295.184998
  0
LINE
  8
0
  6
CONTINUOUS
 10
322.489990
 20
295.184998
 11
324.489990
 21
293.184998
  0
LINE
  8
0
  6
CONTINUOUS
 10
384.489990
 20
295.184998
 11
382.489990
 21
293.184998
  0
LINE
  8
0
  6
CONTINUOUS
 10
384.489990
 20
295.184998
 11
322.489990
 21
295.184998
  0
LINE
  8
0
  6
CONTINUOUS
 10
384.489990
 20
305.185028
 11
322.489990
 21
305.185028
  0
LINE
  8
0
  6
CENTER
 10
353.489990
 20
346.613983
 11
353.489990
 21
288.591003
  0
LINE
  8
0
  6
CONTINUOUS
 10
384.489990
 20
306.185028
 11
322.489990
 21
306.185028
  0
LINE
  8
0
  6
CONTINUOUS
 10
383.489990
 20
343.184998
 11
323.489990
 21
343.185028
  0
LINE
  8
0
  6
CONTINUOUS
 10
323.489990
 20
343.185028
 11
322.489990
 21
342.185028
  0
LINE
  8
0
  6
CONTINUOUS
 10
384.489990
 20
342.184998
 11
383.489990
 21
343.184998
  0
LINE
  8
0
  6
CONTINUOUS
 10
384.489990
 20
342.184998
 11
322.489990
 21
342.185028
  0
LINE
  8
0
  6
CENTER
 10
387.114990
 20
326.185028
 11
381.364990
 21
326.185028
  0
LINE
  8
0
  6
CONTINUOUS
 10
385.614990
 20
336.685028
 11
382.489990
 21
336.685028
  0
LINE
  8
0
  6
CONTINUOUS
 10
385.614990
 20
315.685028
 11
382.489990
 21
315.685028
  0
LINE
  8
0
  6
CONTINUOUS
 10
80.489998
 20
342.185028
 11
80.489998
 21
309.843903
  0
LINE
  8
0
  6
CONTINUOUS
 10
18.490000
 20
342.185028
 11
18.490000
 21
309.843781
  0
LINE
  8
0
  6
CONTINUOUS
 10
19.490000
 20
343.185028
 11
79.489998
 21
343.185028
  0
LINE
  8
0
  6
CONTINUOUS
 10
79.489998
 20
343.185028
 11
80.489998
 21
342.185028
  0
LINE
  8
0
  6
CONTINUOUS
 10
19.490000
 20
343.185028
 11
18.490000
 21
342.185028
  0
LINE
  8
0
  6
CONTINUOUS
 10
18.490000
 20
342.185028
 11
80.489998
 21
342.185028
  0
LINE
  8
0
  6
CENTER
 10
49.490002
 20
189.479263
 11
49.490002
 21
349.500000
  0
LINE
  8
0
  6
CENTER
 10
-3.635000
 20
246.684998
 11
103.739998
 21
246.684998
  0
LINE
  8
0
  6
CONTINUOUS
 10
107.489998
 20
204.384995
 11
107.489998
 21
197.384995
  0
LINE
  8
0
  6
CONTINUOUS
 10
-8.510000
 20
204.384995
 11
-8.510000
 21
197.384995
  0
LINE
  8
0
  6
CONTINUOUS
 10
-8.510000
 20
197.384995
 11
107.489998
 21
197.384995
  0
LINE
  8
0
  6
CONTINUOUS
 10
89.489998
 20
206.384995
 11
105.489998
 21
206.384995
  0
LINE
  8
0
  6
CONTINUOUS
 10
12.490000
 20
209.384995
 11
12.490000
 21
307.773621
  0
LINE
  8
0
  6
CONTINUOUS
 10
86.489983
 20
209.384995
 11
86.489998
 21
307.773773
  0
LINE
  8
0
  6
CONTINUOUS
 10
91.489998
 20
249.884995
 11
91.489998
 21
294.885010
  0
LINE
  8
0
  6
CONTINUOUS
 10
90.489998
 20
295.885010
 11
88.490021
 21
295.885010
  0
LINE
  8
0
  6
CONTINUOUS
 10
90.489998
 20
248.884995
 11
88.490021
 21
248.884995
  0
LINE
  8
0
  6
CONTINUOUS
 10
49.490002
 20
310.385010
 11
84.524902
 21
309.773468
  0
LINE
  8
0
  6
CONTINUOUS
 10
14.455090
 20
309.773315
 11
49.490002
 21
310.385010
  0
ARC
  8
0
  6
CONTINUOUS
 10
88.489998
 20
297.885010
 40
2.000000
 50
180.000000
 51
270.000000
  0
ARC
  8
0
  6
CONTINUOUS
 10
84.490021
 20
307.773773
 40
2.000000
 50
0.000000
 51
89.000137
  0
ARC
  8
0
  6
CONTINUOUS
 10
14.490010
 20
307.773651
 40
2.000000
 50
91.000641
 51
180.000000
  0
ARC
  8
0
  6
CONTINUOUS
 10
88.490021
 20
246.885010
 40
2.000000
 50
90.000000
 51
180.000000
  0
ARC
  8
0
  6
CONTINUOUS
 10
90.489998
 20
294.884979
 40
1.000000
 50
0.000000
 51
90.000000
  0
ARC
  8
0
  6
CONTINUOUS
 10
90.489998
 20
249.884995
 40
1.000000
 50
-90.000000
 51
0.000000
  0
LINE
  8
0
  6
CONTINUOUS
 10
14.510570
 20
286.885010
 11
84.647552
 21
286.885010
  0
ARC
  8
0
  6
CONTINUOUS
 10
105.489998
 20
204.384995
 40
2.000000
 50
0.000000
 51
90.000000
  0
ARC
  8
0
  6
CONTINUOUS
 10
-6.509989
 20
204.385010
 40
2.000000
 50
90.000000
 51
180.000000
  0
LINE
  8
0
  6
CENTER
 10
97.489998
 20
210.341248
 11
97.489998
 21
193.091248
  0
LINE
  8
0
  6
CENTER
 10
1.490000
 20
210.341248
 11
1.490000
 21
192.341248
  0
LINE
  8
0
  6
DASHED
 10
5.740000
 20
206.384995
 11
5.740000
 21
197.384995
  0
LINE
  8
0
  6
DASHED
 10
-2.760000
 20
206.384995
 11
-2.760000
 21
197.384995
  0
LINE
  8
0
  6
DASHED
 10
101.739998
 20
206.384995
 11
101.739998
 21
197.384995
  0
LINE
  8
0
  6
DASHED
 10
93.239998
 20
206.384995
 11
93.239998
 21
197.384995
  0
ARC
  8
0
  6
CONTINUOUS
 10
49.490002
 20
246.684998
 40
45.000000
 50
158.960602
 51
214.692093
  0
ARC
  8
0
  6
CONTINUOUS
 10
49.490002
 20
246.684998
 40
45.000000
 50
-34.692108
 51
20.437799
  0
LINE
  8
0
  6
CONTINUOUS
 10
7.490000
 20
249.884995
 11
7.490000
 21
294.885010
  0
LINE
  8
0
  6
CONTINUOUS
 10
8.490000
 20
295.885010
 11
10.489989
 21
295.885010
  0
LINE
  8
0
  6
CONTINUOUS
 10
8.490000
 20
248.884995
 11
10.489989
 21
248.884995
  0
ARC
  8
0
  6
CONTINUOUS
 10
10.490000
 20
297.885010
 40
2.000000
 50
-90.000000
 51
0.000000
  0
ARC
  8
0
  6
CONTINUOUS
 10
10.489989
 20
246.885010
 40
2.000000
 50
0.000000
 51
90.000000
  0
ARC
  8
0
  6
CONTINUOUS
 10
8.490000
 20
294.884979
 40
1.000000
 50
90.000000
 51
180.000000
  0
ARC
  8
0
  6
CONTINUOUS
 10
8.490000
 20
249.884995
 40
1.000000
 50
180.000000
 51
270.000000
  0
LINE
  8
0
  6
CENTER
 10
-3.635000
 20
272.385010
 11
135.240005
 21
272.385010
  0
LINE
  8
0
  6
CONTINUOUS
 10
9.490000
 20
206.385010
 11
-6.510000
 21
206.384995
  0
ARC
  8
0
  6
CONTINUOUS
 10
9.490000
 20
209.384995
 40
3.000000
 50
-90.000000
 51
0.000000
  0
ARC
  8
0
  6
CONTINUOUS
 10
89.489998
 20
209.384995
 40
3.000000
 50
180.000000
 51
270.000000
  0
LINE
  8
0
  6
CONTINUOUS
 10
96.489998
 20
220.584473
 11
96.489998
 21
263.385010
  0
LINE
  8
0
  6
CONTINUOUS
 10
2.490000
 20
272.785522
 11
2.490000
 21
220.584488
  0
LINE
  8
0
  6
CONTINUOUS
 10
94.439758
 20
215.634750
 11
86.820740
 21
208.015671
  0
LINE
  8
0
  6
CONTINUOUS
 10
4.540251
 20
215.634750
 11
12.159281
 21
208.015717
  0
LINE
  8
0
  6
CONTINUOUS
 10
4.540251
 20
277.735260
 11
7.490000
 21
280.684998
  0
ARC
  8
0
  6
CONTINUOUS
 10
89.489998
 20
220.584473
 40
7.000000
 50
-44.999630
 51
0.000000
  0
ARC
  8
0
  6
CONTINUOUS
 10
9.489981
 20
220.584549
 40
7.000000
 50
180.000000
 51
225.000397
  0
ARC
  8
0
  6
CONTINUOUS
 10
9.490019
 20
272.785553
 40
7.000000
 50
135.000305
 51
180.000000
  0
LINE
  8
0
  6
CONTINUOUS
 10
123.489998
 20
263.385010
 11
123.489998
 21
281.385010
  0
LINE
  8
0
  6
CONTINUOUS
 10
93.489998
 20
281.385010
 11
123.489998
 21
281.385010
  0
LINE
  8
0
  6
CONTINUOUS
 10
93.489998
 20
263.385010
 11
123.489998
 21
263.385010
  0
LINE
  8
0
  6
CONTINUOUS
 10
93.489998
 20
282.385010
 11
93.489998
 21
262.385010
  0
LINE
  8
0
  6
CONTINUOUS
 10
91.489998
 20
282.385010
 11
93.489998
 21
282.385010
  0
LINE
  8
0
  6
CONTINUOUS
 10
91.489998
 20
262.385010
 11
93.489998
 21
262.385010
  0
ARC
  8
0
  6
CONTINUOUS
 10
99.489998
 20
272.385010
 40
3.000000
 50
90.000000
 51
270.000000
  0
LINE
  8
0
  6
CONTINUOUS
 10
99.489998
 20
275.385010
 11
123.489998
 21
275.385010
  0
LINE
  8
0
  6
CONTINUOUS
 10
99.490021
 20
269.385010
 11
123.489998
 21
269.385010
  0
LINE
  8
0
  6
CONTINUOUS
 10
375.489990
 20
201.684998
 11
375.489990
 21
291.684998
  0
LINE
  8
0
  6
CENTER
 10
445.879364
 20
246.684998
 11
281.271240
 21
246.684998
  0
LINE
  8
0
  6
CONTINUOUS
 10
201.990005
 20
204.384995
 11
201.990005
 21
197.384995
  0
LINE
  8
0
  6
CONTINUOUS
 10
302.989990
 20
204.384995
 11
302.989990
 21
197.384995
  0
LINE
  8
0
  6
CONTINUOUS
 10
375.489990
 20
201.684998
 11
302.989990
 21
201.684998
  0
LINE
  8
0
  6
CONTINUOUS
 10
375.489990
 20
291.684998
 11
296.147400
 21
291.684998
  0
LINE
  8
0
  6
CENTER
 10
252.490005
 20
320.372498
 11
252.490005
 21
189.479248
  0
LINE
  8
0
  6
CENTER
 10
287.777496
 20
272.385010
 11
211.062500
 21
272.385010
  0
LINE
  8
0
  6
CONTINUOUS
 10
302.989990
 20
197.384995
 11
201.990005
 21
197.384995
  0
LINE
  8
0
  6
CONTINUOUS
 10
267.911102
 20
310.385010
 11
237.068893
 21
310.385010
  0
LINE
  8
0
  6
CONTINUOUS
 10
300.989990
 20
206.384995
 11
203.990005
 21
206.384995
  0
LINE
  8
0
  6
CENTER
 10
214.490005
 20
211.872498
 11
214.490005
 21
190.622498
  0
LINE
  8
0
  6
CENTER
 10
290.489990
 20
212.122498
 11
290.489990
 21
190.122498
  0
LINE
  8
0
  6
CONTINUOUS
 10
204.118607
 20
288.378174
 11
234.197495
 21
309.478302
  0
LINE
  8
0
  6
CONTINUOUS
 10
300.861389
 20
288.378174
 11
270.782501
 21
309.478271
  0
ARC
  8
0
  6
CONTINUOUS
 10
237.068802
 20
305.384979
 40
5.000000
 50
90.000000
 51
125.049103
  0
ARC
  8
0
  6
CONTINUOUS
 10
267.911102
 20
305.385010
 40
5.000000
 50
54.950329
 51
90.000000
  0
ARC
  8
0
  6
CONTINUOUS
 10
297.989990
 20
284.284943
 40
5.000000
 50
0.000000
 51
54.950199
  0
ARC
  8
0
  6
CONTINUOUS
 10
206.990005
 20
284.284882
 40
5.000000
 50
125.049103
 51
180.000000
  0
LINE
  8
0
  6
CONTINUOUS
 10
201.990005
 20
204.384995
 11
201.990005
 21
284.284912
  0
ARC
  8
0
  6
CONTINUOUS
 10
203.990005
 20
204.384995
 40
2.000000
 50
90.000000
 51
180.000000
  0
LINE
  8
0
  6
CONTINUOUS
 10
302.989990
 20
204.384995
 11
302.989990
 21
284.284912
  0
ARC
  8
0
  6
CONTINUOUS
 10
300.989990
 20
204.384995
 40
2.000000
 50
0.000000
 51
90.000000
  0
LINE
  8
0
  6
DASHED
 10
210.240005
 20
206.384995
 11
210.240005
 21
197.384995
  0
LINE
  8
0
  6
DASHED
 10
218.740005
 20
206.384995
 11
218.740005
 21
197.384995
  0
LINE
  8
0
  6
DASHED
 10
286.239990
 20
206.384995
 11
286.239990
 21
197.384995
  0
LINE
  8
0
  6
DASHED
 10
294.739990
 20
206.384995
 11
294.739990
 21
197.384995
  0
CIRCLE
  8
0
  6
CONTINUOUS
 10
252.490005
 20
272.385010
 40
23.500000
  0
CIRCLE
  8
0
  6
CONTINUOUS
 10
252.490005
 20
272.385010
 40
23.500000
  0
LINE
  8
0
  6
CONTINUOUS
 10
246.115997
 20
234.939102
 11
246.115997
 21
229.384995
  0
LINE
  8
0
  6
CONTINUOUS
 10
249.304001
 20
236.956497
 11
249.304001
 21
238.949005
  0
LINE
  8
0
  6
CONTINUOUS
 10
255.679993
 20
236.956497
 11
255.679993
 21
238.949005
  0
LINE
  8
0
  6
CONTINUOUS
 10
251.869293
 20
237.778412
 11
251.869293
 21
230.431061
  0
LINE
  8
0
  6
CONTINUOUS
 10
253.064804
 20
237.778412
 11
253.064804
 21
230.431061
  0
LINE
  8
0
  6
CONTINUOUS
 10
259.341187
 20
237.778412
 11
259.341187
 21
230.381256
  0
LINE
  8
0
  6
CONTINUOUS
 10
260.437103
 20
233.855667
 11
260.437103
 21
230.381256
  0
LINE
  8
0
  6
CONTINUOUS
 10
244.603302
 20
237.678787
 11
241.530807
 21
237.678787
  0
LINE
  8
0
  6
CONTINUOUS
 10
241.530807
 20
237.678787
 11
240.811005
 21
236.786148
  0
LINE
  8
0
  6
CONTINUOUS
 10
240.897507
 20
238.949005
 11
239.740005
 21
237.466782
  0
LINE
  8
0
  6
CONTINUOUS
 10
240.811005
 20
231.276215
 11
241.542404
 21
230.505783
  0
LINE
  8
0
  6
CONTINUOUS
 10
239.740005
 20
230.626038
 11
240.970001
 21
229.384995
  0
LINE
  8
0
  6
CONTINUOUS
 10
239.740005
 20
237.466782
 11
239.740005
 21
230.626038
  0
LINE
  8
0
  6
CONTINUOUS
 10
240.811005
 20
236.786148
 11
240.811005
 21
231.276215
  0
LINE
  8
0
  6
CONTINUOUS
 10
245.194504
 20
237.107254
 11
244.591202
 21
237.678787
  0
LINE
  8
0
  6
CONTINUOUS
 10
245.184906
 20
238.949005
 11
246.115997
 21
237.915695
  0
LINE
  8
0
  6
CONTINUOUS
 10
245.194504
 20
236.956497
 11
246.115997
 21
236.956497
  0
LINE
  8
0
  6
CONTINUOUS
 10
240.897507
 20
238.949005
 11
245.184906
 21
238.949005
  0
LINE
  8
0
  6
CONTINUOUS
 10
245.194504
 20
233.893036
 11
243.525803
 21
233.893036
  0
LINE
  8
0
  6
CONTINUOUS
 10
245.194504
 20
232.896790
 11
245.194504
 21
233.693787
  0
LINE
  8
0
  6
CONTINUOUS
 10
243.201996
 20
230.505783
 11
241.542404
 21
230.505783
  0
ARC
  8
0
  6
CONTINUOUS
 10
243.201996
 20
232.498276
 40
1.992500
 50
-89.999786
 51
0.000109
  0
LINE
  8
0
  6
CONTINUOUS
 10
245.194504
 20
230.147385
 11
245.194504
 21
229.384995
  0
LINE
  8
0
  6
CONTINUOUS
 10
246.115997
 20
237.915695
 11
246.115997
 21
236.956497
  0
LINE
  8
0
  6
CONTINUOUS
 10
245.194504
 20
233.893036
 11
245.194504
 21
232.498276
  0
LINE
  8
0
  6
CONTINUOUS
 10
243.525803
 20
234.939102
 11
243.525803
 21
233.893036
  0
LINE
  8
0
  6
CONTINUOUS
 10
245.194504
 20
229.384995
 11
246.115997
 21
229.384995
  0
LINE
  8
0
  6
CONTINUOUS
 10
245.194504
 20
230.147385
 11
244.285797
 21
229.384995
  0
LINE
  8
0
  6
CONTINUOUS
 10
253.064804
 20
230.431061
 11
253.463303
 21
230.431061
  0
LINE
  8
0
  6
CONTINUOUS
 10
251.396103
 20
230.431061
 11
251.396103
 21
229.384995
  0
LINE
  8
0
  6
CONTINUOUS
 10
253.463303
 20
230.431061
 11
253.463303
 21
229.384995
  0
LINE
  8
0
  6
CONTINUOUS
 10
255.014893
 20
236.956497
 11
255.679993
 21
236.956497
  0
LINE
  8
0
  6
CONTINUOUS
 10
249.304001
 20
236.956497
 11
250.011703
 21
236.956497
  0
LINE
  8
0
  6
CONTINUOUS
 10
249.304001
 20
238.949005
 11
255.679993
 21
238.949005
  0
LINE
  8
0
  6
CONTINUOUS
 10
251.396103
 20
229.384995
 11
253.463303
 21
229.384995
  0
LINE
  8
0
  6
CONTINUOUS
 10
251.396103
 20
230.431061
 11
251.869293
 21
230.431061
  0
ARC
  8
0
  6
CONTINUOUS
 10
262.691101
 20
236.396103
 40
2.552891
 50
-73.981873
 51
90.003510
  0
ARC
  8
0
  6
CONTINUOUS
 10
262.691101
 20
236.396103
 40
1.557438
 50
-82.585274
 51
62.411850
  0
LINE
  8
0
  6
CONTINUOUS
 10
258.868011
 20
238.949005
 11
262.691101
 21
238.949005
  0
LINE
  8
0
  6
CONTINUOUS
 10
258.868011
 20
238.949005
 11
258.868011
 21
237.778412
  0
LINE
  8
0
  6
CONTINUOUS
 10
260.437103
 20
237.778412
 11
260.437103
 21
234.851685
  0
LINE
  8
0
  6
CONTINUOUS
 10
263.395599
 20
233.942337
 11
264.975586
 21
230.381256
  0
LINE
  8
0
  6
CONTINUOUS
 10
262.477814
 20
233.855667
 11
263.973206
 21
230.381256
  0
LINE
  8
0
  6
CONTINUOUS
 10
258.868011
 20
230.381256
 11
259.341187
 21
230.381256
  0
LINE
  8
0
  6
CONTINUOUS
 10
260.437103
 20
230.381256
 11
260.872894
 21
230.381256
  0
LINE
  8
0
  6
CONTINUOUS
 10
260.872894
 20
229.384995
 11
258.868011
 21
229.384995
  0
LINE
  8
0
  6
CONTINUOUS
 10
263.774506
 20
230.381256
 11
263.973206
 21
230.381256
  0
LINE
  8
0
  6
CONTINUOUS
 10
264.975586
 20
230.381256
 11
265.243988
 21
230.381256
  0
LINE
  8
0
  6
CONTINUOUS
 10
263.774506
 20
229.384995
 11
265.243988
 21
229.384995
  0
LINE
  8
0
  6
CONTINUOUS
 10
265.243988
 20
230.381256
 11
265.243988
 21
229.384995
  0
LINE
  8
0
  6
CONTINUOUS
 10
263.774506
 20
230.381256
 11
263.774506
 21
229.384995
  0
LINE
  8
0
  6
CONTINUOUS
 10
260.872894
 20
230.381256
 11
260.872894
 21
229.384995
  0
LINE
  8
0
  6
CONTINUOUS
 10
258.868011
 20
230.381256
 11
258.868011
 21
229.384995
  0
LINE
  8
0
  6
CONTINUOUS
 10
250.354202
 20
237.778412
 11
250.011703
 21
236.956497
  0
LINE
  8
0
  6
CONTINUOUS
 10
254.726105
 20
237.778412
 11
255.014893
 21
236.956497
  0
LINE
  8
0
  6
CONTINUOUS
 10
253.064804
 20
237.778412
 11
254.726105
 21
237.778412
  0
LINE
  8
0
  6
CONTINUOUS
 10
251.869293
 20
237.778412
 11
250.354202
 21
237.778412
  0
LINE
  8
0
  6
CONTINUOUS
 10
258.868011
 20
237.778412
 11
259.341187
 21
237.778412
  0
LINE
  8
0
  6
CONTINUOUS
 10
260.437103
 20
237.778412
 11
263.412415
 21
237.776474
  0
LINE
  8
0
  6
CONTINUOUS
 10
245.194504
 20
237.107254
 11
245.194504
 21
236.956497
  0
LINE
  8
0
  6
CONTINUOUS
 10
240.970001
 20
229.384995
 11
244.285797
 21
229.384995
  0
LINE
  8
0
  6
CONTINUOUS
 10
260.437103
 20
234.851685
 11
262.892090
 21
234.851685
  0
LINE
  8
0
  6
CONTINUOUS
 10
260.437103
 20
233.855667
 11
262.477814
 21
233.855667
  0
LINE
  8
0
  6
CONTINUOUS
 10
243.525803
 20
234.939102
 11
246.115997
 21
234.939102
  0
LINE
  8
0
  6
CONTINUOUS
 10
304.907898
 20
281.094299
 11
375.489990
 21
281.094299
  0
LINE
  8
0
  6
CONTINUOUS
 10
304.907898
 20
212.275696
 11
375.489990
 21
212.275696
  0
LINE
  8
0
  6
CONTINUOUS
 10
384.989990
 20
291.684998
 11
375.489990
 21
291.684998
  0
LINE
  8
0
  6
CONTINUOUS
 10
375.489990
 20
281.094299
 11
384.989990
 21
281.094299
  0
LINE
  8
0
  6
CONTINUOUS
 10
384.989990
 20
201.684998
 11
375.489990
 21
201.684998
  0
LINE
  8
0
  6
CONTINUOUS
 10
375.489990
 20
212.275696
 11
384.989990
 21
212.275696
  0
LINE
  8
0
  6
CONTINUOUS
 10
384.989990
 20
293.684998
 11
384.989990
 21
199.684998
  0
LINE
  8
0
  6
CONTINUOUS
 10
384.989990
 20
275.684998
 11
428.964996
 21
275.684998
  0
LINE
  8
0
  6
CONTINUOUS
 10
384.989990
 20
217.684998
 11
428.964996
 21
217.684998
  0
LINE
  8
0
  6
CONTINUOUS
 10
427.489990
 20
293.684998
 11
384.989990
 21
293.684998
  0
LINE
  8
0
  6
CONTINUOUS
 10
427.489990
 20
199.684998
 11
384.989990
 21
199.684998
  0
ARC
  8
0
  6
CONTINUOUS
 10
427.489990
 20
288.685028
 40
5.000000
 50
0.000000
 51
90.000000
  0
ARC
  8
0
  6
CONTINUOUS
 10
427.489990
 20
204.684998
 40
5.000000
 50
-90.000000
 51
0.000000
  0
LINE
  8
0
  6
CONTINUOUS
 10
432.489990
 20
288.684998
 11
432.489990
 21
204.684998
  0
LINE
  8
0
  6
CONTINUOUS
 10
246.990005
 20
275.385010
 11
246.990005
 21
269.385010
  0
LINE
  8
0
  6
CONTINUOUS
 10
240.990005
 20
275.385010
 11
240.990005
 21
269.385010
  0
LINE
  8
0
  6
CONTINUOUS
 10
240.990005
 20
275.385010
 11
246.990005
 21
275.385010
  0
LINE
  8
0
  6
CONTINUOUS
 10
240.990005
 20
269.385010
 11
246.990005
 21
269.385010
  0
ARC
  8
0
  6
CONTINUOUS
 10
252.490005
 20
272.385010
 40
9.000000
 50
-160.528793
 51
160.528793
  0
LINE
  8
0
  6
CENTER
 10
252.490005
 20
393.276886
 11
252.490005
 21
541.131226
  0
LINE
  8
0
  6
CENTER
 10
214.490005
 20
414.928741
 11
214.490005
 21
436.258759
  0
LINE
  8
0
  6
CENTER
 10
444.476257
 20
474.154388
 11
188.348755
 21
474.154388
  0
LINE
  8
0
  6
CONTINUOUS
 10
202.830887
 20
425.979858
 11
201.990005
 21
474.154388
  0
LINE
  8
0
  6
CONTINUOUS
 10
212.829361
 20
416.154388
 11
240.990005
 21
416.154388
  0
LINE
  8
0
  6
CONTINUOUS
 10
300.989990
 20
437.154388
 11
204.601227
 21
437.154388
  0
ARC
  8
0
  6
CONTINUOUS
 10
212.829361
 20
426.154388
 40
10.000000
 50
-179.000000
 51
-90.000000
  0
ARC
  8
0
  6
CONTINUOUS
 10
204.601227
 20
439.154388
 40
2.000000
 50
-179.000000
 51
-90.000000
  0
LINE
  8
0
  6
CENTER
 10
225.982193
 20
426.154388
 11
204.849686
 21
426.154388
  0
CIRCLE
  8
0
  6
CONTINUOUS
 10
214.490005
 20
426.154388
 40
4.250000
  0
LINE
  8
0
  6
CENTER
 10
290.489990
 20
414.731262
 11
290.489990
 21
436.061249
  0
LINE
  8
0
  6
CONTINUOUS
 10
302.149109
 20
425.979858
 11
302.335083
 21
436.634491
  0
ARC
  8
0
  6
CONTINUOUS
 10
292.150635
 20
426.154388
 40
10.000000
 50
-90.000000
 51
-1.000000
  0
ARC
  8
0
  6
CONTINUOUS
 10
300.378754
 20
439.154388
 40
2.000000
 50
-90.000000
 51
-1.000000
  0
LINE
  8
0
  6
CENTER
 10
279.800934
 20
426.154388
 11
300.439697
 21
426.154388
  0
CIRCLE
  8
0
  6
CONTINUOUS
 10
290.489990
 20
426.154388
 40
4.250000
  0
LINE
  8
0
  6
CONTINUOUS
 10
302.989990
 20
435.154388
 11
302.989990
 21
431.154388
  0
LINE
  8
0
  6
CONTINUOUS
 10
304.989990
 20
429.154388
 11
375.489990
 21
429.154388
  0
ARC
  8
0
  6
CONTINUOUS
 10
304.989990
 20
431.154388
 40
2.000000
 50
-180.000000
 51
-90.000000
  0
ARC
  8
0
  6
CONTINUOUS
 10
300.989990
 20
435.154388
 40
2.000000
 50
0.000000
 51
90.000000
  0
LINE
  8
0
  6
CONTINUOUS
 10
302.378448
 20
439.119476
 11
302.483795
 21
445.154388
  0
LINE
  8
0
  6
CONTINUOUS
 10
322.489990
 20
445.154388
 11
296.147461
 21
445.154388
  0
LINE
  8
0
  6
CONTINUOUS
 10
322.489990
 20
503.154388
 11
296.147461
 21
503.154388
  0
LINE
  8
0
  6
CONTINUOUS
 10
304.989990
 20
519.154358
 11
375.489990
 21
519.154358
  0
ARC
  8
0
  6
CONTINUOUS
 10
304.989990
 20
517.154358
 40
2.000000
 50
-270.000000
 51
-180.000000
  0
LINE
  8
0
  6
CENTER
 10
214.490005
 20
535.996277
 11
214.490005
 21
511.901245
  0
LINE
  8
0
  6
CONTINUOUS
 10
202.830887
 20
522.328918
 11
201.990005
 21
474.154388
  0
LINE
  8
0
  6
CONTINUOUS
 10
212.829361
 20
532.154358
 11
252.490005
 21
532.154358
  0
LINE
  8
0
  6
CONTINUOUS
 10
300.989990
 20
511.154388
 11
204.601227
 21
511.154388
  0
ARC
  8
0
  6
CONTINUOUS
 10
212.829361
 20
522.154358
 40
10.000000
 50
-270.000000
 51
-181.000000
  0
ARC
  8
0
  6
CONTINUOUS
 10
204.601227
 20
509.154388
 40
2.000000
 50
-270.000000
 51
-181.000000
  0
LINE
  8
0
  6
CENTER
 10
224.994690
 20
522.154358
 11
204.454681
 21
522.154358
  0
CIRCLE
  8
0
  6
CONTINUOUS
 10
214.490005
 20
522.154358
 40
4.250000
  0
LINE
  8
0
  6
CENTER
 10
290.489990
 20
536.391235
 11
290.489990
 21
511.703735
  0
LINE
  8
0
  6
CONTINUOUS
 10
302.149109
 20
522.328918
 11
302.335083
 21
511.674255
  0
ARC
  8
0
  6
CONTINUOUS
 10
292.150635
 20
522.154358
 40
10.000000
 50
-359.000000
 51
-270.000000
  0
ARC
  8
0
  6
CONTINUOUS
 10
300.378754
 20
509.154388
 40
2.000000
 50
-359.000000
 51
-270.000000
  0
LINE
  8
0
  6
CENTER
 10
281.084686
 20
522.154358
 11
300.637177
 21
522.154358
  0
CIRCLE
  8
0
  6
CONTINUOUS
 10
290.489990
 20
522.154358
 40
4.250000
  0
LINE
  8
0
  6
CONTINUOUS
 10
302.989990
 20
513.154358
 11
302.989990
 21
517.154358
  0
ARC
  8
0
  6
CONTINUOUS
 10
300.989990
 20
513.154358
 40
2.000000
 50
-90.000000
 51
0.000000
  0
LINE
  8
0
  6
CONTINUOUS
 10
302.378448
 20
509.189270
 11
302.483795
 21
503.154388
  0
LINE
  8
0
  6
CONTINUOUS
 10
269.489990
 20
442.154388
 11
269.489990
 21
506.154388
  0
LINE
  8
0
  6
CONTINUOUS
 10
235.490005
 20
442.154388
 11
235.490005
 21
506.154388
  0
LINE
  8
0
  6
CONTINUOUS
 10
296.147461
 20
447.154388
 11
296.147461
 21
501.154388
  0
LINE
  8
0
  6
CONTINUOUS
 10
229.989990
 20
432.154388
 11
274.989990
 21
432.154388
  0
LINE
  8
0
  6
CONTINUOUS
 10
275.989990
 20
433.154388
 11
275.989990
 21
435.154388
  0
LINE
  8
0
  6
CONTINUOUS
 10
228.989990
 20
433.154388
 11
228.989990
 21
435.154388
  0
ARC
  8
0
  6
CONTINUOUS
 10
277.989990
 20
435.154388
 40
2.000000
 50
-270.000000
 51
-180.000000
  0
ARC
  8
0
  6
CONTINUOUS
 10
226.990005
 20
435.154388
 40
2.000000
 50
0.000000
 51
90.000000
  0
ARC
  8
0
  6
CONTINUOUS
 10
274.989990
 20
433.154388
 40
1.000000
 50
-90.000000
 51
0.000000
  0
ARC
  8
0
  6
CONTINUOUS
 10
229.989990
 20
433.154388
 40
1.000000
 50
-180.000000
 51
-90.000000
  0
LINE
  8
0
  6
CONTINUOUS
 10
240.990005
 20
400.154388
 11
261.489990
 21
400.154388
  0
LINE
  8
0
  6
CONTINUOUS
 10
261.489990
 20
430.154388
 11
261.489990
 21
400.154388
  0
LINE
  8
0
  6
CONTINUOUS
 10
243.490005
 20
430.154388
 11
243.490005
 21
427.154388
  0
LINE
  8
0
  6
CONTINUOUS
 10
262.489990
 20
430.154388
 11
242.490005
 21
430.154388
  0
LINE
  8
0
  6
CONTINUOUS
 10
262.489990
 20
432.154388
 11
262.489990
 21
430.154388
  0
LINE
  8
0
  6
CONTINUOUS
 10
242.490005
 20
432.154388
 11
242.490005
 21
430.154388
  0
LINE
  8
0
  6
CONTINUOUS
 10
240.990005
 20
400.154388
 11
240.990005
 21
427.154388
  0
LINE
  8
0
  6
CONTINUOUS
 10
240.990005
 20
427.154388
 11
244.005005
 21
427.154388
  0
LINE
  8
0
  6
CONTINUOUS
 10
244.005005
 20
400.154388
 11
244.005005
 21
427.154388
  0
LINE
  8
0
  6
CONTINUOUS
 10
261.489990
 20
416.154388
 11
292.150635
 21
416.154388
  0
LINE
  8
0
  6
CONTINUOUS
 10
229.989990
 20
516.154358
 11
274.989990
 21
516.154358
  0
LINE
  8
0
  6
CONTINUOUS
 10
275.989990
 20
515.154358
 11
275.989990
 21
513.154358
  0
LINE
  8
0
  6
CONTINUOUS
 10
228.989990
 20
515.154358
 11
228.989990
 21
513.154358
  0
ARC
  8
0
  6
CONTINUOUS
 10
277.989990
 20
513.154358
 40
2.000000
 50
-180.000000
 51
-90.000000
  0
ARC
  8
0
  6
CONTINUOUS
 10
226.990005
 20
513.154358
 40
2.000000
 50
-90.000000
 51
0.000000
  0
ARC
  8
0
  6
CONTINUOUS
 10
274.989990
 20
515.154358
 40
1.000000
 50
0.000000
 51
90.000000
  0
ARC
  8
0
  6
CONTINUOUS
 10
229.989990
 20
515.154358
 40
1.000000
 50
-270.000000
 51
-180.000000
  0
LINE
  8
0
  6
CONTINUOUS
 10
252.490005
 20
532.154358
 11
292.150635
 21
532.154358
  0
LINE
  8
0
  6
CONTINUOUS
 10
384.989990
 20
429.154388
 11
375.489990
 21
429.154388
  0
LINE
  8
0
  6
CONTINUOUS
 10
384.489990
 20
445.154388
 11
384.989990
 21
445.154388
  0
LINE
  8
0
  6
CONTINUOUS
 10
384.989990
 20
519.154358
 11
375.489990
 21
519.154358
  0
LINE
  8
0
  6
CONTINUOUS
 10
375.489990
 20
519.154358
 11
375.489990
 21
505.154388
  0
LINE
  8
0
  6
CONTINUOUS
 10
375.489990
 20
443.154388
 11
375.489990
 21
429.154388
  0
LINE
  8
0
  6
CONTINUOUS
 10
384.989990
 20
427.154388
 11
384.989990
 21
521.154358
  0
LINE
  8
0
  6
CONTINUOUS
 10
384.989990
 20
445.154388
 11
428.965027
 21
445.154388
  0
LINE
  8
0
  6
CONTINUOUS
 10
384.489990
 20
503.154388
 11
428.965027
 21
503.154388
  0
LINE
  8
0
  6
CONTINUOUS
 10
427.490021
 20
427.154388
 11
384.989990
 21
427.154388
  0
LINE
  8
0
  6
CONTINUOUS
 10
427.490021
 20
521.154358
 11
384.989990
 21
521.154358
  0
ARC
  8
0
  6
CONTINUOUS
 10
427.489990
 20
432.154388
 40
5.000000
 50
-90.000000
 51
0.000000
  0
ARC
  8
0
  6
CONTINUOUS
 10
427.490021
 20
516.154358
 40
5.000000
 50
0.000000
 51
90.000000
  0
LINE
  8
0
  6
CONTINUOUS
 10
432.489990
 20
432.154388
 11
432.490021
 21
516.154358
  0
LINE
  8
0
  6
CONTINUOUS
 10
384.489990
 20
445.154388
 11
384.489990
 21
503.154388
  0
LINE
  8
0
  6
CONTINUOUS
 10
322.489990
 20
503.154388
 11
322.489990
 21
445.154388
  0
LINE
  8
0
  6
CENTER
 10
353.489990
 20
437.908112
 11
353.489990
 21
510.600952
  0
LINE
  8
0
  6
CONTINUOUS
 10
382.489990
 20
443.154388
 11
324.489990
 21
443.154388
  0
LINE
  8
0
  6
CONTINUOUS
 10
382.489990
 20
505.154388
 11
324.489990
 21
505.154388
  0
LINE
  8
0
  6
CONTINUOUS
 10
324.489990
 20
443.154388
 11
322.489990
 21
445.154388
  0
LINE
  8
0
  6
CONTINUOUS
 10
322.489990
 20
503.154388
 11
324.489990
 21
505.154388
  0
LINE
  8
0
  6
CONTINUOUS
 10
384.489990
 20
503.154388
 11
382.489990
 21
505.154388
  0
LINE
  8
0
  6
CONTINUOUS
 10
384.489990
 20
445.154388
 11
382.489990
 21
443.154388
  0
LINE
  8
0
  6
CONTINUOUS
 10
330.489990
 20
448.154388
 11
330.489990
 21
443.154388
  0
LINE
  8
0
  6
CONTINUOUS
 10
327.489990
 20
451.154388
 11
322.489990
 21
451.154388
  0
CIRCLE
  8
0
  6
CONTINUOUS
 10
326.489990
 20
447.154388
 40
2.250000
  0
ARC
  8
0
  6
CONTINUOUS
 10
327.489990
 20
448.154388
 40
3.000000
 50
0.000000
 51
90.000000
  0
LINE
  8
0
  6
CONTINUOUS
 10
323.489990
 20
452.154388
 11
323.489990
 21
496.154388
  0
LINE
  8
0
  6
CONTINUOUS
 10
327.489990
 20
452.154388
 11
323.489990
 21
452.154388
  0
ARC
  8
0
  6
CONTINUOUS
 10
327.489990
 20
448.154388
 40
4.000000
 50
0.000000
 51
90.000000
  0
LINE
  8
0
  6
CONTINUOUS
 10
331.489990
 20
444.154388
 11
331.489990
 21
448.154388
  0
LINE
  8
0
  6
CONTINUOUS
 10
323.489990
 20
452.154388
 11
322.489990
 21
451.154388
  0
LINE
  8
0
  6
CONTINUOUS
 10
375.489990
 20
444.154388
 11
331.489990
 21
444.154388
  0
LINE
  8
0
  6
CONTINUOUS
 10
331.489990
 20
444.154388
 11
330.489990
 21
443.154388
  0
LINE
  8
0
  6
CONTINUOUS
 10
379.489990
 20
451.154388
 11
384.489990
 21
451.154388
  0
LINE
  8
0
  6
CONTINUOUS
 10
376.489990
 20
448.154388
 11
376.489990
 21
443.154388
  0
CIRCLE
  8
0
  6
CONTINUOUS
 10
380.489990
 20
447.154388
 40
2.250000
  0
ARC
  8
0
  6
CONTINUOUS
 10
379.489990
 20
448.154388
 40
3.000000
 50
90.000000
 51
180.000000
  0
LINE
  8
0
  6
CONTINUOUS
 10
375.489990
 20
448.154388
 11
375.489990
 21
444.154388
  0
ARC
  8
0
  6
CONTINUOUS
 10
379.489990
 20
448.154388
 40
4.000000
 50
90.000000
 51
180.000000
  0
LINE
  8
0
  6
CONTINUOUS
 10
383.489990
 20
452.154388
 11
379.489990
 21
452.154388
  0
LINE
  8
0
  6
CONTINUOUS
 10
375.489990
 20
444.154388
 11
376.489990
 21
443.154388
  0
LINE
  8
0
  6
CONTINUOUS
 10
383.489990
 20
452.154388
 11
384.489990
 21
451.154388
  0
LINE
  8
0
  6
CONTINUOUS
 10
376.489990
 20
500.154388
 11
376.489990
 21
505.154388
  0
LINE
  8
0
  6
CONTINUOUS
 10
379.489990
 20
497.154388
 11
384.489990
 21
497.154388
  0
CIRCLE
  8
0
  6
CONTINUOUS
 10
380.489990
 20
501.154388
 40
2.250000
  0
ARC
  8
0
  6
CONTINUOUS
 10
379.489990
 20
500.154388
 40
3.000000
 50
180.000000
 51
270.000000
  0
LINE
  8
0
  6
CONTINUOUS
 10
379.489990
 20
496.154388
 11
383.489990
 21
496.154388
  0
ARC
  8
0
  6
CONTINUOUS
 10
379.489990
 20
500.154388
 40
4.000000
 50
180.000000
 51
270.000000
  0
LINE
  8
0
  6
CONTINUOUS
 10
375.489990
 20
504.154388
 11
375.489990
 21
500.154388
  0
LINE
  8
0
  6
CONTINUOUS
 10
383.489990
 20
496.154388
 11
384.489990
 21
497.154388
  0
LINE
  8
0
  6
CONTINUOUS
 10
375.489990
 20
504.154388
 11
376.489990
 21
505.154388
  0
LINE
  8
0
  6
CONTINUOUS
 10
327.489990
 20
497.154388
 11
322.489990
 21
497.154388
  0
LINE
  8
0
  6
CONTINUOUS
 10
330.489990
 20
500.154388
 11
330.489990
 21
505.154388
  0
CIRCLE
  8
0
  6
CONTINUOUS
 10
326.489990
 20
501.154388
 40
2.250000
  0
ARC
  8
0
  6
CONTINUOUS
 10
327.489990
 20
500.154388
 40
3.000000
 50
-90.000000
 51
0.000000
  0
LINE
  8
0
  6
CONTINUOUS
 10
331.489990
 20
500.154388
 11
331.489990
 21
504.154388
  0
ARC
  8
0
  6
CONTINUOUS
 10
327.489990
 20
500.154388
 40
4.000000
 50
-90.000000
 51
0.000000
  0
LINE
  8
0
  6
CONTINUOUS
 10
323.489990
 20
496.154388
 11
327.489990
 21
496.154388
  0
LINE
  8
0
  6
CONTINUOUS
 10
331.489990
 20
504.154388
 11
330.489990
 21
505.154388
  0
LINE
  8
0
  6
CONTINUOUS
 10
323.489990
 20
496.154388
 11
322.489990
 21
497.154388
  0
LINE
  8
0
  6
CONTINUOUS
 10
375.489990
 20
504.154388
 11
331.489990
 21
504.154388
  0
LINE
  8
0
  6
CONTINUOUS
 10
383.489990
 20
452.154388
 11
383.489990
 21
496.154388
  0
TEXT
  8
0
 10
-61.000000
 20
189.000000
 40
4.000000
 41
1.000000
  1
HLMN-18L-10~240-T90C
 50
0.000000
  0
ENDSEC
  0
EOF
