  0
SECTION
  2
HEADER
  9
$ACADVER
  1
AC1014
  9
$ACADMAINTVER
 70
     9
  9
$DWGCODEPAGE
  3
ANSI_932
  9
$INSBASE
 10
0.0
 20
0.0
 30
0.0
  9
$EXTMIN
 10
43.56413137149218
 20
43.50740673510933
 30
0.0
  9
$EXTMAX
 10
504.3345135973045
 20
407.2139519047529
 30
0.0
  9
$LIMMIN
 10
0.0
 20
0.0
  9
$LIMMAX
 10
297.0
 20
210.0
  9
$ORTHOMODE
 70
     1
  9
$REGENMODE
 70
     1
  9
$FILLMODE
 70
     1
  9
$QTEXTMODE
 70
     0
  9
$MIRRTEXT
 70
     0
  9
$DRAGMODE
 70
     2
  9
$LTSCALE
 40
2.0
  9
$OSMODE
 70
    37
  9
$ATTMODE
 70
     1
  9
$TEXTSIZE
 40
2.0
  9
$TRACEWID
 40
1.0
  9
$TEXTSTYLE
  7
STANDARD
  9
$CLAYER
  8
0
  9
$CELTYPE
  6
BYLAYER
  9
$CECOLOR
 62
   256
  9
$CELTSCALE
 40
1.0
  9
$DELOBJ
 70
     1
  9
$DISPSILH
 70
     0
  9
$DIMSCALE
 40
2.0
  9
$DIMASZ
 40
1.8
  9
$DIMEXO
 40
0.625
  9
$DIMDLI
 40
3.75
  9
$DIMRND
 40
0.0
  9
$DIMDLE
 40
0.0
  9
$DIMEXE
 40
0.8
  9
$DIMTP
 40
0.0
  9
$DIMTM
 40
0.0
  9
$DIMTXT
 40
1.8
  9
$DIMCEN
 40
2.5
  9
$DIMTSZ
 40
0.0
  9
$DIMTOL
 70
     0
  9
$DIMLIM
 70
     0
  9
$DIMTIH
 70
     0
  9
$DIMTOH
 70
     0
  9
$DIMSE1
 70
     0
  9
$DIMSE2
 70
     0
  9
$DIMTAD
 70
     1
  9
$DIMZIN
 70
     8
  9
$DIMBLK
  1

  9
$DIMASO
 70
     1
  9
$DIMSHO
 70
     1
  9
$DIMPOST
  1

  9
$DIMAPOST
  1

  9
$DIMALT
 70
     0
  9
$DIMALTD
 70
     4
  9
$DIMALTF
 40
0.0394
  9
$DIMLFAC
 40
1.0
  9
$DIMTOFL
 70
     1
  9
$DIMTVP
 40
0.0
  9
$DIMTIX
 70
     0
  9
$DIMSOXD
 70
     0
  9
$DIMSAH
 70
     0
  9
$DIMBLK1
  1

  9
$DIMBLK2
  1

  9
$DIMSTYLE
  2
STANDARD
  9
$DIMCLRD
 70
     0
  9
$DIMCLRE
 70
     0
  9
$DIMCLRT
 70
     0
  9
$DIMTFAC
 40
1.0
  9
$DIMGAP
 40
0.75
  9
$DIMJUST
 70
     0
  9
$DIMSD1
 70
     0
  9
$DIMSD2
 70
     0
  9
$DIMTOLJ
 70
     1
  9
$DIMTZIN
 70
     0
  9
$DIMALTZ
 70
     0
  9
$DIMALTTZ
 70
     0
  9
$DIMFIT
 70
     3
  9
$DIMUPT
 70
     0
  9
$DIMUNIT
 70
     8
  9
$DIMDEC
 70
     2
  9
$DIMTDEC
 70
     2
  9
$DIMALTU
 70
     8
  9
$DIMALTTD
 70
     4
  9
$DIMTXSTY
  7
STANDARD
  9
$DIMAUNIT
 70
     0
  9
$LUNITS
 70
     2
  9
$LUPREC
 70
     3
  9
$SKETCHINC
 40
1.0
  9
$FILLETRAD
 40
10.0
  9
$AUNITS
 70
     0
  9
$AUPREC
 70
     2
  9
$MENU
  1
.
  9
$ELEVATION
 40
0.0
  9
$PELEVATION
 40
0.0
  9
$THICKNESS
 40
0.0
  9
$LIMCHECK
 70
     0
  9
$BLIPMODE
 70
     0
  9
$CHAMFERA
 40
0.0
  9
$CHAMFERB
 40
0.0
  9
$CHAMFERC
 40
20.0
  9
$CHAMFERD
 40
0.0
  9
$SKPOLY
 70
     0
  9
$TDCREATE
 40
2453753.554580254
  9
$TDUPDATE
 40
2453832.471339514
  9
$TDINDWG
 40
0.4537185417
  9
$TDUSRTIMER
 40
0.4537183565
  9
$USRTIMER
 70
     1
  9
$ANGBASE
 50
0.0
  9
$ANGDIR
 70
     0
  9
$PDMODE
 70
     0
  9
$PDSIZE
 40
-10.0
  9
$PLINEWID
 40
0.0
  9
$COORDS
 70
     0
  9
$SPLFRAME
 70
     0
  9
$SPLINETYPE
 70
     6
  9
$SPLINESEGS
 70
     8
  9
$ATTDIA
 70
     0
  9
$ATTREQ
 70
     1
  9
$HANDLING
 70
-16383
  9
$HANDSEED
  5
1F3F
  9
$SURFTAB1
 70
     6
  9
$SURFTAB2
 70
     6
  9
$SURFTYPE
 70
     6
  9
$SURFU
 70
     6
  9
$SURFV
 70
     6
  9
$UCSNAME
  2

  9
$UCSORG
 10
0.0
 20
0.0
 30
0.0
  9
$UCSXDIR
 10
1.0
 20
0.0
 30
0.0
  9
$UCSYDIR
 10
0.0
 20
1.0
 30
0.0
  9
$PUCSNAME
  2

  9
$PUCSORG
 10
0.0
 20
0.0
 30
0.0
  9
$PUCSXDIR
 10
1.0
 20
0.0
 30
0.0
  9
$PUCSYDIR
 10
0.0
 20
1.0
 30
0.0
  9
$USERI1
 70
     0
  9
$USERI2
 70
     0
  9
$USERI3
 70
     0
  9
$USERI4
 70
     0
  9
$USERI5
 70
     0
  9
$USERR1
 40
0.0
  9
$USERR2
 40
0.0
  9
$USERR3
 40
0.0
  9
$USERR4
 40
0.0
  9
$USERR5
 40
0.0
  9
$WORLDVIEW
 70
     1
  9
$SHADEDGE
 70
     3
  9
$SHADEDIF
 70
    70
  9
$TILEMODE
 70
     1
  9
$MAXACTVP
 70
    48
  9
$PINSBASE
 10
0.0
 20
0.0
 30
0.0
  9
$PLIMCHECK
 70
     0
  9
$PEXTMIN
 10
0.0
 20
0.0
 30
0.0
  9
$PEXTMAX
 10
0.0
 20
0.0
 30
0.0
  9
$PLIMMIN
 10
0.0
 20
0.0
  9
$PLIMMAX
 10
12.0
 20
9.0
  9
$UNITMODE
 70
     0
  9
$VISRETAIN
 70
     1
  9
$PLINEGEN
 70
     0
  9
$PSLTSCALE
 70
     1
  9
$TREEDEPTH
 70
  3020
  9
$PICKSTYLE
 70
     1
  9
$CMLSTYLE
  2
STANDARD
  9
$CMLJUST
 70
     0
  9
$CMLSCALE
 40
1.0
  9
$PROXYGRAPHICS
 70
     1
  9
$MEASUREMENT
 70
     0
  0
ENDSEC
  0
SECTION
  2
CLASSES
  0
CLASS
  1
DICTIONARYVAR
  2
AcDbDictionaryVar
  3
AutoCAD 2000
 90
        0
280
     0
281
     0
  0
CLASS
  1
ACDBDICTIONARYWDFLT
  2
AcDbDictionaryWithDefault
  3
AutoCAD 2000
 90
        0
280
     0
281
     0
  0
CLASS
  1
ACDBPLACEHOLDER
  2
AcDbPlaceHolder
  3
AutoCAD 2000
 90
        0
280
     0
281
     0
  0
CLASS
  1
LAYOUT
  2
AcDbLayout
  3
AutoCAD 2000
 90
        0
280
     0
281
     0
  0
CLASS
  1
LONG_TRANSACTION
  2
AcDbLongTransaction
  3
AutoCAD 2000
 90
        0
280
     0
281
     0
  0
CLASS
  1
LWPOLYLINE
  2
AcDbPolyline
  3
AutoCAD 2000
 90
        0
280
     0
281
     1
  0
CLASS
  1
HATCH
  2
AcDbHatch
  3
AutoCAD 2000
 90
        0
280
     0
281
     1
  0
CLASS
  1
XRECORD
  2
AcDbXrecord
  3
AutoCAD 2000
 90
        0
280
     0
281
     0
  0
ENDSEC
  0
SECTION
  2
TABLES
  0
TABLE
  2
VPORT
  5
6E
330
0
100
AcDbSymbolTable
 70
     2
  0
VPORT
  5
1F19
330
6E
100
AcDbSymbolTableRecord
100
AcDbViewportTableRecord
  2
*ACTIVE
 70
     0
 10
0.0
 20
0.0
 11
1.0
 21
1.0
 12
265.815704355579
 22
213.6950513542399
 13
0.0
 23
0.0
 14
10.0
 24
10.0
 15
10.0
 25
10.0
 16
0.0
 26
0.0
 36
1.0
 17
0.0
 27
0.0
 37
0.0
 40
390.3506912112177
 41
1.566970091027308
 42
50.0
 43
0.0
 44
0.0
 50
0.0
 51
0.0
 71
     0
 72
   100
 73
     1
 74
     3
 75
     0
 76
     0
 77
     0
 78
     0
  0
ENDTAB
  0
TABLE
  2
LTYPE
  5
69
330
0
100
AcDbSymbolTable
 70
     4
  0
LTYPE
  5
6A
330
69
100
AcDbSymbolTableRecord
100
AcDbLinetypeTableRecord
  2
BYBLOCK
 70
     0
  3

 72
    65
 73
     0
 40
0.0
  0
LTYPE
  5
6B
330
69
100
AcDbSymbolTableRecord
100
AcDbLinetypeTableRecord
  2
BYLAYER
 70
     0
  3

 72
    65
 73
     0
 40
0.0
  0
LTYPE
  5
8
330
69
100
AcDbSymbolTableRecord
100
AcDbLinetypeTableRecord
  2
CONTINUOUS
 70
     0
  3
Solid line
 72
    65
 73
     0
 40
0.0
  0
LTYPE
  5
27C
330
69
100
AcDbSymbolTableRecord
100
AcDbLinetypeTableRecord
  2
SEKKEI_A2_
 70
     0
  3
center(A2)  ____ _ ____ _ ____ _ ____ _ ____ _ 
 72
    65
 73
     4
 40
14.28749999999999
 49
9.525
 74
     0
 49
-1.587499999999999
 74
     0
 49
1.587499999999999
 74
     0
 49
-1.587499999999999
 74
     0
  0
LTYPE
  5
2B4
330
69
100
AcDbSymbolTableRecord
100
AcDbLinetypeTableRecord
  2
HIDDEN2
 70
     0
  3
Hidden (.5x) _ _ _ _ _ _ _ _ _ _ _ _ _ _ _ _ _
 72
    65
 73
     2
 40
4.762499999999999
 49
3.174999999999999
 74
     0
 49
-1.587499999999999
 74
     0
  0
LTYPE
  5
48F
330
69
100
AcDbSymbolTableRecord
100
AcDbLinetypeTableRecord
  2
SEKKEI_H
 70
     0
  3
Hidden-S _ _ _ _ _ _ _ _ _ _ _ _ _ _ _ _ _
 72
    65
 73
     2
 40
2.381249999999999
 49
1.587499999999999
 74
     0
 49
-0.79375
 74
     0
  0
ENDTAB
  0
TABLE
  2
LAYER
  5
66
330
0
100
AcDbSymbolTable
 70
     9
  0
LAYER
  5
5E
330
66
100
AcDbSymbolTableRecord
100
AcDbLayerTableRecord
  2
0
 70
     0
 62
     7
  6
CONTINUOUS
  0
LAYER
  5
3E
330
66
100
AcDbSymbolTableRecord
100
AcDbLayerTableRecord
  2
CENTER
 70
     0
 62
     3
  6
SEKKEI_A2_
  0
LAYER
  5
2B5
330
66
100
AcDbSymbolTableRecord
100
AcDbLayerTableRecord
  2
HIDS
 70
     0
 62
     1
  6
HIDDEN2
  0
LAYER
  5
2BA
330
66
100
AcDbSymbolTableRecord
100
AcDbLayerTableRecord
  2
HOJO
 70
     0
 62
     4
  6
CONTINUOUS
  0
LAYER
  5
3FA
330
66
100
AcDbSymbolTableRecord
100
AcDbLayerTableRecord
  2
TITLE
 70
     0
 62
     4
  6
CONTINUOUS
  0
ENDTAB
  0
TABLE
  2
STYLE
  5
67
330
0
100
AcDbSymbolTable
 70
     1
  0
STYLE
  5
16
330
67
100
AcDbSymbolTableRecord
100
AcDbTextStyleTableRecord
  2
STANDARD
 70
     0
 40
0.0
 41
1.0
 50
0.0
 71
     0
 42
2.0
  3
simplex.shx
  4
extfont.shx
  0
ENDTAB
  0
TABLE
  2
VIEW
  5
6C
330
0
100
AcDbSymbolTable
 70
     0
  0
ENDTAB
  0
TABLE
  2
UCS
  5
6D
330
0
100
AcDbSymbolTable
 70
     0
  0
ENDTAB
  0
TABLE
  2
APPID
  5
70
330
0
100
AcDbSymbolTable
 70
     1
  0
APPID
  5
71
330
70
100
AcDbSymbolTableRecord
100
AcDbRegAppTableRecord
  2
ACAD
 70
     0
  0
ENDTAB
  0
TABLE
  2
DIMSTYLE
  5
72
330
0
100
AcDbSymbolTable
 70
     1
  0
DIMSTYLE
105
73
330
72
100
AcDbSymbolTableRecord
100
AcDbDimStyleTableRecord
  2
STANDARD
 70
     0
  3

  4

  5

  6

  7

 40
2.0
 41
1.8
 42
0.625
 43
3.75
 44
0.8
 45
0.0
 46
0.0
 47
0.0
 48
0.0
140
1.8
141
2.5
142
0.0
143
0.0394
144
1.0
145
0.0
146
1.0
147
0.75
 71
     0
 72
     0
 73
     0
 74
     0
 75
     0
 76
     0
 77
     1
 78
     8
170
     0
171
     4
172
     1
173
     0
174
     0
175
     0
176
     0
177
     0
178
     0
270
     8
271
     2
272
     2
273
     8
274
     4
340
16
275
     0
280
     0
281
     0
282
     0
283
     1
284
     0
285
     0
286
     0
287
     3
288
     0
  0
ENDTAB
  0
TABLE
  2
BLOCK_RECORD
  5
1
330
0
100
AcDbSymbolTable
 70
    59
  0
BLOCK_RECORD
  5
2
102
{ACAD_XDICTIONARY
360
1F3B
102
}
330
1
100
AcDbSymbolTableRecord
100
AcDbBlockTableRecord
  2
*MODEL_SPACE
  0
BLOCK_RECORD
  5
1F14
102
{ACAD_XDICTIONARY
360
1F3D
102
}
330
1
100
AcDbSymbolTableRecord
100
AcDbBlockTableRecord
  2
*PAPER_SPACE
  0
ENDTAB
  0
ENDSEC
  0
SECTION
  2
BLOCKS
  0
BLOCK
  5
5D
330
2
100
AcDbEntity
  8
0
100
AcDbBlockBegin
  2
*MODEL_SPACE
 70
     0
 10
0.0
 20
0.0
 30
0.0
  3
*MODEL_SPACE
  1

  0
ENDBLK
  5
5F
330
2
100
AcDbEntity
  8
0
100
AcDbBlockEnd
  0
BLOCK
  5
1F16
330
1F14
100
AcDbEntity
 67
     1
  8
0
100
AcDbBlockBegin
  2
*PAPER_SPACE
 70
     0
 10
0.0
 20
0.0
 30
0.0
  3
*PAPER_SPACE
  1

  0
ENDBLK
  5
1F17
330
1F14
100
AcDbEntity
 67
     1
  8
0
100
AcDbBlockEnd
  0
ENDSEC
  0
SECTION
  2
ENTITIES
  0
LINE
  5
625
330
2
100
AcDbEntity
  8
0
100
AcDbLine
 10
182.0641353714868
 20
305.2139369047529
 30
0.0
 11
278.4528993714868
 21
305.2139369047529
 31
0.0
  0
LINE
  5
626
330
2
100
AcDbEntity
  8
0
100
AcDbLine
 10
270.2247653714868
 20
284.2139369047529
 30
0.0
 11
242.0641353714868
 21
284.2139369047529
 31
0.0
  0
LINE
  5
627
330
2
100
AcDbEntity
  8
CENTER
100
AcDbLine
 10
260.0547663714868
 20
390.2139519047528
 30
0.0
 11
277.0735043714868
 21
390.2139519047528
 31
0.0
  0
LINE
  5
628
330
2
100
AcDbEntity
  8
0
100
AcDbLine
 10
182.0641353714868
 20
379.2139519047529
 30
0.0
 11
278.4528993714868
 21
379.2139519047529
 31
0.0
  0
LINE
  5
62A
330
2
100
AcDbEntity
  8
CENTER
100
AcDbLine
 10
43.56413137149218
 20
342.2139519047528
 30
0.0
 11
288.0641353714867
 21
342.2139519047528
 31
0.0
  0
ARC
  5
62B
330
2
100
AcDbEntity
  8
0
100
AcDbCircle
 10
230.5641353714868
 20
110.5074087351093
 30
0.0
 40
50.5
100
AcDbArc
 50
18.10379000000003
 51
161.8961939999998
  0
ARC
  5
62C
330
2
100
AcDbEntity
  8
0
100
AcDbCircle
 10
230.5641353714868
 20
110.5074087351093
 30
0.0
 40
50.5
100
AcDbArc
 50
198.1038060000001
 51
341.8962099999999
  0
LINE
  5
62D
330
2
100
AcDbEntity
  8
0
100
AcDbLine
 10
278.9355343714868
 20
141.5005877351093
 30
0.0
 11
248.8566313714868
 21
162.6006937351093
 31
0.0
  0
LINE
  5
62E
330
2
100
AcDbEntity
  8
0
100
AcDbLine
 10
182.0641353714868
 20
59.50740673510932
 30
0.0
 11
279.0641353714868
 21
59.50740673510932
 31
0.0
  0
LINE
  5
62F
330
2
100
AcDbEntity
  8
0
100
AcDbLine
 10
180.0641353714868
 20
50.50740673510933
 30
0.0
 11
281.0641353714868
 21
50.50740673510933
 31
0.0
  0
LINE
  5
630
330
2
100
AcDbEntity
  8
0
100
AcDbLine
 10
107.5641283714868
 20
65.39810673510934
 30
0.0
 11
178.4470393714868
 21
65.39810673510934
 31
0.0
  0
LINE
  5
631
330
2
100
AcDbEntity
  8
0
100
AcDbLine
 10
107.5641283714868
 20
134.2167057351093
 30
0.0
 11
178.4470393714868
 21
134.2167057351093
 31
0.0
  0
LINE
  5
632
330
2
100
AcDbEntity
  8
0
100
AcDbLine
 10
107.5641283714868
 20
144.8074047351093
 30
0.0
 11
186.9066343714868
 21
144.8074047351093
 31
0.0
  0
LINE
  5
633
330
2
100
AcDbEntity
  8
0
100
AcDbLine
 10
107.5641283714868
 20
54.80740673510934
 30
0.0
 11
180.0641353714868
 21
54.80740673510934
 31
0.0
  0
LINE
  5
634
330
2
100
AcDbEntity
  8
CENTER
100
AcDbLine
 10
43.56413687148665
 20
99.8074077351093
 30
0.0
 11
203.3536403714868
 21
99.80740773510934
 31
0.0
  0
LINE
  5
635
330
2
100
AcDbEntity
  8
0
100
AcDbLine
 10
107.5641283714868
 20
54.80740673510934
 30
0.0
 11
107.5641283714868
 21
144.8074047351093
 31
0.0
  0
LINE
  5
636
330
2
100
AcDbEntity
  8
0
100
AcDbLine
 10
50.56414937148679
 20
141.8074197351093
 30
0.0
 11
50.56412437148686
 21
57.80739673510933
 31
0.0
  0
LINE
  5
637
330
2
100
AcDbEntity
  8
0
100
AcDbLine
 10
98.06412837148684
 20
146.8074047351093
 30
0.0
 11
98.06412837148684
 21
52.80740673510933
 31
0.0
  0
ARC
  5
638
330
2
100
AcDbEntity
  8
0
100
AcDbCircle
 10
55.56412337148685
 20
57.80740673510933
 30
0.0
 40
5.0
100
AcDbArc
 50
180.0
 51
270.0
  0
LINE
  5
63A
330
2
100
AcDbEntity
  8
0
100
AcDbLine
 10
55.56412437148686
 20
52.80740673510933
 30
0.0
 11
98.06412837148684
 21
52.80740673510933
 31
0.0
  0
LINE
  5
63B
330
2
100
AcDbEntity
  8
0
100
AcDbLine
 10
98.06412837148684
 20
70.80740573510934
 30
0.0
 11
54.08912537148683
 21
70.80740573510934
 31
0.0
  0
LINE
  5
63C
330
2
100
AcDbEntity
  8
0
100
AcDbLine
 10
107.5641283714868
 20
65.39810673510934
 30
0.0
 11
98.06412837148684
 21
65.39810673510934
 31
0.0
  0
LINE
  5
63D
330
2
100
AcDbEntity
  8
0
100
AcDbLine
 10
98.06412837148684
 20
54.80740673510934
 30
0.0
 11
107.5641283714868
 21
54.80740673510934
 31
0.0
  0
ARC
  5
63E
330
2
100
AcDbEntity
  8
0
100
AcDbCircle
 10
55.56414937148679
 20
141.8074347351093
 30
0.0
 40
5.0
100
AcDbArc
 50
90.0
 51
180.0
  0
LINE
  5
63F
330
2
100
AcDbEntity
  8
0
100
AcDbLine
 10
55.56412437148686
 20
146.8074047351093
 30
0.0
 11
98.06412837148684
 21
146.8074047351093
 31
0.0
  0
LINE
  5
640
330
2
100
AcDbEntity
  8
0
100
AcDbLine
 10
98.06412837148684
 20
128.8074047351093
 30
0.0
 11
54.08912637148683
 21
128.8074047351093
 31
0.0
  0
LINE
  5
641
330
2
100
AcDbEntity
  8
0
100
AcDbLine
 10
107.5641283714868
 20
134.2167057351093
 30
0.0
 11
98.06412837148684
 21
134.2167057351093
 31
0.0
  0
LINE
  5
642
330
2
100
AcDbEntity
  8
0
100
AcDbLine
 10
102.5641283714868
 20
128.3368077351093
 30
0.0
 11
102.5641283714868
 21
123.8368077351093
 31
0.0
  0
LINE
  5
643
330
2
100
AcDbEntity
  8
0
100
AcDbLine
 10
101.0641283714868
 20
128.3368077351093
 30
0.0
 11
101.0641283714868
 21
123.8368077351093
 31
0.0
  0
LINE
  5
644
330
2
100
AcDbEntity
  8
0
100
AcDbLine
 10
99.56412837148684
 20
128.3368077351093
 30
0.0
 11
99.56412837148684
 21
123.3212057351093
 31
0.0
  0
LINE
  5
645
330
2
100
AcDbEntity
  8
HOJO
100
AcDbLine
 10
101.0641283714868
 20
124.3368077351093
 30
0.0
 11
102.5641283714868
 21
123.8368077351093
 31
0.0
  0
LINE
  5
646
330
2
100
AcDbEntity
  8
HOJO
100
AcDbLine
 10
99.56412837148684
 20
123.3368077351093
 30
0.0
 11
101.0641283714868
 21
123.8368077351093
 31
0.0
  0
ARC
  5
647
330
2
100
AcDbEntity
  8
0
100
AcDbCircle
 10
98.06412837148684
 20
128.3368077351093
 30
0.0
 40
1.5
100
AcDbArc
 50
0.0
 51
90.0
  0
ARC
  5
648
330
2
100
AcDbEntity
  8
0
100
AcDbCircle
 10
98.06412837148684
 20
128.3368077351093
 30
0.0
 40
3.0
100
AcDbArc
 50
0.0
 51
90.0
  0
ARC
  5
649
330
2
100
AcDbEntity
  8
0
100
AcDbCircle
 10
98.06412837148684
 20
128.3368077351093
 30
0.0
 40
4.5
100
AcDbArc
 50
0.0
 51
90.0
  0
LINE
  5
64C
330
2
100
AcDbEntity
  8
0
100
AcDbLine
 10
98.06412837148684
 20
144.8074047351093
 30
0.0
 11
107.5641283714868
 21
144.8074047351093
 31
0.0
  0
LINE
  5
655
330
2
100
AcDbEntity
  8
0
100
AcDbLine
 10
180.0641353714868
 20
137.4073187351093
 30
0.0
 11
180.0640293714868
 21
50.50740673510933
 31
0.0
  0
LINE
  5
656
330
2
100
AcDbEntity
  8
0
100
AcDbLine
 10
182.5641353714868
 20
126.1995937351093
 30
0.0
 11
182.5641353714868
 21
94.81489273510934
 31
0.0
  0
CIRCLE
  5
657
330
2
100
AcDbEntity
  8
0
100
AcDbCircle
 10
230.5641353714868
 20
125.5074087351093
 30
0.0
 40
23.5
  0
LINE
  5
658
330
2
100
AcDbEntity
  8
CENTER
100
AcDbLine
 10
230.5641353714869
 20
170.5074087351093
 30
0.0
 11
230.5641353714867
 21
43.50740673510933
 31
0.0
  0
LINE
  5
659
330
2
100
AcDbEntity
  8
HIDS
  6
SEKKEI_H
100
AcDbLine
 10
188.3141353714868
 20
59.50740673510932
 30
0.0
 11
188.3141353714868
 21
50.50740673510933
 31
0.0
  0
ARC
  5
65A
330
2
100
AcDbEntity
  8
0
100
AcDbCircle
 10
182.0641353714868
 20
57.50740673510932
 30
0.0
 40
2.0
100
AcDbArc
 50
90.0
 51
180.0
  0
LINE
  5
65B
330
2
100
AcDbEntity
  8
HIDS
  6
SEKKEI_H
100
AcDbLine
 10
196.8141353714868
 20
59.50740673510932
 30
0.0
 11
196.8141353714868
 21
50.50740673510933
 31
0.0
  0
LINE
  5
65C
330
2
100
AcDbEntity
  8
CENTER
100
AcDbLine
 10
192.5641353714868
 20
63.00740673510933
 30
0.0
 11
192.5641353714868
 21
47.00740673510932
 31
0.0
  0
LINE
  5
65D
330
2
100
AcDbEntity
  8
0
100
AcDbLine
 10
227.3766353714868
 20
92.06990873510932
 30
0.0
 11
233.7516353714868
 21
92.06990873510932
 31
0.0
  0
LINE
  5
65E
330
2
100
AcDbEntity
  8
0
100
AcDbLine
 10
227.3766353714868
 20
90.07772173510932
 30
0.0
 11
228.0842313714868
 21
90.07772173510932
 31
0.0
  0
LINE
  5
65F
330
2
100
AcDbEntity
  8
0
100
AcDbLine
 10
217.8141353714868
 20
83.74826473510934
 30
0.0
 11
219.0439333714868
 21
82.50740473510933
 31
0.0
  0
LINE
  5
660
330
2
100
AcDbEntity
  8
0
100
AcDbLine
 10
218.9715303714868
 20
92.06990873510932
 30
0.0
 11
217.8141353714868
 21
90.58791473510934
 31
0.0
  0
LINE
  5
661
330
2
100
AcDbEntity
  8
0
100
AcDbLine
 10
217.8141353714868
 20
90.58791473510934
 30
0.0
 11
217.8141353714868
 21
83.74826473510934
 31
0.0
  0
LINE
  5
662
330
2
100
AcDbEntity
  8
0
100
AcDbLine
 10
223.2677333714868
 20
87.01472573510931
 30
0.0
 11
223.2677333714868
 21
85.62019773510934
 31
0.0
  0
LINE
  5
663
330
2
100
AcDbEntity
  8
0
100
AcDbLine
 10
218.8849363714868
 20
89.90739473510933
 30
0.0
 11
218.8849363714868
 21
84.39832773510934
 31
0.0
  0
LINE
  5
664
330
2
100
AcDbEntity
  8
0
100
AcDbLine
 10
224.1891353714868
 20
88.06062773510934
 30
0.0
 11
224.1891353714868
 21
82.50740473510933
 31
0.0
  0
LINE
  5
665
330
2
100
AcDbEntity
  8
0
100
AcDbLine
 10
223.2677333714868
 20
83.26967673510933
 30
0.0
 11
222.3592403714868
 21
82.50740473510933
 31
0.0
  0
ARC
  5
666
330
2
100
AcDbEntity
  8
0
100
AcDbCircle
 10
221.2755313714868
 20
85.62019773510934
 30
0.0
 40
1.992186999999999
100
AcDbArc
 50
270.0002139999998
 51
0.0001089999998967
  0
LINE
  5
667
330
2
100
AcDbEntity
  8
0
100
AcDbLine
 10
219.0439333714868
 20
82.50740473510933
 30
0.0
 11
222.3592403714868
 21
82.50740473510933
 31
0.0
  0
LINE
  5
668
330
2
100
AcDbEntity
  8
0
100
AcDbLine
 10
221.2755313714868
 20
83.62801773510932
 30
0.0
 11
219.6162293714868
 21
83.62801773510932
 31
0.0
  0
LINE
  5
669
330
2
100
AcDbEntity
  8
0
100
AcDbLine
 10
218.8849363714868
 20
84.39832773510934
 30
0.0
 11
219.6162293714868
 21
83.62801773510932
 31
0.0
  0
LINE
  5
66A
330
2
100
AcDbEntity
  8
0
100
AcDbLine
 10
223.2677333714868
 20
82.50740473510933
 30
0.0
 11
224.1891353714868
 21
82.50740473510933
 31
0.0
  0
LINE
  5
66B
330
2
100
AcDbEntity
  8
0
100
AcDbLine
 10
223.2677333714868
 20
83.26967673510933
 30
0.0
 11
223.2677333714868
 21
82.50740473510933
 31
0.0
  0
LINE
  5
66C
330
2
100
AcDbEntity
  8
0
100
AcDbLine
 10
221.5993373714868
 20
88.06062773510934
 30
0.0
 11
224.1891353714868
 21
88.06062773510934
 31
0.0
  0
LINE
  5
66D
330
2
100
AcDbEntity
  8
0
100
AcDbLine
 10
223.2677333714868
 20
87.01472573510931
 30
0.0
 11
221.5993373714868
 21
87.01472573510931
 31
0.0
  0
LINE
  5
66E
330
2
100
AcDbEntity
  8
0
100
AcDbLine
 10
218.9715303714868
 20
92.06990873510932
 30
0.0
 11
223.2581363714868
 21
92.06990873510932
 31
0.0
  0
LINE
  5
66F
330
2
100
AcDbEntity
  8
0
100
AcDbLine
 10
223.2677333714868
 20
90.22844773510934
 30
0.0
 11
222.6645383714868
 21
90.79988973510934
 31
0.0
  0
LINE
  5
670
330
2
100
AcDbEntity
  8
0
100
AcDbLine
 10
221.5993373714868
 20
88.06062773510934
 30
0.0
 11
221.5993373714868
 21
87.01472573510931
 31
0.0
  0
LINE
  5
671
330
2
100
AcDbEntity
  8
0
100
AcDbLine
 10
219.6047393714868
 20
90.79988973510934
 30
0.0
 11
218.8849363714868
 21
89.90739473510933
 31
0.0
  0
LINE
  5
672
330
2
100
AcDbEntity
  8
0
100
AcDbLine
 10
222.6766383714868
 20
90.79988973510934
 30
0.0
 11
219.6047393714868
 21
90.79988973510934
 31
0.0
  0
LINE
  5
673
330
2
100
AcDbEntity
  8
0
100
AcDbLine
 10
223.2677333714868
 20
90.22844773510934
 30
0.0
 11
223.2677333714868
 21
90.07772173510932
 31
0.0
  0
LINE
  5
674
330
2
100
AcDbEntity
  8
0
100
AcDbLine
 10
224.1891353714868
 20
91.03676673510932
 30
0.0
 11
224.1891353714868
 21
90.07772173510932
 31
0.0
  0
LINE
  5
675
330
2
100
AcDbEntity
  8
0
100
AcDbLine
 10
223.2677333714868
 20
86.01863573510934
 30
0.0
 11
223.2677333714868
 21
86.81551773510932
 31
0.0
  0
LINE
  5
676
330
2
100
AcDbEntity
  8
0
100
AcDbLine
 10
223.2677333714868
 20
90.07772173510932
 30
0.0
 11
224.1891353714868
 21
90.07772173510932
 31
0.0
  0
LINE
  5
677
330
2
100
AcDbEntity
  8
0
100
AcDbLine
 10
223.2581363714868
 20
92.06990873510932
 30
0.0
 11
224.1891353714868
 21
91.03676673510932
 31
0.0
  0
LINE
  5
678
330
2
100
AcDbEntity
  8
0
100
AcDbLine
 10
227.3766353714868
 20
90.07772173510932
 30
0.0
 11
227.3766353714868
 21
92.06990873510932
 31
0.0
  0
LINE
  5
679
330
2
100
AcDbEntity
  8
0
100
AcDbLine
 10
231.1369353714868
 20
90.89949873510931
 30
0.0
 11
231.1369353714868
 21
83.55330773510933
 31
0.0
  0
LINE
  5
67A
330
2
100
AcDbEntity
  8
0
100
AcDbLine
 10
229.9415313714868
 20
90.89949873510931
 30
0.0
 11
229.9415313714868
 21
83.55330773510933
 31
0.0
  0
LINE
  5
67B
330
2
100
AcDbEntity
  8
0
100
AcDbLine
 10
229.4684323714868
 20
83.55330773510933
 30
0.0
 11
229.9415313714868
 21
83.55330773510933
 31
0.0
  0
LINE
  5
67C
330
2
100
AcDbEntity
  8
0
100
AcDbLine
 10
229.4684323714868
 20
82.50740473510933
 30
0.0
 11
231.5353423714868
 21
82.50740473510933
 31
0.0
  0
LINE
  5
67D
330
2
100
AcDbEntity
  8
0
100
AcDbLine
 10
231.5353423714868
 20
83.55330773510933
 30
0.0
 11
231.5353423714868
 21
82.50740473510933
 31
0.0
  0
LINE
  5
67E
330
2
100
AcDbEntity
  8
0
100
AcDbLine
 10
229.4684323714868
 20
83.55330773510933
 30
0.0
 11
229.4684323714868
 21
82.50740473510933
 31
0.0
  0
LINE
  5
67F
330
2
100
AcDbEntity
  8
0
100
AcDbLine
 10
231.1369353714868
 20
83.55330773510933
 30
0.0
 11
231.5353423714868
 21
83.55330773510933
 31
0.0
  0
LINE
  5
680
330
2
100
AcDbEntity
  8
0
100
AcDbLine
 10
231.1369353714868
 20
90.89949873510931
 30
0.0
 11
232.7979313714868
 21
90.89949873510931
 31
0.0
  0
LINE
  5
681
330
2
100
AcDbEntity
  8
0
100
AcDbLine
 10
229.9415313714868
 20
90.89949873510931
 30
0.0
 11
228.4266383714868
 21
90.89949873510931
 31
0.0
  0
LINE
  5
682
330
2
100
AcDbEntity
  8
0
100
AcDbLine
 10
228.4266383714868
 20
90.89949873510931
 30
0.0
 11
228.0842313714868
 21
90.07772173510932
 31
0.0
  0
LINE
  5
683
330
2
100
AcDbEntity
  8
0
100
AcDbLine
 10
232.7979313714868
 20
90.89949873510931
 30
0.0
 11
233.0866423714868
 21
90.07772173510932
 31
0.0
  0
LINE
  5
684
330
2
100
AcDbEntity
  8
0
100
AcDbLine
 10
233.0866423714868
 20
90.07772173510932
 30
0.0
 11
233.7516353714868
 21
90.07772173510932
 31
0.0
  0
LINE
  5
685
330
2
100
AcDbEntity
  8
0
100
AcDbLine
 10
233.7516353714868
 20
90.07772173510932
 30
0.0
 11
233.7516353714868
 21
92.06990873510932
 31
0.0
  0
LINE
  5
686
330
2
100
AcDbEntity
  8
0
100
AcDbLine
 10
240.5484343714868
 20
86.97737573510933
 30
0.0
 11
242.0435363714868
 21
83.50349473510934
 31
0.0
  0
LINE
  5
687
330
2
100
AcDbEntity
  8
0
100
AcDbLine
 10
241.4659303714868
 20
87.06402673510934
 30
0.0
 11
243.0458403714868
 21
83.50349473510934
 31
0.0
  0
LINE
  5
688
330
2
100
AcDbEntity
  8
0
100
AcDbLine
 10
238.5079373714868
 20
86.97737573510933
 30
0.0
 11
238.5079373714868
 21
83.50349473510934
 31
0.0
  0
LINE
  5
689
330
2
100
AcDbEntity
  8
0
100
AcDbLine
 10
237.4122343714868
 20
90.89949873510931
 30
0.0
 11
237.4122343714868
 21
83.50349473510934
 31
0.0
  0
LINE
  5
68A
330
2
100
AcDbEntity
  8
0
100
AcDbLine
 10
236.9391353714868
 20
83.50349473510934
 30
0.0
 11
236.9391353714868
 21
82.50740473510933
 31
0.0
  0
LINE
  5
68B
330
2
100
AcDbEntity
  8
0
100
AcDbLine
 10
238.9437443714868
 20
83.50349473510934
 30
0.0
 11
238.9437443714868
 21
82.50740473510933
 31
0.0
  0
LINE
  5
68C
330
2
100
AcDbEntity
  8
0
100
AcDbLine
 10
238.9437443714868
 20
82.50740473510933
 30
0.0
 11
236.9391353714868
 21
82.50740473510933
 31
0.0
  0
LINE
  5
68D
330
2
100
AcDbEntity
  8
0
100
AcDbLine
 10
238.5079373714868
 20
83.50349473510934
 30
0.0
 11
238.9437443714868
 21
83.50349473510934
 31
0.0
  0
LINE
  5
68E
330
2
100
AcDbEntity
  8
0
100
AcDbLine
 10
236.9391353714868
 20
83.50349473510934
 30
0.0
 11
237.4122343714868
 21
83.50349473510934
 31
0.0
  0
LINE
  5
68F
330
2
100
AcDbEntity
  8
0
100
AcDbLine
 10
241.8449433714868
 20
83.50349473510934
 30
0.0
 11
241.8449433714868
 21
82.50740473510933
 31
0.0
  0
LINE
  5
690
330
2
100
AcDbEntity
  8
0
100
AcDbLine
 10
243.3141353714868
 20
83.50349473510934
 30
0.0
 11
243.3141353714868
 21
82.50740473510933
 31
0.0
  0
LINE
  5
691
330
2
100
AcDbEntity
  8
0
100
AcDbLine
 10
241.8449433714868
 20
82.50740473510933
 30
0.0
 11
243.3141353714868
 21
82.50740473510933
 31
0.0
  0
LINE
  5
692
330
2
100
AcDbEntity
  8
0
100
AcDbLine
 10
243.0458403714868
 20
83.50349473510934
 30
0.0
 11
243.3141353714868
 21
83.50349473510934
 31
0.0
  0
LINE
  5
693
330
2
100
AcDbEntity
  8
0
100
AcDbLine
 10
241.8449433714868
 20
83.50349473510934
 30
0.0
 11
242.0435363714868
 21
83.50349473510934
 31
0.0
  0
LINE
  5
694
330
2
100
AcDbEntity
  8
0
100
AcDbLine
 10
238.5079373714868
 20
87.97324873510934
 30
0.0
 11
240.9626343714868
 21
87.97324873510934
 31
0.0
  0
LINE
  5
695
330
2
100
AcDbEntity
  8
0
100
AcDbLine
 10
238.5079373714868
 20
90.89949873510931
 30
0.0
 11
241.4828373714868
 21
90.89756073510931
 31
0.0
  0
LINE
  5
696
330
2
100
AcDbEntity
  8
0
100
AcDbLine
 10
236.9391353714868
 20
92.06990873510932
 30
0.0
 11
240.7616303714868
 21
92.06990873510932
 31
0.0
  0
LINE
  5
697
330
2
100
AcDbEntity
  8
0
100
AcDbLine
 10
238.5079373714868
 20
86.97737573510933
 30
0.0
 11
240.5484343714868
 21
86.97737573510933
 31
0.0
  0
LINE
  5
698
330
2
100
AcDbEntity
  8
0
100
AcDbLine
 10
236.9391353714868
 20
90.89949873510931
 30
0.0
 11
237.4122343714868
 21
90.89949873510931
 31
0.0
  0
LINE
  5
699
330
2
100
AcDbEntity
  8
0
100
AcDbLine
 10
238.5079373714868
 20
90.89949873510931
 30
0.0
 11
238.5079373714868
 21
87.97324873510934
 31
0.0
  0
LINE
  5
69A
330
2
100
AcDbEntity
  8
0
100
AcDbLine
 10
236.9391353714868
 20
92.06990873510932
 30
0.0
 11
236.9391353714868
 21
90.89949873510931
 31
0.0
  0
ARC
  5
69B
330
2
100
AcDbEntity
  8
0
100
AcDbCircle
 10
240.7616303714868
 20
89.51741873510934
 30
0.0
 40
1.557193
100
AcDbArc
 50
277.4147259999995
 51
62.41184999999949
  0
ARC
  5
69C
330
2
100
AcDbEntity
  8
0
100
AcDbCircle
 10
240.7616303714868
 20
89.51741873510934
 30
0.0
 40
2.55249
100
AcDbArc
 50
286.0181269999995
 51
90.00350999999964
  0
LINE
  5
69D
330
2
100
AcDbEntity
  8
0
100
AcDbLine
 10
182.1927363714868
 20
141.5005877351093
 30
0.0
 11
212.2716403714868
 21
162.6006857351093
 31
0.0
  0
ARC
  5
69E
330
2
100
AcDbEntity
  8
0
100
AcDbCircle
 10
185.0641353714868
 20
137.4073337351093
 30
0.0
 40
5.0
100
AcDbArc
 50
125.0497970000001
 51
180.0
  0
LINE
  5
69F
330
2
100
AcDbEntity
  8
0
100
AcDbLine
 10
180.0641353714868
 20
137.4073337351093
 30
0.0
 11
180.0641353714868
 21
137.4073037351093
 31
0.0
  0
ARC
  5
6A0
330
2
100
AcDbEntity
  8
0
100
AcDbCircle
 10
230.5641353714868
 20
125.5074087351093
 30
0.0
 40
9.0
100
AcDbArc
 50
19.47121000000005
 51
340.5288089999999
  0
LINE
  5
6A1
330
2
100
AcDbEntity
  8
CENTER
100
AcDbLine
 10
200.0641353714868
 20
125.5074087351093
 30
0.0
 11
261.0641353714868
 21
125.5074087351093
 31
0.0
  0
LINE
  5
6A2
330
2
100
AcDbEntity
  8
0
100
AcDbLine
 10
242.0641353714868
 20
128.5074467351093
 30
0.0
 11
236.0641353714868
 21
128.5074237351093
 31
0.0
  0
LINE
  5
6A3
330
2
100
AcDbEntity
  8
0
100
AcDbLine
 10
242.0641353714868
 20
122.5074467351093
 30
0.0
 11
236.0641353714868
 21
122.5074237351093
 31
0.0
  0
LINE
  5
6A4
330
2
100
AcDbEntity
  8
0
100
AcDbLine
 10
236.0641353714868
 20
122.5074237351093
 30
0.0
 11
236.0641353714868
 21
128.5074237351093
 31
0.0
  0
LINE
  5
6A5
330
2
100
AcDbEntity
  8
0
100
AcDbLine
 10
242.0641353714868
 20
122.5074467351093
 30
0.0
 11
242.0641353714868
 21
128.5074467351093
 31
0.0
  0
LINE
  5
6A6
330
2
100
AcDbEntity
  8
0
100
AcDbLine
 10
215.1430393714868
 20
163.5074087351093
 30
0.0
 11
245.9852323714868
 21
163.5074087351093
 31
0.0
  0
ARC
  5
6A7
330
2
100
AcDbEntity
  8
0
100
AcDbCircle
 10
215.1430393714868
 20
158.5074087351093
 30
0.0
 40
5.0
100
AcDbArc
 50
90.0
 51
125.0496979999994
  0
ARC
  5
6A8
330
2
100
AcDbEntity
  8
0
100
AcDbCircle
 10
245.9853393714868
 20
158.5073937351093
 30
0.0
 40
5.0
100
AcDbArc
 50
54.95087799999998
 51
90.0
  0
LINE
  5
6A9
330
2
100
AcDbEntity
  8
0
100
AcDbLine
 10
178.0641353714868
 20
297.2139369047529
 30
0.0
 11
107.5641353714868
 21
297.2139369047529
 31
0.0
  0
LINE
  5
6AA
330
2
100
AcDbEntity
  8
0
100
AcDbLine
 10
107.5641353714868
 20
313.2139369047528
 30
0.0
 11
186.9066803714868
 21
313.2139369047528
 31
0.0
  0
LINE
  5
6AB
330
2
100
AcDbEntity
  8
0
100
AcDbLine
 10
107.5641353714868
 20
371.2139519047529
 30
0.0
 11
186.9066803714868
 21
371.2139519047529
 31
0.0
  0
LINE
  5
6AC
330
2
100
AcDbEntity
  8
0
100
AcDbLine
 10
178.0641353714868
 20
387.2139519047529
 30
0.0
 11
107.5641353714868
 21
387.2139519047529
 31
0.0
  0
LINE
  5
6AD
330
2
100
AcDbEntity
  8
0
100
AcDbLine
 10
50.5641463714868
 20
384.2139519047528
 30
0.0
 11
50.56411637148688
 21
300.2139219047529
 31
0.0
  0
LINE
  5
6AE
330
2
100
AcDbEntity
  8
0
100
AcDbLine
 10
98.06413537148683
 20
389.2139519047529
 30
0.0
 11
98.06413537148683
 21
349.7139519047529
 31
0.0
  0
ARC
  5
6B3
330
2
100
AcDbEntity
  8
0
100
AcDbCircle
 10
55.56411637148688
 20
300.2139369047529
 30
0.0
 40
5.0
100
AcDbArc
 50
180.0
 51
270.0
  0
LINE
  5
6B4
330
2
100
AcDbEntity
  8
0
100
AcDbLine
 10
55.56411637148688
 20
295.2139369047529
 30
0.0
 11
98.06413537148683
 21
295.2139369047529
 31
0.0
  0
LINE
  5
6B5
330
2
100
AcDbEntity
  8
0
100
AcDbLine
 10
98.06413537148683
 20
313.2139369047528
 30
0.0
 11
54.08910637148688
 21
313.2139369047528
 31
0.0
  0
LINE
  5
6B6
330
2
100
AcDbEntity
  8
0
100
AcDbLine
 10
107.5641353714868
 20
297.2139369047529
 30
0.0
 11
107.5641353714868
 21
317.2139519047528
 31
0.0
  0
LINE
  5
6B7
330
2
100
AcDbEntity
  8
0
100
AcDbLine
 10
107.5641353714868
 20
313.2139369047528
 30
0.0
 11
98.06413537148683
 21
313.2139369047528
 31
0.0
  0
LINE
  5
6B8
330
2
100
AcDbEntity
  8
0
100
AcDbLine
 10
98.06413537148683
 20
297.2139369047529
 30
0.0
 11
107.5641353714868
 21
297.2139369047529
 31
0.0
  0
LINE
  5
6B9
330
2
100
AcDbEntity
  8
0
100
AcDbLine
 10
102.5641353714868
 20
302.9441009047529
 30
0.0
 11
102.5641353714868
 21
298.4441009047529
 31
0.0
  0
LINE
  5
6BA
330
2
100
AcDbEntity
  8
0
100
AcDbLine
 10
101.0641353714868
 20
302.9441009047529
 30
0.0
 11
101.0641353714868
 21
298.4441009047529
 31
0.0
  0
LINE
  5
6BB
330
2
100
AcDbEntity
  8
0
100
AcDbLine
 10
99.56413537148684
 20
302.9441009047529
 30
0.0
 11
99.56413537148684
 21
297.9284909047529
 31
0.0
  0
LINE
  5
6BC
330
2
100
AcDbEntity
  8
HOJO
100
AcDbLine
 10
101.0641353714868
 20
298.9441009047529
 30
0.0
 11
102.5641353714868
 21
298.4441009047529
 31
0.0
  0
LINE
  5
6BD
330
2
100
AcDbEntity
  8
HOJO
100
AcDbLine
 10
99.56413537148684
 20
297.9441009047529
 30
0.0
 11
101.0641353714868
 21
298.4441009047529
 31
0.0
  0
ARC
  5
6BE
330
2
100
AcDbEntity
  8
0
100
AcDbCircle
 10
98.06413537148683
 20
302.9441009047529
 30
0.0
 40
4.5
100
AcDbArc
 50
0.0
 51
90.0
  0
ARC
  5
6BF
330
2
100
AcDbEntity
  8
0
100
AcDbCircle
 10
98.06413537148683
 20
302.9441009047529
 30
0.0
 40
1.5
100
AcDbArc
 50
0.0
 51
90.0
  0
ARC
  5
6C0
330
2
100
AcDbEntity
  8
0
100
AcDbCircle
 10
98.06413537148683
 20
302.9441009047529
 30
0.0
 40
3.0
100
AcDbArc
 50
0.0
 51
90.0
  0
ARC
  5
6C6
330
2
100
AcDbEntity
  8
0
100
AcDbCircle
 10
55.5641463714868
 20
384.2139519047528
 30
0.0
 40
5.0
100
AcDbArc
 50
90.0
 51
180.0
  0
LINE
  5
6C7
330
2
100
AcDbEntity
  8
0
100
AcDbLine
 10
55.56411637148688
 20
389.2139519047529
 30
0.0
 11
98.06413537148683
 21
389.2139519047529
 31
0.0
  0
LINE
  5
6C8
330
2
100
AcDbEntity
  8
0
100
AcDbLine
 10
98.06413537148683
 20
371.2139519047529
 30
0.0
 11
54.08910637148688
 21
371.2139519047529
 31
0.0
  0
LINE
  5
6C9
330
2
100
AcDbEntity
  8
0
100
AcDbLine
 10
107.5641353714868
 20
367.2139519047529
 30
0.0
 11
107.5641353714868
 21
387.2139519047529
 31
0.0
  0
LINE
  5
6CF
330
2
100
AcDbEntity
  8
0
100
AcDbLine
 10
107.5641353714868
 20
371.2139519047529
 30
0.0
 11
98.06413537148683
 21
371.2139519047529
 31
0.0
  0
LINE
  5
6D0
330
2
100
AcDbEntity
  8
0
100
AcDbLine
 10
98.06413537148683
 20
387.2139519047529
 30
0.0
 11
107.5641353714868
 21
387.2139519047529
 31
0.0
  0
LINE
  5
6D1
330
2
100
AcDbEntity
  8
0
100
AcDbLine
 10
186.9066803714868
 20
369.2139519047529
 30
0.0
 11
186.9066803714868
 21
315.2139369047528
 31
0.0
  0
LINE
  5
6D2
330
2
100
AcDbEntity
  8
0
100
AcDbLine
 10
247.5641353714868
 20
374.2139519047528
 30
0.0
 11
247.5641353714868
 21
310.2139369047529
 31
0.0
  0
LINE
  5
6D3
330
2
100
AcDbEntity
  8
0
100
AcDbLine
 10
213.5641353714868
 20
374.2139519047528
 30
0.0
 11
213.5641353714868
 21
310.2139369047529
 31
0.0
  0
LINE
  5
6D4
330
2
100
AcDbEntity
  8
CENTER
100
AcDbLine
 10
230.5641353714868
 20
407.2139519047529
 30
0.0
 11
230.5641353714868
 21
261.2139369047529
 31
0.0
  0
LINE
  5
6D5
330
2
100
AcDbEntity
  8
0
100
AcDbLine
 10
221.5641353714868
 20
284.2139369047529
 30
0.0
 11
190.9035063714868
 21
284.2139369047529
 31
0.0
  0
CIRCLE
  5
6D6
330
2
100
AcDbEntity
  8
0
100
AcDbCircle
 10
192.5641353714868
 20
294.2139369047529
 30
0.0
 40
4.25
  0
ARC
  5
6D8
330
2
100
AcDbEntity
  8
0
100
AcDbCircle
 10
190.9035063714868
 20
294.2139369047529
 30
0.0
 40
10.0
100
AcDbArc
 50
181.0000000000001
 51
270.0
  0
LINE
  5
6D9
330
2
100
AcDbEntity
  8
0
100
AcDbLine
 10
180.0641353714868
 20
303.2139369047529
 30
0.0
 11
180.0641353714868
 21
299.2139369047529
 31
0.0
  0
LINE
  5
6DA
330
2
100
AcDbEntity
  8
0
100
AcDbLine
 10
180.9050323714868
 20
294.0394219047528
 30
0.0
 11
180.7190433714868
 21
304.6940549047529
 31
0.0
  0
ARC
  5
6DB
330
2
100
AcDbEntity
  8
0
100
AcDbCircle
 10
178.0641353714868
 20
299.2139369047529
 30
0.0
 40
2.0
100
AcDbArc
 50
270.0
 51
0.0
  0
LINE
  5
6DC
330
2
100
AcDbEntity
  8
0
100
AcDbLine
 10
180.6756773714868
 20
307.1790399047529
 30
0.0
 11
180.5703303714868
 21
313.2139369047528
 31
0.0
  0
ARC
  5
6DD
330
2
100
AcDbEntity
  8
0
100
AcDbCircle
 10
182.0641353714868
 20
303.2139369047529
 30
0.0
 40
2.0
100
AcDbArc
 50
90.0
 51
180.0
  0
ARC
  5
6DE
330
2
100
AcDbEntity
  8
0
100
AcDbCircle
 10
182.6753723714868
 20
307.2139369047529
 30
0.0
 40
2.0
100
AcDbArc
 50
181.0000000000001
 51
270.0
  0
LINE
  5
6DF
330
2
100
AcDbEntity
  8
0
100
AcDbLine
 10
239.0491363714868
 20
268.2139369047529
 30
0.0
 11
239.0491363714868
 21
295.2139369047529
 31
0.0
  0
LINE
  5
6E0
330
2
100
AcDbEntity
  8
0
100
AcDbLine
 10
242.0641353714868
 20
268.2139369047529
 30
0.0
 11
242.0641353714868
 21
295.2139369047529
 31
0.0
  0
LINE
  5
6E1
330
2
100
AcDbEntity
  8
0
100
AcDbLine
 10
221.5641353714868
 20
298.2139369047529
 30
0.0
 11
221.5641353714868
 21
268.2139369047529
 31
0.0
  0
LINE
  5
6E3
330
2
100
AcDbEntity
  8
0
100
AcDbLine
 10
242.0641353714868
 20
268.2139369047529
 30
0.0
 11
221.5641353714868
 21
268.2139369047529
 31
0.0
  0
LINE
  5
6E4
330
2
100
AcDbEntity
  8
0
100
AcDbLine
 10
220.5641353714868
 20
298.2139369047529
 30
0.0
 11
240.5641353714868
 21
298.2139369047529
 31
0.0
  0
LINE
  5
6E5
330
2
100
AcDbEntity
  8
0
100
AcDbLine
 10
253.0641353714868
 20
300.2139369047529
 30
0.0
 11
208.0641353714868
 21
300.2139369047529
 31
0.0
  0
LINE
  5
6E6
330
2
100
AcDbEntity
  8
0
100
AcDbLine
 10
207.0641353714868
 20
301.2139369047529
 30
0.0
 11
207.0641353714868
 21
303.2139369047529
 31
0.0
  0
ARC
  5
6E7
330
2
100
AcDbEntity
  8
0
100
AcDbCircle
 10
208.0641513714867
 20
301.2139369047529
 30
0.0
 40
1.0
100
AcDbArc
 50
180.0
 51
270.0
  0
ARC
  5
6E8
330
2
100
AcDbEntity
  8
0
100
AcDbCircle
 10
205.0641353714868
 20
303.2139369047529
 30
0.0
 40
2.0
100
AcDbArc
 50
0.0
 51
90.0
  0
LINE
  5
6E9
330
2
100
AcDbEntity
  8
0
100
AcDbLine
 10
220.5641353714868
 20
300.2139369047529
 30
0.0
 11
220.5641353714868
 21
298.2139369047529
 31
0.0
  0
LINE
  5
6EA
330
2
100
AcDbEntity
  8
0
100
AcDbLine
 10
242.0641353714868
 20
295.2139369047529
 30
0.0
 11
239.0491363714868
 21
295.2139369047529
 31
0.0
  0
LINE
  5
6EB
330
2
100
AcDbEntity
  8
0
100
AcDbLine
 10
240.5641353714868
 20
300.2139369047529
 30
0.0
 11
240.5641353714868
 21
298.2139369047529
 31
0.0
  0
LINE
  5
6EC
330
2
100
AcDbEntity
  8
0
100
AcDbLine
 10
239.5641353714868
 20
298.2139369047529
 30
0.0
 11
239.5641353714868
 21
295.2139369047529
 31
0.0
  0
LINE
  5
6ED
330
2
100
AcDbEntity
  8
0
100
AcDbLine
 10
254.0641353714868
 20
301.2139369047529
 30
0.0
 11
254.0641353714868
 21
303.2139369047529
 31
0.0
  0
ARC
  5
6EE
330
2
100
AcDbEntity
  8
0
100
AcDbCircle
 10
253.0641353714868
 20
301.2139369047529
 30
0.0
 40
1.0
100
AcDbArc
 50
270.0
 51
0.0
  0
ARC
  5
6EF
330
2
100
AcDbEntity
  8
0
100
AcDbCircle
 10
256.0641353714868
 20
303.2139369047529
 30
0.0
 40
2.0
100
AcDbArc
 50
90.0
 51
180.0
  0
LINE
  5
6F0
330
2
100
AcDbEntity
  8
0
100
AcDbLine
 10
270.2247653714868
 20
400.2139519047529
 30
0.0
 11
190.9035063714868
 21
400.2139519047529
 31
0.0
  0
CIRCLE
  5
6F1
330
2
100
AcDbEntity
  8
0
100
AcDbCircle
 10
192.5641353714868
 20
390.2139519047528
 30
0.0
 40
4.25
  0
ARC
  5
6F3
330
2
100
AcDbEntity
  8
0
100
AcDbCircle
 10
190.9035063714868
 20
390.2139519047528
 30
0.0
 40
10.0
100
AcDbArc
 50
90.0
 51
178.9999999999998
  0
LINE
  5
6F4
330
2
100
AcDbEntity
  8
0
100
AcDbLine
 10
180.0641353714868
 20
381.2139519047529
 30
0.0
 11
180.0641353714868
 21
385.2139519047529
 31
0.0
  0
LINE
  5
6F5
330
2
100
AcDbEntity
  8
0
100
AcDbLine
 10
180.9050323714868
 20
390.3884519047529
 30
0.0
 11
180.7190433714868
 21
379.7338189047528
 31
0.0
  0
ARC
  5
6F6
330
2
100
AcDbEntity
  8
0
100
AcDbCircle
 10
182.6753723714868
 20
377.2139519047529
 30
0.0
 40
2.0
100
AcDbArc
 50
90.0
 51
178.9999999999998
  0
LINE
  5
6F7
330
2
100
AcDbEntity
  8
0
100
AcDbLine
 10
180.6756773714868
 20
377.2488339047529
 30
0.0
 11
180.5703303714868
 21
371.2139519047529
 31
0.0
  0
ARC
  5
6F8
330
2
100
AcDbEntity
  8
0
100
AcDbCircle
 10
182.0641353714868
 20
381.2139519047529
 30
0.0
 40
2.0
100
AcDbArc
 50
180.0
 51
270.0
  0
ARC
  5
6F9
330
2
100
AcDbEntity
  8
0
100
AcDbCircle
 10
178.0641353714868
 20
385.2139519047529
 30
0.0
 40
2.0
100
AcDbArc
 50
0.0
 51
90.0
  0
LINE
  5
6FB
330
2
100
AcDbEntity
  8
0
100
AcDbLine
 10
253.0641353714868
 20
384.2139519047528
 30
0.0
 11
208.0641353714868
 21
384.2139519047528
 31
0.0
  0
ARC
  5
6FC
330
2
100
AcDbEntity
  8
0
100
AcDbCircle
 10
205.0641353714868
 20
381.2139519047529
 30
0.0
 40
2.0
100
AcDbArc
 50
270.0
 51
0.0
  0
ARC
  5
6FD
330
2
100
AcDbEntity
  8
0
100
AcDbCircle
 10
208.0641513714867
 20
383.2139519047529
 30
0.0
 40
1.0
100
AcDbArc
 50
90.0
 51
180.0
  0
LINE
  5
6FE
330
2
100
AcDbEntity
  8
0
100
AcDbLine
 10
207.0641353714868
 20
383.2139519047529
 30
0.0
 11
207.0641353714868
 21
381.2139519047529
 31
0.0
  0
ARC
  5
6FF
330
2
100
AcDbEntity
  8
0
100
AcDbCircle
 10
253.0641353714868
 20
383.2139519047529
 30
0.0
 40
1.0
100
AcDbArc
 50
0.0
 51
90.0
  0
ARC
  5
700
330
2
100
AcDbEntity
  8
0
100
AcDbCircle
 10
256.0641353714868
 20
381.2139519047529
 30
0.0
 40
2.0
100
AcDbArc
 50
180.0
 51
270.0
  0
LINE
  5
701
330
2
100
AcDbEntity
  8
0
100
AcDbLine
 10
254.0641353714868
 20
383.2139519047529
 30
0.0
 11
254.0641353714868
 21
381.2139519047529
 31
0.0
  0
LINE
  5
702
330
2
100
AcDbEntity
  8
CENTER
100
AcDbLine
 10
499.9203000349314
 20
125.5074087351093
 30
0.0
 11
364.9203000349315
 21
125.5074087351093
 31
0.0
  0
LINE
  5
703
330
2
100
AcDbEntity
  8
0
100
AcDbLine
 10
410.8170890349314
 20
140.0074087351093
 30
0.0
 11
481.2717710349314
 21
140.0074087351093
 31
0.0
  0
LINE
  5
704
330
2
100
AcDbEntity
  8
0
100
AcDbLine
 10
410.8853880349314
 20
162.8957377351093
 30
0.0
 11
445.9203000349314
 21
163.5074087351093
 31
0.0
  0
LINE
  5
705
330
2
100
AcDbEntity
  8
0
100
AcDbLine
 10
387.9203000349314
 20
50.50740673510933
 30
0.0
 11
503.9203000349314
 21
50.50740673510933
 31
0.0
  0
LINE
  5
706
330
2
100
AcDbEntity
  8
CENTER
100
AcDbLine
 10
391.9203000349315
 20
99.80740773510934
 30
0.0
 11
499.9203000349314
 21
99.80740773510934
 31
0.0
  0
LINE
  5
707
330
2
100
AcDbEntity
  8
0
100
AcDbLine
 10
398.9203000349314
 20
73.70690573510933
 30
0.0
 11
398.9203000349314
 21
116.5074087351093
 31
0.0
  0
LINE
  5
708
330
2
100
AcDbEntity
  8
0
100
AcDbLine
 10
403.9203000349314
 20
103.0074047351093
 30
0.0
 11
403.9203000349314
 21
148.0074087351093
 31
0.0
  0
ARC
  5
709
330
2
100
AcDbEntity
  8
0
100
AcDbCircle
 10
445.9203000349314
 20
99.80740773510934
 30
0.0
 40
45.0
100
AcDbArc
 50
159.6376949999996
 51
214.6920929999997
  0
LINE
  5
70A
330
2
100
AcDbEntity
  8
0
100
AcDbLine
 10
408.9203000349314
 20
62.50740673510932
 30
0.0
 11
408.9203000349314
 21
160.8960347351093
 31
0.0
  0
LINE
  5
70B
330
2
100
AcDbEntity
  8
0
100
AcDbLine
 10
278.5641353714868
 20
126.1997687351093
 30
0.0
 11
278.5641353714868
 21
94.81505673510936
 31
0.0
  0
LINE
  5
70C
330
2
100
AcDbEntity
  8
0
100
AcDbLine
 10
281.0641353714868
 20
57.50740673510932
 30
0.0
 11
281.0641353714868
 21
137.4073037351093
 31
0.0
  0
LINE
  5
70D
330
2
100
AcDbEntity
  8
HIDS
  6
SEKKEI_H
100
AcDbLine
 10
264.3141353714868
 20
59.50740673510932
 30
0.0
 11
264.3141353714868
 21
50.50740673510933
 31
0.0
  0
LINE
  5
70E
330
2
100
AcDbEntity
  8
HIDS
  6
SEKKEI_H
100
AcDbLine
 10
272.8141353714868
 20
59.50740673510932
 30
0.0
 11
272.8141353714868
 21
50.50740673510933
 31
0.0
  0
LINE
  5
70F
330
2
100
AcDbEntity
  8
CENTER
100
AcDbLine
 10
268.5641353714867
 20
63.00740673510933
 30
0.0
 11
268.5641353714867
 21
47.00740673510932
 31
0.0
  0
LINE
  5
710
330
2
100
AcDbEntity
  8
0
100
AcDbLine
 10
281.0641353714868
 20
57.50740673510932
 30
0.0
 11
281.0641353714868
 21
50.50740673510933
 31
0.0
  0
ARC
  5
711
330
2
100
AcDbEntity
  8
0
100
AcDbCircle
 10
279.0641353714868
 20
57.50739673510935
 30
0.0
 40
2.0
100
AcDbArc
 50
0.0
 51
90.0
  0
LINE
  5
712
330
2
100
AcDbEntity
  8
HIDS
  6
SEKKEI_H
100
AcDbLine
 10
393.6703000349314
 20
59.50740673510932
 30
0.0
 11
393.6703000349314
 21
50.50740673510933
 31
0.0
  0
LINE
  5
713
330
2
100
AcDbEntity
  8
HIDS
  6
SEKKEI_H
100
AcDbLine
 10
402.1703000349314
 20
59.50740673510932
 30
0.0
 11
402.1703000349314
 21
50.50740673510933
 31
0.0
  0
LINE
  5
714
330
2
100
AcDbEntity
  8
CENTER
100
AcDbLine
 10
397.9203000349314
 20
63.00740673510933
 30
0.0
 11
397.9203000349315
 21
47.00740673510935
 31
0.0
  0
LINE
  5
715
330
2
100
AcDbEntity
  8
0
100
AcDbLine
 10
387.9203000349314
 20
57.50740673510932
 30
0.0
 11
387.9203000349314
 21
50.50740673510933
 31
0.0
  0
LINE
  5
716
330
2
100
AcDbEntity
  8
0
100
AcDbLine
 10
400.9705930349315
 20
68.75715673510933
 30
0.0
 11
408.5895810349314
 21
61.13812673510932
 31
0.0
  0
LINE
  5
717
330
2
100
AcDbEntity
  8
0
100
AcDbLine
 10
405.9203000349314
 20
59.50740673510932
 30
0.0
 11
389.9203000349314
 21
59.50740673510932
 31
0.0
  0
ARC
  5
718
330
2
100
AcDbEntity
  8
0
100
AcDbCircle
 10
389.9203000349314
 20
57.50741673510933
 30
0.0
 40
2.0
100
AcDbArc
 50
90.0
 51
180.0
  0
ARC
  5
719
330
2
100
AcDbEntity
  8
0
100
AcDbCircle
 10
405.9203000349314
 20
73.70695773510934
 30
0.0
 40
7.0
100
AcDbArc
 50
180.0
 51
225.0003970000001
  0
ARC
  5
71A
330
2
100
AcDbEntity
  8
0
100
AcDbCircle
 10
405.9203000349314
 20
62.50740673510932
 30
0.0
 40
3.0
100
AcDbArc
 50
270.0
 51
0.0
  0
LINE
  5
71B
330
2
100
AcDbEntity
  8
0
100
AcDbLine
 10
404.9203000349314
 20
102.0074047351093
 30
0.0
 11
406.9203000349315
 21
102.0074047351093
 31
0.0
  0
ARC
  5
71C
330
2
100
AcDbEntity
  8
0
100
AcDbCircle
 10
404.9203000349314
 20
103.0074017351093
 30
0.0
 40
1.0
100
AcDbArc
 50
180.0
 51
270.0
  0
ARC
  5
71D
330
2
100
AcDbEntity
  8
0
100
AcDbCircle
 10
406.9203000349315
 20
100.0074127351093
 30
0.0
 40
2.0
100
AcDbArc
 50
0.0
 51
90.0
  0
ARC
  5
71E
330
2
100
AcDbEntity
  8
0
100
AcDbCircle
 10
276.0641353714868
 20
137.4072887351093
 30
0.0
 40
5.0
100
AcDbArc
 50
0.0
 51
54.95090099999998
  0
ARC
  5
71F
330
2
100
AcDbEntity
  8
0
100
AcDbCircle
 10
410.9203000349315
 20
160.8960497351093
 30
0.0
 40
2.0
100
AcDbArc
 50
91.00064099999967
 51
180.0
  0
LINE
  5
720
330
2
100
AcDbEntity
  8
0
100
AcDbLine
 10
395.9203000349314
 20
122.5074087351093
 30
0.0
 11
371.9203000349314
 21
122.5074087351093
 31
0.0
  0
LINE
  5
721
330
2
100
AcDbEntity
  8
0
100
AcDbLine
 10
395.9203000349314
 20
128.5074087351093
 30
0.0
 11
371.9203000349314
 21
128.5074087351093
 31
0.0
  0
LINE
  5
722
330
2
100
AcDbEntity
  8
0
100
AcDbLine
 10
401.9203000349314
 20
116.5074087351093
 30
0.0
 11
371.9203000349314
 21
116.5074087351093
 31
0.0
  0
LINE
  5
723
330
2
100
AcDbEntity
  8
0
100
AcDbLine
 10
401.9203000349314
 20
134.5074087351093
 30
0.0
 11
371.9203000349314
 21
134.5074087351093
 31
0.0
  0
LINE
  5
724
330
2
100
AcDbEntity
  8
0
100
AcDbLine
 10
371.9203000349314
 20
116.5074087351093
 30
0.0
 11
371.9203000349314
 21
134.5074087351093
 31
0.0
  0
LINE
  5
725
330
2
100
AcDbEntity
  8
0
100
AcDbLine
 10
401.9203000349314
 20
135.5074087351093
 30
0.0
 11
401.9203000349314
 21
115.5074087351093
 31
0.0
  0
ARC
  5
726
330
2
100
AcDbEntity
  8
0
100
AcDbCircle
 10
395.9203000349314
 20
125.5074087351093
 30
0.0
 40
3.0
100
AcDbArc
 50
270.0
 51
90.0
  0
LINE
  5
727
330
2
100
AcDbEntity
  8
0
100
AcDbLine
 10
403.9203000349314
 20
115.5074087351093
 30
0.0
 11
401.9203000349314
 21
115.5074087351093
 31
0.0
  0
ARC
  5
728
330
2
100
AcDbEntity
  8
0
100
AcDbCircle
 10
404.9203000349314
 20
148.0073937351093
 30
0.0
 40
1.0
100
AcDbArc
 50
90.0
 51
180.0
  0
LINE
  5
729
330
2
100
AcDbEntity
  8
0
100
AcDbLine
 10
403.9203000349314
 20
135.5074087351093
 30
0.0
 11
401.9203000349314
 21
135.5074087351093
 31
0.0
  0
LINE
  5
72A
330
2
100
AcDbEntity
  8
0
100
AcDbLine
 10
404.9203000349314
 20
149.0074087351093
 30
0.0
 11
406.9203000349315
 21
149.0074087351093
 31
0.0
  0
ARC
  5
72B
330
2
100
AcDbEntity
  8
0
100
AcDbCircle
 10
406.9203000349315
 20
151.0074087351093
 30
0.0
 40
2.0
100
AcDbArc
 50
270.0
 51
0.0
  0
LINE
  5
72C
330
2
100
AcDbEntity
  8
0
100
AcDbLine
 10
492.9203000349314
 20
125.9079067351093
 30
0.0
 11
492.9203000349314
 21
73.70688673510932
 31
0.0
  0
ARC
  5
72D
330
2
100
AcDbEntity
  8
0
100
AcDbCircle
 10
445.9203000349314
 20
99.80740773510934
 30
0.0
 40
45.0
100
AcDbArc
 50
325.3078919999996
 51
20.43779900000008
  0
LINE
  5
72E
330
2
100
AcDbEntity
  8
0
100
AcDbLine
 10
487.9203000349314
 20
103.0074047351093
 30
0.0
 11
487.9203000349314
 21
148.0074087351093
 31
0.0
  0
LINE
  5
72F
330
2
100
AcDbEntity
  8
0
100
AcDbLine
 10
482.9203000349314
 20
62.50740673510932
 30
0.0
 11
482.9203000349314
 21
160.8961647351093
 31
0.0
  0
LINE
  5
730
330
2
100
AcDbEntity
  8
CENTER
100
AcDbLine
 10
445.9203000349314
 20
43.50740673510933
 30
0.0
 11
445.9203000349314
 21
182.6949027351093
 31
0.0
  0
LINE
  5
731
330
2
100
AcDbEntity
  8
0
100
AcDbLine
 10
490.8700980349316
 20
68.75715673510933
 30
0.0
 11
483.2509880349315
 21
61.13807673510933
 31
0.0
  0
LINE
  5
732
330
2
100
AcDbEntity
  8
0
100
AcDbLine
 10
485.9203000349315
 20
59.50740673510932
 30
0.0
 11
501.9203000349314
 21
59.50740673510932
 31
0.0
  0
LINE
  5
733
330
2
100
AcDbEntity
  8
HIDS
  6
SEKKEI_H
100
AcDbLine
 10
489.6703000349314
 20
59.50740673510932
 30
0.0
 11
489.6703000349314
 21
50.50740673510933
 31
0.0
  0
ARC
  5
734
330
2
100
AcDbEntity
  8
0
100
AcDbCircle
 10
485.9203000349315
 20
62.50740673510932
 30
0.0
 40
3.0
100
AcDbArc
 50
180.0
 51
270.0
  0
LINE
  5
735
330
2
100
AcDbEntity
  8
0
100
AcDbLine
 10
486.9203000349314
 20
102.0074047351093
 30
0.0
 11
484.9203000349314
 21
102.0074047351093
 31
0.0
  0
ARC
  5
736
330
2
100
AcDbEntity
  8
0
100
AcDbCircle
 10
484.9203000349314
 20
100.0074127351093
 30
0.0
 40
2.0
100
AcDbArc
 50
90.0
 51
180.0
  0
ARC
  5
737
330
2
100
AcDbEntity
  8
0
100
AcDbCircle
 10
486.9203000349314
 20
103.0074017351093
 30
0.0
 40
1.0
100
AcDbArc
 50
270.0
 51
0.0
  0
LINE
  5
738
330
2
100
AcDbEntity
  8
HIDS
  6
SEKKEI_H
100
AcDbLine
 10
498.1703000349314
 20
59.50740673510932
 30
0.0
 11
498.1703000349314
 21
50.50740673510933
 31
0.0
  0
LINE
  5
739
330
2
100
AcDbEntity
  8
CENTER
100
AcDbLine
 10
493.9203000349315
 20
63.00740673510933
 30
0.0
 11
493.9203000349315
 21
47.00740673510932
 31
0.0
  0
LINE
  5
73A
330
2
100
AcDbEntity
  8
0
100
AcDbLine
 10
503.9203000349314
 20
57.50740673510932
 30
0.0
 11
503.9203000349314
 21
50.50740673510933
 31
0.0
  0
ARC
  5
73B
330
2
100
AcDbEntity
  8
0
100
AcDbCircle
 10
501.9203000349314
 20
57.50739673510935
 30
0.0
 40
2.0
100
AcDbArc
 50
0.0
 51
90.0
  0
ARC
  5
73C
330
2
100
AcDbEntity
  8
0
100
AcDbCircle
 10
485.9203000349315
 20
73.70686573510934
 30
0.0
 40
7.0
100
AcDbArc
 50
315.0004010000003
 51
0.0
  0
LINE
  5
73D
330
2
100
AcDbEntity
  8
0
100
AcDbLine
 10
490.8699760349314
 20
130.8576587351093
 30
0.0
 11
487.9203000349314
 21
133.8073887351093
 31
0.0
  0
ARC
  5
73E
330
2
100
AcDbEntity
  8
0
100
AcDbCircle
 10
480.9203000349314
 20
160.8961647351093
 30
0.0
 40
2.0
100
AcDbArc
 50
0.0
 51
89.00013700000007
  0
ARC
  5
73F
330
2
100
AcDbEntity
  8
0
100
AcDbCircle
 10
486.9203000349314
 20
148.0073937351093
 30
0.0
 40
1.0
100
AcDbArc
 50
0.0
 51
90.0
  0
LINE
  5
740
330
2
100
AcDbEntity
  8
0
100
AcDbLine
 10
486.9203000349314
 20
149.0074087351093
 30
0.0
 11
484.9203000349314
 21
149.0074087351093
 31
0.0
  0
ARC
  5
741
330
2
100
AcDbEntity
  8
0
100
AcDbCircle
 10
484.9203000349314
 20
151.0074087351093
 30
0.0
 40
2.0
100
AcDbArc
 50
180.0
 51
270.0
  0
LINE
  5
742
330
2
100
AcDbEntity
  8
0
100
AcDbLine
 10
445.9203000349314
 20
163.5074087351093
 30
0.0
 11
480.9551810349315
 21
162.8958747351093
 31
0.0
  0
ARC
  5
743
330
2
100
AcDbEntity
  8
0
100
AcDbCircle
 10
485.9203000349315
 20
125.9078837351093
 30
0.0
 40
7.0
100
AcDbArc
 50
0.0
 51
45.00022900000016
  0
LINE
  5
744
330
2
100
AcDbEntity
  8
0
100
AcDbLine
 10
280.2232543714868
 20
390.3884519047529
 30
0.0
 11
281.0641353714868
 21
342.2139519047528
 31
0.0
  0
ARC
  5
745
330
2
100
AcDbEntity
  8
0
100
AcDbCircle
 10
270.2247653714868
 20
294.2139369047529
 30
0.0
 40
10.0
100
AcDbArc
 50
270.0
 51
358.9999999999998
  0
LINE
  5
747
330
2
100
AcDbEntity
  8
0
100
AcDbLine
 10
280.2232543714868
 20
294.0394219047528
 30
0.0
 11
281.0641353714868
 21
342.2139519047528
 31
0.0
  0
ARC
  5
748
330
2
100
AcDbEntity
  8
0
100
AcDbCircle
 10
278.4528993714868
 20
307.2139369047529
 30
0.0
 40
2.0
100
AcDbArc
 50
270.0
 51
358.9999999999998
  0
CIRCLE
  5
749
330
2
100
AcDbEntity
  8
0
100
AcDbCircle
 10
268.5641353714868
 20
294.2139369047529
 30
0.0
 40
4.25
  0
ARC
  5
74B
330
2
100
AcDbEntity
  8
0
100
AcDbCircle
 10
270.2247653714868
 20
390.2139519047528
 30
0.0
 40
10.0
100
AcDbArc
 50
1.000000000000147
 51
90.0
  0
LINE
  5
74C
330
2
100
AcDbEntity
  8
CENTER
100
AcDbLine
 10
268.5641353714868
 20
398.7233209047528
 30
0.0
 11
268.5641353714868
 21
381.7045829047529
 31
0.0
  0
ARC
  5
74D
330
2
100
AcDbEntity
  8
0
100
AcDbCircle
 10
278.4528993714868
 20
377.2139519047529
 30
0.0
 40
2.0
100
AcDbArc
 50
1.000000000000147
 51
90.0
  0
CIRCLE
  5
74E
330
2
100
AcDbEntity
  8
0
100
AcDbCircle
 10
268.5641353714868
 20
390.2139519047528
 30
0.0
 40
4.25
  0
LINE
  5
87C
330
2
100
AcDbEntity
  8
CENTER
100
AcDbLine
 10
192.5641353714868
 20
398.7233209047528
 30
0.0
 11
192.5641353714868
 21
381.7045829047529
 31
0.0
  0
LINE
  5
87D
330
2
100
AcDbEntity
  8
CENTER
100
AcDbLine
 10
184.0547663714868
 20
390.2139519047528
 30
0.0
 11
201.0735043714868
 21
390.2139519047528
 31
0.0
  0
LINE
  5
87E
330
2
100
AcDbEntity
  8
CENTER
100
AcDbLine
 10
192.5641353714868
 20
302.7233059047529
 30
0.0
 11
192.5641353714868
 21
285.7045679047529
 31
0.0
  0
LINE
  5
87F
330
2
100
AcDbEntity
  8
CENTER
100
AcDbLine
 10
184.0547663714868
 20
294.2139369047529
 30
0.0
 11
201.0735043714868
 21
294.2139369047529
 31
0.0
  0
LINE
  5
880
330
2
100
AcDbEntity
  8
CENTER
100
AcDbLine
 10
268.5641353714868
 20
302.7233059047529
 30
0.0
 11
268.5641353714868
 21
285.7045679047529
 31
0.0
  0
LINE
  5
881
330
2
100
AcDbEntity
  8
CENTER
100
AcDbLine
 10
260.0547663714868
 20
294.2139369047529
 30
0.0
 11
277.0735043714868
 21
294.2139369047529
 31
0.0
  0
TEXT
  5
897
330
2
100
AcDbEntity
  8
TITLE
100
AcDbText
 10
409.281424090862
 20
318.8607460218014
 30
0.0
 40
5.0
  1
HLMN-18R-10~240-S90WT
 41
0.8
100
AcDbText
  0
TEXT
  5
898
330
2
100
AcDbEntity
  8
TITLE
100
AcDbText
 10
409.281424090862
 20
326.8607460218015
 30
0.0
 40
5.0
  1
HLMN-18R-10~240-S90T
 41
0.8
100
AcDbText
  0
TEXT
  5
899
330
2
100
AcDbEntity
  8
TITLE
100
AcDbText
 10
409.281424090862
 20
334.8607460218015
 30
0.0
 40
5.0
  1
HLMN-18R-10~240-S60WT
 41
0.8
100
AcDbText
  0
TEXT
  5
89A
330
2
100
AcDbEntity
  8
TITLE
100
AcDbText
 10
409.281424090862
 20
342.8607460218015
 30
0.0
 40
5.0
  1
HLMN-18R-10~240-S60T
 41
0.8
100
AcDbText
  0
TEXT
  5
89B
330
2
100
AcDbEntity
  8
TITLE
100
AcDbText
 10
409.281424090862
 20
350.8607460218015
 30
0.0
 40
5.0
  1
HLMN-18R-160~240-S40WT
 41
0.8
100
AcDbText
  0
TEXT
  5
89C
330
2
100
AcDbEntity
  8
TITLE
100
AcDbText
 10
409.281424090862
 20
358.8607460218014
 30
0.0
 40
5.0
  1
HLMN-18R-160~240-S40T
 41
0.8
100
AcDbText
  0
TEXT
  5
89D
330
2
100
AcDbEntity
  8
TITLE
100
AcDbText
 10
311.5902749313753
 20
318.8607460218014
 30
0.0
 40
5.0
  1
HLMN-18R-10~240-T90WT
 41
0.8
100
AcDbText
  0
TEXT
  5
89E
330
2
100
AcDbEntity
  8
TITLE
100
AcDbText
 10
311.5902749313753
 20
342.8607460218015
 30
0.0
 40
5.0
  1
HLMN-18R-80~240-T60T
 41
0.8
100
AcDbText
  0
TEXT
  5
89F
330
2
100
AcDbEntity
  8
TITLE
100
AcDbText
 10
311.5902749313753
 20
350.8607460218015
 30
0.0
 40
5.0
  1
HLMN-18R-160~240-T40WT
 41
0.8
100
AcDbText
  0
TEXT
  5
8A0
330
2
100
AcDbEntity
  8
TITLE
100
AcDbText
 10
311.5902749313753
 20
358.8607460218014
 30
0.0
 40
5.0
  1
HLMN-18R-160~240-T40T
 41
0.8
100
AcDbText
  0
TEXT
  5
8A1
330
2
100
AcDbEntity
  8
TITLE
100
AcDbText
 10
311.5902749313753
 20
326.8607460218015
 30
0.0
 40
5.0
  1
HLMN-18R-10~240-T90T
 41
0.8
100
AcDbText
  0
TEXT
  5
8A2
330
2
100
AcDbEntity
  8
TITLE
100
AcDbText
 10
311.5902749313753
 20
334.8607460218015
 30
0.0
 40
5.0
  1
HLMN-18R-10~240-T60WT
 41
0.8
100
AcDbText
  0
LINE
  5
1D17
330
2
100
AcDbEntity
  8
0
100
AcDbLine
 10
148.5641283714868
 20
176.3074027351093
 30
0.0
 11
148.5641283714868
 21
148.3074047351093
 31
0.0
  0
LINE
  5
1D18
330
2
100
AcDbEntity
  8
CENTER
100
AcDbLine
 10
123.5641283714868
 20
141.6137037351093
 30
0.0
 11
123.5641283714868
 21
182.6949027351093
 31
0.0
  0
LINE
  5
1D19
330
2
100
AcDbEntity
  8
0
100
AcDbLine
 10
98.56412137148687
 20
176.3074027351093
 30
0.0
 11
98.56412137148687
 21
148.3074047351093
 31
0.0
  0
LINE
  5
1D1A
330
2
100
AcDbEntity
  8
0
100
AcDbLine
 10
100.0641213714868
 20
146.3074047351093
 30
0.0
 11
146.5641283714868
 21
146.3074047351093
 31
0.0
  0
LINE
  5
1D1B
330
2
100
AcDbEntity
  8
0
100
AcDbLine
 10
98.56412137148687
 20
148.3074047351093
 30
0.0
 11
148.5641283714868
 21
148.3074047351093
 31
0.0
  0
LINE
  5
1D1D
330
2
100
AcDbEntity
  8
0
100
AcDbLine
 10
98.56412137148687
 20
148.3074047351093
 30
0.0
 11
100.5641213714868
 21
146.3074047351093
 31
0.0
  0
LINE
  5
1D1E
330
2
100
AcDbEntity
  8
0
100
AcDbLine
 10
100.0641213714868
 20
146.3074047351093
 30
0.0
 11
100.0641213714868
 21
144.8074047351093
 31
0.0
  0
LINE
  5
1D20
330
2
100
AcDbEntity
  8
0
100
AcDbLine
 10
146.5641283714868
 20
146.3074047351093
 30
0.0
 11
148.5641283714868
 21
148.3074047351093
 31
0.0
  0
LINE
  5
1D21
330
2
100
AcDbEntity
  8
0
100
AcDbLine
 10
146.0641283714868
 20
146.3074047351093
 30
0.0
 11
146.0641283714868
 21
144.8074047351093
 31
0.0
  0
LINE
  5
1D22
330
2
100
AcDbEntity
  8
0
100
AcDbLine
 10
106.0641218000578
 20
176.8074027351092
 30
0.0
 11
105.009105761107
 21
176.8074027351092
 31
0.0
  0
LINE
  5
1D23
330
2
100
AcDbEntity
  8
0
100
AcDbLine
 10
106.0641218000578
 20
174.8074027351092
 30
0.0
 11
98.56412180005783
 21
174.8074027351092
 31
0.0
  0
ARC
  5
1D24
330
2
100
AcDbEntity
  8
0
100
AcDbCircle
 10
104.1711391250797
 20
175.8135154593555
 30
0.0
 40
1.3
100
AcDbArc
 50
5.000000000000026
 51
74.11914999172243
  0
LINE
  5
1D26
330
2
100
AcDbEntity
  8
0
100
AcDbLine
 10
103.4020371875123
 20
177.3074027351093
 30
0.0
 11
147.5641283714868
 21
177.3074027351093
 31
0.0
  0
LINE
  5
1D27
330
2
100
AcDbEntity
  8
0
100
AcDbLine
 10
96.56412137148686
 20
158.3074047351093
 30
0.0
 11
148.5641283714868
 21
158.3074047351093
 31
0.0
  0
LINE
  5
1D28
330
2
100
AcDbEntity
  8
CENTER
100
AcDbLine
 10
90.62037237148684
 20
167.8074027351093
 30
0.0
 11
152.5164313352249
 21
167.8074027351093
 31
0.0
  0
LINE
  5
1D29
330
2
100
AcDbEntity
  8
0
100
AcDbLine
 10
96.56413637148682
 20
174.3074027351093
 30
0.0
 11
96.56412137148686
 21
158.3074047351093
 31
0.0
  0
LINE
  5
1D2A
330
2
100
AcDbEntity
  8
0
100
AcDbLine
 10
93.06413637148683
 20
171.8074027351093
 30
0.0
 11
93.06413637148683
 21
163.8074027351093
 31
0.0
  0
LINE
  5
1D2B
330
2
100
AcDbEntity
  8
0
100
AcDbLine
 10
93.06412137148686
 20
163.8074027351093
 30
0.0
 11
96.56412137148686
 21
162.3074027351093
 31
0.0
  0
LINE
  5
1D2C
330
2
100
AcDbEntity
  8
0
100
AcDbLine
 10
93.06413637148683
 20
171.8074027351093
 30
0.0
 11
96.56413637148682
 21
173.3074027351093
 31
0.0
  0
LINE
  5
1D2D
330
2
100
AcDbEntity
  8
0
100
AcDbLine
 10
97.56412137148686
 20
175.3074027351093
 30
0.0
 11
98.56412137148687
 21
175.3074027351093
 31
0.0
  0
ARC
  5
1D2E
330
2
100
AcDbEntity
  8
0
100
AcDbCircle
 10
97.56413637148682
 20
174.3074027351093
 30
0.0
 40
1.0
100
AcDbArc
 50
90.0
 51
180.0
  0
ARC
  5
1D2F
330
2
100
AcDbEntity
  8
0
100
AcDbCircle
 10
102.0641283714869
 20
168.4074027351092
 30
0.0
 40
9.0
100
AcDbArc
 50
74.11914999172243
 51
105.8808500082775
  0
LINE
  5
1D30
330
2
100
AcDbEntity
  8
0
100
AcDbLine
 10
100.0343885483229
 20
176.9598442724868
 30
0.0
 11
100.0141283714868
 21
177.1708210179484
 31
0.0
  0
LINE
  5
1D31
330
2
100
AcDbEntity
  8
0
100
AcDbLine
 10
99.56412137148687
 20
177.3074027351093
 30
0.0
 11
100.7262195554615
 21
177.3074027351093
 31
0.0
  0
LINE
  5
1D32
330
2
100
AcDbEntity
  8
0
100
AcDbLine
 10
104.093868194651
 20
176.9598442724868
 30
0.0
 11
104.114128371487
 21
177.1708210179484
 31
0.0
  0
LINE
  5
1D33
330
2
100
AcDbEntity
  8
0
100
AcDbLine
 10
98.56412837148695
 20
174.8074027351092
 30
0.0
 11
98.66206451037477
 21
175.9268179249275
 31
0.0
  0
LINE
  5
1D34
330
2
100
AcDbEntity
  8
0
100
AcDbLine
 10
102.3516283719419
 20
175.8904027351092
 30
0.0
 11
101.7766283710319
 21
175.8904027351092
 31
0.0
  0
SPLINE
  5
1D35
330
2
100
AcDbEntity
  8
0
100
AcDbSpline
210
0.0
220
0.0
230
1.0
 70
     8
 71
     3
 72
    11
 73
     7
 74
     0
 42
0.0000000001
 43
0.0000000001
 40
0.0
 40
0.0
 40
0.0
 40
0.0
 40
0.4601364636755307
 40
1.04988694485363
 40
1.713742833862792
 40
2.320347933405154
 40
2.320347933405154
 40
2.320347933405154
 40
2.320347933405179
 10
101.7766283710319
 20
175.8904027351092
 30
0.0
 10
101.754210713924
 20
176.0454261747891
 30
0.0
 10
101.7030606586907
 20
176.3991409927067
 30
0.0
 10
101.2671754971571
 20
176.8238686643083
 30
0.0
 10
100.6621247821498
 20
177.0430558442741
 30
0.0
 10
100.2369401579738
 20
176.9740645446635
 30
0.0
 10
100.0343885483229
 20
176.9598442724868
 30
0.0
  0
ARC
  5
1D36
330
2
100
AcDbEntity
  8
0
100
AcDbCircle
 10
99.95711761789392
 20
175.8135154593555
 30
0.0
 40
1.3
100
AcDbArc
 50
105.8808500082775
 51
174.9999999999999
  0
LINE
  5
1D37
330
2
100
AcDbEntity
  8
0
100
AcDbLine
 10
99.56412180005782
 20
177.3074027351092
 30
0.0
 11
98.56412137148687
 21
176.3074027351093
 31
0.0
  0
LINE
  5
1D38
330
2
100
AcDbEntity
  8
0
100
AcDbLine
 10
98.56412137148687
 20
176.3074027351093
 30
0.0
 11
99.56412137148687
 21
177.3074027351093
 31
0.0
  0
SPLINE
  5
1D39
330
2
100
AcDbEntity
  8
0
100
AcDbSpline
210
0.0
220
0.0
230
1.0
 70
     8
 71
     3
 72
    11
 73
     7
 74
     0
 42
0.0000000001
 43
0.0000000001
 40
0.0
 40
0.0
 40
0.0
 40
0.0
 40
0.4601364636755307
 40
1.04988694485363
 40
1.713742833862792
 40
2.320347933405154
 40
2.320347933405154
 40
2.320347933405154
 40
2.320347933405179
 10
102.3516283719419
 20
175.8904027351092
 30
0.0
 10
102.3740460290498
 20
176.0454261747891
 30
0.0
 10
102.4251960842831
 20
176.3991409927067
 30
0.0
 10
102.8610812458167
 20
176.8238686643083
 30
0.0
 10
103.4661319608241
 20
177.0430558442741
 30
0.0
 10
103.891316585
 20
176.9740645446635
 30
0.0
 10
104.093868194651
 20
176.9598442724868
 30
0.0
  0
LINE
  5
1D3A
330
2
100
AcDbEntity
  8
0
100
AcDbLine
 10
106.0641218000578
 20
176.3074027351093
 30
0.0
 11
148.5641353714869
 21
176.3074027351093
 31
0.0
  0
LINE
  5
1D3B
330
2
100
AcDbEntity
  8
0
100
AcDbLine
 10
105.5641283714868
 20
174.8074027351092
 30
0.0
 11
105.466192232599
 21
175.9268179249275
 31
0.0
  0
LINE
  5
1D3C
330
2
100
AcDbEntity
  8
0
100
AcDbLine
 10
106.0641218000578
 20
174.8074027351092
 30
0.0
 11
106.0641218000578
 21
176.8074027351092
 31
0.0
  0
LINE
  5
1D3D
330
2
100
AcDbEntity
  8
0
100
AcDbLine
 10
106.5641218000578
 20
177.3074027351092
 30
0.0
 11
106.0641218000578
 21
176.8074027351092
 31
0.0
  0
LINE
  5
1D3E
330
2
100
AcDbEntity
  8
0
100
AcDbLine
 10
147.5641353714869
 20
177.3074027351093
 30
0.0
 11
148.5641353714869
 21
176.3074027351093
 31
0.0
  0
LINE
  5
1D3F
330
2
100
AcDbEntity
  8
0
100
AcDbLine
 10
470.9202850349314
 20
176.3074027351093
 30
0.0
 11
470.9202850349314
 21
163.0710338883675
 31
0.0
  0
LINE
  5
1D40
330
2
100
AcDbEntity
  8
0
100
AcDbLine
 10
420.9203000349314
 20
176.3074027351093
 30
0.0
 11
420.9203000349313
 21
163.0709362530319
 31
0.0
  0
LINE
  5
1D49
330
2
100
AcDbEntity
  8
0
100
AcDbLine
 10
421.9203000349314
 20
177.3074027351093
 30
0.0
 11
466.0823912189053
 21
177.3074027351093
 31
0.0
  0
LINE
  5
1D4B
330
2
100
AcDbEntity
  8
0
100
AcDbLine
 10
420.9203000349314
 20
176.3074027351093
 30
0.0
 11
463.4202850349315
 21
176.3074027351093
 31
0.0
  0
LINE
  5
1D4C
330
2
100
AcDbEntity
  8
CENTER
100
AcDbLine
 10
415.8766930537229
 20
167.8074027351093
 30
0.0
 11
475.96390701614
 21
167.8074027351093
 31
0.0
  0
LINE
  5
1D4D
330
2
100
AcDbEntity
  8
0
100
AcDbLine
 10
421.9203000349314
 20
177.3074027351093
 30
0.0
 11
420.9203000349314
 21
176.3074027351093
 31
0.0
  0
ARC
  5
1D4E
330
2
100
AcDbEntity
  8
0
100
AcDbCircle
 10
467.4203000349314
 20
168.4074027351093
 30
0.0
 40
9.0
100
AcDbArc
 50
74.11914999172243
 51
105.8808500082775
  0
LINE
  5
1D4F
330
2
100
AcDbEntity
  8
0
100
AcDbLine
 10
463.4202850349315
 20
174.8074027351093
 30
0.0
 11
470.9202850349314
 21
174.8074027351094
 31
0.0
  0
SPLINE
  5
1D50
330
2
100
AcDbEntity
  8
0
100
AcDbSpline
210
0.0
220
0.0
230
1.0
 70
     8
 71
     3
 72
    11
 73
     7
 74
     0
 42
0.0000000001
 43
0.0000000001
 40
0.0
 40
0.0
 40
0.0
 40
0.0
 40
0.4601364636755307
 40
1.04988694485363
 40
1.713742833862792
 40
2.320347933405154
 40
2.320347933405154
 40
2.320347933405154
 40
2.320347933405179
 10
467.7078000353866
 20
175.8904027351094
 30
0.0
 10
467.7302176924944
 20
176.0454261747892
 30
0.0
 10
467.7813677477277
 20
176.3991409927067
 30
0.0
 10
468.2172529092612
 20
176.8238686643084
 30
0.0
 10
468.8223036242687
 20
177.0430558442743
 30
0.0
 10
469.2474882484445
 20
176.9740645446636
 30
0.0
 10
469.4500398580956
 20
176.9598442724869
 30
0.0
  0
LINE
  5
1D51
330
2
100
AcDbEntity
  8
0
100
AcDbLine
 10
465.3905602117673
 20
176.9598442724869
 30
0.0
 11
465.3703000349315
 21
177.1708210179485
 31
0.0
  0
LINE
  5
1D52
330
2
100
AcDbEntity
  8
0
100
AcDbLine
 10
462.9202850349314
 20
177.3074027351093
 30
0.0
 11
463.4202850349315
 21
176.8074027351093
 31
0.0
  0
LINE
  5
1D53
330
2
100
AcDbEntity
  8
0
100
AcDbLine
 10
463.4202850349315
 20
176.8074027351093
 30
0.0
 11
464.4753226453111
 21
176.8074027351093
 31
0.0
  0
LINE
  5
1D54
330
2
100
AcDbEntity
  8
0
100
AcDbLine
 10
467.7078000353866
 20
175.8904027351094
 30
0.0
 11
467.1328000344765
 21
175.8904027351094
 31
0.0
  0
LINE
  5
1D55
330
2
100
AcDbEntity
  8
0
100
AcDbLine
 10
463.9203000349314
 20
174.8074027351094
 30
0.0
 11
464.0182361738194
 21
175.9268179249277
 31
0.0
  0
ARC
  5
1D56
330
2
100
AcDbEntity
  8
0
100
AcDbCircle
 10
465.3132892813385
 20
175.8135154593556
 30
0.0
 40
1.3
100
AcDbArc
 50
105.8808500082775
 51
174.9999999999999
  0
LINE
  5
1D57
330
2
100
AcDbEntity
  8
0
100
AcDbLine
 10
463.4202850349315
 20
174.8074027351093
 30
0.0
 11
463.4202850349315
 21
176.8074027351094
 31
0.0
  0
SPLINE
  5
1D58
330
2
100
AcDbEntity
  8
0
100
AcDbSpline
210
0.0
220
0.0
230
1.0
 70
     8
 71
     3
 72
    11
 73
     7
 74
     0
 42
0.0000000001
 43
0.0000000001
 40
0.0
 40
0.0
 40
0.0
 40
0.0
 40
0.4601364636755307
 40
1.04988694485363
 40
1.713742833862792
 40
2.320347933405154
 40
2.320347933405154
 40
2.320347933405154
 40
2.320347933405179
 10
467.1328000344765
 20
175.8904027351094
 30
0.0
 10
467.1103823773686
 20
176.0454261747892
 30
0.0
 10
467.0592323221354
 20
176.3991409927067
 30
0.0
 10
466.6233471606018
 20
176.8238686643084
 30
0.0
 10
466.0182964455943
 20
177.0430558442743
 30
0.0
 10
465.5931118214184
 20
176.9740645446636
 30
0.0
 10
465.3905602117673
 20
176.9598442724869
 30
0.0
  0
LINE
  5
1D59
330
2
100
AcDbEntity
  8
0
100
AcDbLine
 10
468.7582088509577
 20
177.3074027351093
 30
0.0
 11
469.9202850349315
 21
177.3074027351093
 31
0.0
  0
LINE
  5
1D5A
330
2
100
AcDbEntity
  8
0
100
AcDbLine
 10
469.4500398580956
 20
176.9598442724869
 30
0.0
 11
469.4703000349315
 21
177.1708210179485
 31
0.0
  0
LINE
  5
1D5B
330
2
100
AcDbEntity
  8
0
100
AcDbLine
 10
470.9203000349314
 20
174.8074027351094
 30
0.0
 11
470.8223638960435
 21
175.9268179249277
 31
0.0
  0
ARC
  5
1D5C
330
2
100
AcDbEntity
  8
0
100
AcDbCircle
 10
469.5273107885244
 20
175.8135154593556
 30
0.0
 40
1.3
100
AcDbArc
 50
5.000000000000026
 51
74.11914999172243
  0
LINE
  5
1D5D
330
2
100
AcDbEntity
  8
0
100
AcDbLine
 10
469.9202850349315
 20
177.3074027351093
 30
0.0
 11
470.9202850349314
 21
176.3074027351093
 31
0.0
  0
LINE
  5
1D5E
330
2
100
AcDbEntity
  8
0
100
AcDbLine
 10
146.5640213714868
 20
367.2139519047528
 30
0.0
 11
148.5640213714868
 21
365.2139519047528
 31
0.0
  0
LINE
  5
1D5F
330
2
100
AcDbEntity
  8
0
100
AcDbLine
 10
148.5640213714868
 20
365.2139519047528
 30
0.0
 11
146.5640213714868
 21
367.2139519047528
 31
0.0
  0
LINE
  5
1D60
330
2
100
AcDbEntity
  8
0
100
AcDbLine
 10
141.0640213714868
 20
363.7139519047528
 30
0.0
 11
141.0640213714868
 21
367.2139519047528
 31
0.0
  0
CIRCLE
  5
1D61
330
2
100
AcDbEntity
  8
0
100
AcDbCircle
 10
145.0642203714868
 20
363.7139519047528
 30
0.0
 40
3.500000000000028
  0
LINE
  5
1D62
330
2
100
AcDbEntity
  8
CENTER
100
AcDbLine
 10
123.5641283714868
 20
372.6031778488606
 30
0.0
 11
123.5641283714868
 21
311.4639519047528
 31
0.0
  0
LINE
  5
1D63
330
2
100
AcDbEntity
  8
0
100
AcDbLine
 10
98.56412137148687
 20
365.2139519047528
 30
0.0
 11
100.5641213714868
 21
367.2139519047528
 31
0.0
  0
CIRCLE
  5
1D64
330
2
100
AcDbEntity
  8
0
100
AcDbCircle
 10
102.0641513714867
 20
320.7139519047529
 30
0.0
 40
3.500000000000028
  0
LINE
  5
1D65
330
2
100
AcDbEntity
  8
0
100
AcDbLine
 10
100.5641213714868
 20
317.2139519047528
 30
0.0
 11
146.5640213714867
 21
317.2139519047528
 31
0.0
  0
LINE
  5
1D67
330
2
100
AcDbEntity
  8
0
100
AcDbLine
 10
100.9641223714868
 20
365.8139429047528
 30
0.0
 11
141.0640213714868
 21
365.8139429047528
 31
0.0
  0
ARC
  5
1D68
330
2
100
AcDbEntity
  8
0
100
AcDbCircle
 10
102.0641513714867
 20
320.7139519047529
 30
0.0
 40
4.0
100
AcDbArc
 50
0.0
 51
90.0
  0
ARC
  5
1D69
330
2
100
AcDbEntity
  8
0
100
AcDbCircle
 10
97.56412137148675
 20
335.7139519047529
 30
0.0
 40
1.0
100
AcDbArc
 50
180.0
 51
270.0
  0
LINE
  5
1D6A
330
2
100
AcDbEntity
  8
0
100
AcDbLine
 10
98.56412137148687
 20
365.2139519047528
 30
0.0
 11
98.56412137148687
 21
319.2139519047529
 31
0.0
  0
LINE
  5
1D6B
330
2
100
AcDbEntity
  8
0
100
AcDbLine
 10
99.96411537148686
 20
364.8139429047528
 30
0.0
 11
99.96412237148684
 21
324.7139519047529
 31
0.0
  0
LINE
  5
1D6C
330
2
100
AcDbEntity
  8
0
100
AcDbLine
 10
98.56412137148687
 20
319.2139519047529
 30
0.0
 11
100.5641213714868
 21
317.2139519047528
 31
0.0
  0
LINE
  5
1D6D
330
2
100
AcDbEntity
  8
0
100
AcDbLine
 10
98.56412137148687
 20
319.2139519047529
 30
0.0
 11
100.5641213714868
 21
317.2139519047528
 31
0.0
  0
ARC
  5
1D6E
330
2
100
AcDbEntity
  8
0
100
AcDbCircle
 10
100.0344513714868
 20
322.7436519047528
 30
0.0
 40
1.742199999999999
100
AcDbArc
 50
269.9986903345002
 51
0.0013096654997424
  0
LINE
  5
1D6F
330
2
100
AcDbEntity
  8
0
100
AcDbLine
 10
102.0641513714868
 20
324.7139519047529
 30
0.0
 11
98.5641513714869
 21
324.7139519047529
 31
0.0
  0
ARC
  5
1D70
330
2
100
AcDbEntity
  8
0
100
AcDbCircle
 10
102.0641513714867
 20
320.7139519047529
 30
0.0
 40
2.049999999999998
100
AcDbArc
 50
180.0
 51
188.0619600839816
  0
ARC
  5
1D71
330
2
100
AcDbEntity
  8
0
100
AcDbCircle
 10
102.0641513714867
 20
320.7139519047529
 30
0.0
 40
2.049999999999998
100
AcDbArc
 50
171.9380399160183
 51
180.0
  0
ARC
  5
1D72
330
2
100
AcDbEntity
  8
0
100
AcDbCircle
 10
104.0938513714869
 20
322.7436519047528
 30
0.0
 40
1.742199999999999
100
AcDbArc
 50
179.9986903345002
 51
270.0013096654932
  0
ARC
  5
1D73
330
2
100
AcDbEntity
  8
0
100
AcDbCircle
 10
102.0641513714867
 20
320.7139519047529
 30
0.0
 40
2.049999999999998
100
AcDbArc
 50
351.9380399160183
 51
0.0
  0
ARC
  5
1D74
330
2
100
AcDbEntity
  8
0
100
AcDbCircle
 10
102.0641513714867
 20
320.7139519047529
 30
0.0
 40
2.049999999999998
100
AcDbArc
 50
81.93803991601813
 51
90.0
  0
ARC
  5
1D75
330
2
100
AcDbEntity
  8
0
100
AcDbCircle
 10
102.0641513714867
 20
320.7139519047529
 30
0.0
 40
2.049999999999998
100
AcDbArc
 50
0.0
 51
8.061960083981649
  0
ARC
  5
1D76
330
2
100
AcDbEntity
  8
0
100
AcDbCircle
 10
102.0641513714867
 20
320.7139519047529
 30
0.0
 40
2.049999999999998
100
AcDbArc
 50
90.0
 51
98.06196008398188
  0
ARC
  5
1D77
330
2
100
AcDbEntity
  8
0
100
AcDbCircle
 10
102.0641513714867
 20
320.7139519047529
 30
0.0
 40
2.049999999999998
100
AcDbArc
 50
270.0
 51
278.0619600839818
  0
ARC
  5
1D78
330
2
100
AcDbEntity
  8
0
100
AcDbCircle
 10
102.0641513714867
 20
320.7139519047529
 30
0.0
 40
2.049999999999998
100
AcDbArc
 50
261.9380399160181
 51
270.0
  0
ARC
  5
1D79
330
2
100
AcDbEntity
  8
0
100
AcDbCircle
 10
100.0344513714868
 20
318.6842519047528
 30
0.0
 40
1.742199999999999
100
AcDbArc
 50
359.9986903345002
 51
90.00130966549322
  0
ARC
  5
1D7A
330
2
100
AcDbEntity
  8
0
100
AcDbCircle
 10
104.0938513714869
 20
318.6842519047528
 30
0.0
 40
1.742199999999999
100
AcDbArc
 50
89.99869033450025
 51
180.0013096654997
  0
LINE
  5
1D7B
330
2
100
AcDbEntity
  8
0
100
AcDbLine
 10
93.06412137148686
 20
344.2139519047529
 30
0.0
 11
93.06412137148686
 21
340.2139519047528
 31
0.0
  0
LINE
  5
1D7C
330
2
100
AcDbEntity
  8
0
100
AcDbLine
 10
96.56412137148686
 20
335.7139519047529
 30
0.0
 11
96.56412137148686
 21
348.7139519047528
 31
0.0
  0
LINE
  5
1D7D
330
2
100
AcDbEntity
  8
0
100
AcDbLine
 10
97.56412137148686
 20
334.7139519047528
 30
0.0
 11
98.56412137148687
 21
334.7139519047528
 31
0.0
  0
LINE
  5
1D7E
330
2
100
AcDbEntity
  8
0
100
AcDbLine
 10
96.56412137148686
 20
336.7139519047528
 30
0.0
 11
93.06412137148686
 21
340.2139519047528
 31
0.0
  0
LINE
  5
1D7F
330
2
100
AcDbEntity
  8
0
100
AcDbLine
 10
97.56412137148686
 20
349.7139519047529
 30
0.0
 11
98.56412137148687
 21
349.7139519047529
 31
0.0
  0
LINE
  5
1D80
330
2
100
AcDbEntity
  8
0
100
AcDbLine
 10
93.06412137148686
 20
344.2139519047529
 30
0.0
 11
96.56412137148686
 21
347.7139519047529
 31
0.0
  0
ARC
  5
1D81
330
2
100
AcDbEntity
  8
0
100
AcDbCircle
 10
97.56413637148682
 20
348.7139519047528
 30
0.0
 40
1.0
100
AcDbArc
 50
90.0
 51
180.0
  0
LINE
  5
1D82
330
2
100
AcDbEntity
  8
0
100
AcDbLine
 10
99.96411537148686
 20
364.8139429047528
 30
0.0
 11
100.9641223714868
 21
365.8139429047528
 31
0.0
  0
LINE
  5
1D83
330
2
100
AcDbEntity
  8
0
100
AcDbLine
 10
148.5640213714868
 20
365.2139519047528
 30
0.0
 11
148.5640213714867
 21
319.2139519047529
 31
0.0
  0
LINE
  5
1D84
330
2
100
AcDbEntity
  8
0
100
AcDbLine
 10
147.1642263714868
 20
319.6139459047528
 30
0.0
 11
147.1642263714868
 21
359.7139519047528
 31
0.0
  0
LINE
  5
1D85
330
2
100
AcDbEntity
  8
0
100
AcDbLine
 10
146.1642263714868
 20
318.6139459047528
 30
0.0
 11
106.0641213714868
 21
318.6139459047528
 31
0.0
  0
LINE
  5
1D86
330
2
100
AcDbEntity
  8
0
100
AcDbLine
 10
106.0641213714868
 20
320.7139519047529
 30
0.0
 11
106.0641213714868
 21
317.2141509047528
 31
0.0
  0
LINE
  5
1D87
330
2
100
AcDbEntity
  8
0
100
AcDbLine
 10
148.5642203714868
 20
319.2139519047529
 30
0.0
 11
146.5640213714867
 21
317.2139519047528
 31
0.0
  0
LINE
  5
1D88
330
2
100
AcDbEntity
  8
0
100
AcDbLine
 10
148.5640213714867
 20
319.2139519047529
 30
0.0
 11
146.5640213714867
 21
317.2139519047528
 31
0.0
  0
LINE
  5
1D89
330
2
100
AcDbEntity
  8
0
100
AcDbLine
 10
148.5640213714867
 20
319.2139519047529
 30
0.0
 11
146.5640213714867
 21
317.2139519047528
 31
0.0
  0
LINE
  5
1D8A
330
2
100
AcDbEntity
  8
0
100
AcDbLine
 10
146.1642263714868
 20
318.6139459047528
 30
0.0
 11
147.1642263714868
 21
319.6139459047528
 31
0.0
  0
ARC
  5
1D8B
330
2
100
AcDbEntity
  8
0
100
AcDbCircle
 10
145.0642203714868
 20
363.7139519047528
 30
0.0
 40
4.0
100
AcDbArc
 50
180.0
 51
270.0
  0
ARC
  5
1D8C
330
2
100
AcDbEntity
  8
0
100
AcDbCircle
 10
145.0642203714868
 20
363.7139519047528
 30
0.0
 40
2.049999999999998
100
AcDbArc
 50
171.9380399160183
 51
180.0
  0
ARC
  5
1D8D
330
2
100
AcDbEntity
  8
0
100
AcDbCircle
 10
147.093920371487
 20
365.7436519047528
 30
0.0
 40
1.742199999999999
100
AcDbArc
 50
179.9986903345002
 51
270.0013096654932
  0
ARC
  5
1D8E
330
2
100
AcDbEntity
  8
0
100
AcDbCircle
 10
145.0642203714868
 20
363.7139519047528
 30
0.0
 40
2.049999999999998
100
AcDbArc
 50
351.9380399160183
 51
0.0
  0
ARC
  5
1D8F
330
2
100
AcDbEntity
  8
0
100
AcDbCircle
 10
145.0642203714868
 20
363.7139519047528
 30
0.0
 40
2.049999999999998
100
AcDbArc
 50
0.0
 51
8.061960083981649
  0
ARC
  5
1D90
330
2
100
AcDbEntity
  8
0
100
AcDbCircle
 10
145.0642203714868
 20
363.7139519047528
 30
0.0
 40
2.049999999999998
100
AcDbArc
 50
81.93803991601813
 51
90.0
  0
ARC
  5
1D91
330
2
100
AcDbEntity
  8
0
100
AcDbCircle
 10
145.0642203714868
 20
363.7139519047528
 30
0.0
 40
2.049999999999998
100
AcDbArc
 50
90.0
 51
98.06196008398188
  0
ARC
  5
1D92
330
2
100
AcDbEntity
  8
0
100
AcDbCircle
 10
145.0642203714868
 20
363.7139519047528
 30
0.0
 40
2.049999999999998
100
AcDbArc
 50
270.0
 51
278.0619600839818
  0
ARC
  5
1D93
330
2
100
AcDbEntity
  8
0
100
AcDbCircle
 10
145.0642203714868
 20
363.7139519047528
 30
0.0
 40
2.049999999999998
100
AcDbArc
 50
261.9380399160181
 51
270.0
  0
LINE
  5
1D94
330
2
100
AcDbEntity
  8
0
100
AcDbLine
 10
145.0640213714868
 20
359.7139519047528
 30
0.0
 11
148.5640213714868
 21
359.7139519047528
 31
0.0
  0
ARC
  5
1D95
330
2
100
AcDbEntity
  8
0
100
AcDbCircle
 10
143.0345203714869
 20
361.6842519047528
 30
0.0
 40
1.742199999999999
100
AcDbArc
 50
359.9986903345002
 51
90.00130966549322
  0
ARC
  5
1D96
330
2
100
AcDbEntity
  8
0
100
AcDbCircle
 10
147.093920371487
 20
361.6842519047528
 30
0.0
 40
1.742199999999999
100
AcDbArc
 50
89.99869033450025
 51
180.0013096654997
  0
ARC
  5
1D97
330
2
100
AcDbEntity
  8
0
100
AcDbCircle
 10
143.0345203714869
 20
365.7436519047528
 30
0.0
 40
1.742199999999999
100
AcDbArc
 50
269.9986903345002
 51
0.0013096654997424
  0
ARC
  5
1D98
330
2
100
AcDbEntity
  8
0
100
AcDbCircle
 10
145.0642203714868
 20
363.7139519047528
 30
0.0
 40
2.049999999999998
100
AcDbArc
 50
180.0
 51
188.0619600839816
  0
LINE
  5
1D99
330
2
100
AcDbEntity
  8
0
100
AcDbLine
 10
100.5641213714868
 20
367.2139519047528
 30
0.0
 11
146.5640213714868
 21
367.2139519047528
 31
0.0
  0
LINE
  5
1E92
330
2
100
AcDbEntity
  8
0
100
AcDbLine
 10
98.06413537148683
 20
334.7139519047528
 30
0.0
 11
98.06413537148683
 21
295.2139369047529
 31
0.0
  0
ENDSEC
  0
SECTION
  2
OBJECTS
  0
DICTIONARY
  5
7
330
0
100
AcDbDictionary
  3
ACAD_GROUP
350
75
  3
ACAD_LAYOUT
350
61
  3
ACAD_MLINESTYLE
350
76
  3
ACAD_PLOTSETTINGS
350
77
  3
ACAD_PLOTSTYLENAME
350
6
  3
ACADDIM
350
480
  3
ACDBHEADERROUNDTRIPXREC
350
1F1A
  3
ACDBVARIABLEDICTIONARY
350
102
  3
DWGPROPS
350
3D2
  0
DICTIONARY
  5
1F3B
330
2
100
AcDbDictionary
280
     1
  3
ACAD_LAYOUTSELFREF
360
1F3C
  0
DICTIONARY
  5
1F3D
330
1F14
100
AcDbDictionary
280
     1
  3
ACAD_LAYOUTSELFREF
360
1F3E
  0
DICTIONARY
  5
75
102
{ACAD_REACTORS
330
7
102
}
330
7
100
AcDbDictionary
  0
DICTIONARY
  5
61
102
{ACAD_REACTORS
330
7
102
}
330
7
100
AcDbDictionary
  0
DICTIONARY
  5
76
102
{ACAD_REACTORS
330
7
102
}
330
7
100
AcDbDictionary
  3
STANDARD
350
78
  0
DICTIONARY
  5
77
102
{ACAD_REACTORS
330
7
102
}
330
7
100
AcDbDictionary
  0
ACDBDICTIONARYWDFLT
  5
6
102
{ACAD_REACTORS
330
7
102
}
330
7
100
AcDbDictionary
281
     1
  3
Normal
350
5
100
AcDbDictionaryWithDefault
340
5
  0
XRECORD
  5
480
102
{ACAD_REACTORS
330
7
102
}
330
7
100
AcDbXrecord
 90
   990106
  3

 60
     0
 61
     0
 62
     1
 63
     3
 64
     1
 65
     0
 66
     0
 67
     3
 68
     1
 69
     0
 70
     0
 71
     0
 72
     0
 40
0.0
170
     2
340
0
  0
DICTIONARY
  5
1F1A
102
{ACAD_REACTORS
330
7
102
}
330
7
100
AcDbDictionary
  3
CEPSNTYPE
350
1F24
  3
DIMSTYLEDATA
350
1F28
  3
FINGERPRINTGUID
350
1F25
  3
HYPERLINKBASE
350
1F1D
  3
INSUNITS
350
1F23
  3
LAYOUTDICT
350
1F1F
  3
LWETCUNION
350
1F22
  3
PLOTSETDICT
350
1F20
  3
PLOTSTYLNAMDICT
350
1F21
  3
PSVPSCALE
350
1F27
  3
PUCSBASE
350
1F2B
  3
PUCSORGBACK
350
1F31
  3
PUCSORGBOTTOM
350
1F2D
  3
PUCSORGFRONT
350
1F30
  3
PUCSORGLEFT
350
1F2E
  3
PUCSORGRIGHT
350
1F2F
  3
PUCSORGTOP
350
1F2C
  3
PUCSORTHOREF
350
1F29
  3
PUCSORTHOVIEW
350
1F2A
  3
STYLESHEET
350
1F1E
  3
TSTACKALIGN
350
1F1B
  3
TSTACKSIZE
350
1F1C
  3
UCSBASE
350
1F34
  3
UCSORGBACK
350
1F3A
  3
UCSORGBOTTOM
350
1F36
  3
UCSORGFRONT
350
1F39
  3
UCSORGLEFT
350
1F37
  3
UCSORGRIGHT
350
1F38
  3
UCSORGTOP
350
1F35
  3
UCSORTHOREF
350
1F32
  3
UCSORTHOVIEW
350
1F33
  3
VERSIONGUID
350
1F26
  0
DICTIONARY
  5
102
102
{ACAD_REACTORS
330
7
102
}
330
7
100
AcDbDictionary
  3
DIMASSOC
350
103
  0
XRECORD
  5
3D2
102
{ACAD_REACTORS
330
7
102
}
330
7
100
AcDbXrecord
  1
DWGPROPS COOKIE
  2

  3

  4

  6

  7

  8

  9

300
=
301
=
302
=
303
=
304
=
305
=
306
=
307
=
308
=
309
=
 40
0.5353330671296296
 41
2452052.431989363
 42
2453406.550756377
  1

 90
        0
  0
XRECORD
  5
1F3C
102
{ACAD_REACTORS
330
1F3B
102
}
330
1F3B
100
AcDbXrecord
340
2
  0
XRECORD
  5
1F3E
102
{ACAD_REACTORS
330
1F3D
102
}
330
1F3D
100
AcDbXrecord
340
1F14
  0
MLINESTYLE
  5
78
102
{ACAD_REACTORS
330
76
102
}
330
76
100
AcDbMlineStyle
  2
STANDARD
 70
     0
  3

 62
     0
 51
90.0
 52
90.0
 71
     2
 49
0.5
 62
   256
  6
BYLAYER
 49
-0.5
 62
   256
  6
BYLAYER
  0
ACDBPLACEHOLDER
  5
5
102
{ACAD_REACTORS
330
6
102
}
330
6
100
AcDbPlaceHolder
280
     0
  0
XRECORD
  5
1F24
102
{ACAD_REACTORS
330
1F1A
102
}
330
1F1A
100
AcDbXrecord
 90
        0
  0
XRECORD
  5
1F28
102
{ACAD_REACTORS
330
1F1A
102
}
330
1F1A
100
AcDbXrecord
1000
DSTYLE
1002
{
1070
   179
 70
     2
1070
   277
 70
     6
1002
}
  0
XRECORD
  5
1F25
102
{ACAD_REACTORS
330
1F1A
102
}
330
1F1A
100
AcDbXrecord
  1
{6385560B-F4B1-4644-A7C2-A3E32AC3D232}
  0
XRECORD
  5
1F1D
102
{ACAD_REACTORS
330
1F1A
102
}
330
1F1A
100
AcDbXrecord
  1

  0
XRECORD
  5
1F23
102
{ACAD_REACTORS
330
1F1A
102
}
330
1F1A
100
AcDbXrecord
 90
        0
  0
XRECORD
  5
1F1F
102
{ACAD_REACTORS
330
1F1A
102
}
330
1F1A
100
AcDbXrecord
340
61
  0
XRECORD
  5
1F22
102
{ACAD_REACTORS
330
1F1A
102
}
330
1F1A
100
AcDbXrecord
 90
    10781
  0
XRECORD
  5
1F20
102
{ACAD_REACTORS
330
1F1A
102
}
330
1F1A
100
AcDbXrecord
340
77
  0
XRECORD
  5
1F21
102
{ACAD_REACTORS
330
1F1A
102
}
330
1F1A
100
AcDbXrecord
340
6
  0
XRECORD
  5
1F27
102
{ACAD_REACTORS
330
1F1A
102
}
330
1F1A
100
AcDbXrecord
 40
0.0
  0
XRECORD
  5
1F2B
102
{ACAD_REACTORS
330
1F1A
102
}
330
1F1A
100
AcDbXrecord
340
0
  0
XRECORD
  5
1F31
102
{ACAD_REACTORS
330
1F1A
102
}
330
1F1A
100
AcDbXrecord
 10
0.0
 20
0.0
 30
0.0
  0
XRECORD
  5
1F2D
102
{ACAD_REACTORS
330
1F1A
102
}
330
1F1A
100
AcDbXrecord
 10
0.0
 20
0.0
 30
0.0
  0
XRECORD
  5
1F30
102
{ACAD_REACTORS
330
1F1A
102
}
330
1F1A
100
AcDbXrecord
 10
0.0
 20
0.0
 30
0.0
  0
XRECORD
  5
1F2E
102
{ACAD_REACTORS
330
1F1A
102
}
330
1F1A
100
AcDbXrecord
 10
0.0
 20
0.0
 30
0.0
  0
XRECORD
  5
1F2F
102
{ACAD_REACTORS
330
1F1A
102
}
330
1F1A
100
AcDbXrecord
 10
0.0
 20
0.0
 30
0.0
  0
XRECORD
  5
1F2C
102
{ACAD_REACTORS
330
1F1A
102
}
330
1F1A
100
AcDbXrecord
 10
0.0
 20
0.0
 30
0.0
  0
XRECORD
  5
1F29
102
{ACAD_REACTORS
330
1F1A
102
}
330
1F1A
100
AcDbXrecord
340
0
  0
XRECORD
  5
1F2A
102
{ACAD_REACTORS
330
1F1A
102
}
330
1F1A
100
AcDbXrecord
 70
     0
  0
XRECORD
  5
1F1E
102
{ACAD_REACTORS
330
1F1A
102
}
330
1F1A
100
AcDbXrecord
  1
Sekkei.ctb
  0
XRECORD
  5
1F1B
102
{ACAD_REACTORS
330
1F1A
102
}
330
1F1A
100
AcDbXrecord
 90
        1
  0
XRECORD
  5
1F1C
102
{ACAD_REACTORS
330
1F1A
102
}
330
1F1A
100
AcDbXrecord
 90
       70
  0
XRECORD
  5
1F34
102
{ACAD_REACTORS
330
1F1A
102
}
330
1F1A
100
AcDbXrecord
340
0
  0
XRECORD
  5
1F3A
102
{ACAD_REACTORS
330
1F1A
102
}
330
1F1A
100
AcDbXrecord
 10
0.0
 20
0.0
 30
0.0
  0
XRECORD
  5
1F36
102
{ACAD_REACTORS
330
1F1A
102
}
330
1F1A
100
AcDbXrecord
 10
0.0
 20
0.0
 30
0.0
  0
XRECORD
  5
1F39
102
{ACAD_REACTORS
330
1F1A
102
}
330
1F1A
100
AcDbXrecord
 10
0.0
 20
0.0
 30
0.0
  0
XRECORD
  5
1F37
102
{ACAD_REACTORS
330
1F1A
102
}
330
1F1A
100
AcDbXrecord
 10
0.0
 20
0.0
 30
0.0
  0
XRECORD
  5
1F38
102
{ACAD_REACTORS
330
1F1A
102
}
330
1F1A
100
AcDbXrecord
 10
0.0
 20
0.0
 30
0.0
  0
XRECORD
  5
1F35
102
{ACAD_REACTORS
330
1F1A
102
}
330
1F1A
100
AcDbXrecord
 10
0.0
 20
0.0
 30
0.0
  0
XRECORD
  5
1F32
102
{ACAD_REACTORS
330
1F1A
102
}
330
1F1A
100
AcDbXrecord
340
0
  0
XRECORD
  5
1F33
102
{ACAD_REACTORS
330
1F1A
102
}
330
1F1A
100
AcDbXrecord
 70
     0
  0
XRECORD
  5
1F26
102
{ACAD_REACTORS
330
1F1A
102
}
330
1F1A
100
AcDbXrecord
  1
{CE8588AF-6BA4-4B2C-BAEF-267033F86848}
  0
DICTIONARYVAR
  5
103
102
{ACAD_REACTORS
330
102
102
}
330
102
100
DictionaryVariables
280
     0
  1
1
  0
ENDSEC
  0
EOF
