  0
SECTION
  2
HEADER
  9
$CLAYER
  8
1
  9
$LTSCALE
 40
3.0
  0
ENDSEC
  0
SECTION
  2
TABLES
  0
TABLE
  2
LTYPE
 70
     4
  0
LTYPE
  2
CONTINUOUS
  3
solid line
 70
    64
 72
    65
 73
     0
 40
0.0
  0
LTYPE
  2
DASHED
  3
__ __ __ __ __ __ __ __ __ __ __ __ __ __ __
 70
    64
 72
    65
 73
     2
 40
0.75
 49
0.5
 49
-0.25
  0
LTYPE
  2
CENTER
  3
____ _ ____ _ ____ _ ____ _ ____ _ ____ _ ____
 70
    64
 72
    65
 73
     4
 40
2.0
 49
1.25
 49
-0.25
 49
0.25
 49
-0.25
  0
LTYPE
  2
PHANTOM
  3
_____ _ _ _____ _ _ _____ _ _ _____ _ _ ____
 70
    64
 72
    65
 73
     6
 40
2.5
 49
1.25
 49
-0.25
 49
0.25
 49
-0.25
 49
0.25
 49
-0.25
  0
ENDTAB
  0
TABLE
  2
LAYER
 70
     1
  0
LAYER
  2
0
 70
    64
 62
     7
  6
CONTINUOUS
  0
ENDTAB
  0
TABLE
  2
STYLE
 70
     1
  0
STYLE
  2
STANDARD
 70
     0
 40
0.000000
 41
1.000000
 50
0.000000
 71
     0
 42
3.000000
  3
txt
  4
BIGFONT
  0
ENDTAB
  0
ENDSEC
  0
SECTION
  2
BLOCKS
  0
ENDSEC
  0
SECTION
  2
ENTITIES
  0
LINE
  8
0
  6
CONTINUOUS
 10
53.171242
 20
99.559998
 11
62.671242
 21
99.559998
  0
LINE
  8
0
  6
CONTINUOUS
 10
62.671242
 20
88.969299
 11
53.171242
 21
88.969299
  0
LINE
  8
0
  6
CONTINUOUS
 10
53.171242
 20
9.560000
 11
62.671242
 21
9.560000
  0
LINE
  8
0
  6
CONTINUOUS
 10
62.671242
 20
20.150700
 11
53.171242
 21
20.150700
  0
LINE
  8
0
  6
CONTINUOUS
 10
53.171242
 20
101.559998
 11
53.171242
 21
7.560000
  0
LINE
  8
0
  6
CONTINUOUS
 10
53.171242
 20
83.559998
 11
9.196240
 21
83.559998
  0
LINE
  8
0
  6
CONTINUOUS
 10
53.171242
 20
25.559999
 11
9.196239
 21
25.559999
  0
LINE
  8
0
  6
CONTINUOUS
 10
63.171242
 20
101.059998
 11
63.171242
 21
99.559998
  0
LINE
  8
0
  6
CONTINUOUS
 10
56.171242
 20
101.059998
 11
56.171242
 21
99.559998
  0
LINE
  8
0
  6
CONTINUOUS
 10
56.171242
 20
101.059998
 11
63.171242
 21
101.059998
  0
LINE
  8
0
  6
CONTINUOUS
 10
60.571239
 20
114.059998
 11
60.571239
 21
101.059998
  0
LINE
  8
0
  6
CONTINUOUS
 10
58.771240
 20
114.684998
 11
58.771240
 21
101.059998
  0
LINE
  8
0
  6
CONTINUOUS
 10
56.971241
 20
112.622498
 11
56.971241
 21
101.059998
  0
LINE
  8
0
  6
CONTINUOUS
 10
62.371239
 20
113.434998
 11
62.371239
 21
101.059998
  0
LINE
  8
0
  6
CONTINUOUS
 10
58.771240
 20
114.684998
 11
60.571239
 21
114.059998
  0
LINE
  8
0
  6
CONTINUOUS
 10
56.971241
 20
112.622498
 11
58.771240
 21
113.247498
  0
LINE
  8
0
  6
CONTINUOUS
 10
62.371239
 20
113.434998
 11
60.572250
 21
112.987289
  0
LINE
  8
0
  6
CONTINUOUS
 10
10.671238
 20
101.559998
 11
53.171242
 21
101.559998
  0
LINE
  8
0
  6
CONTINUOUS
 10
10.671238
 20
7.560000
 11
53.171242
 21
7.560000
  0
ARC
  8
0
  6
CONTINUOUS
 10
10.671263
 20
96.560028
 40
5.000000
 50
90.000000
 51
180.000000
  0
ARC
  8
0
  6
CONTINUOUS
 10
10.671237
 20
12.560000
 40
5.000000
 50
180.000000
 51
270.000000
  0
LINE
  8
0
  6
CONTINUOUS
 10
5.671263
 20
96.560013
 11
5.671238
 21
12.559990
  0
LINE
  8
0
  6
CONTINUOUS
 10
62.671242
 20
9.560000
 11
62.671242
 21
99.559998
  0
LINE
  8
0
  6
CENTER
 10
-8.312812
 20
54.560001
 11
158.460754
 21
54.560001
  0
LINE
  8
0
  6
CONTINUOUS
 10
236.171249
 20
12.260000
 11
236.171249
 21
5.260000
  0
LINE
  8
0
  6
CONTINUOUS
 10
62.671242
 20
9.560000
 11
135.171249
 21
9.560000
  0
LINE
  8
0
  6
CONTINUOUS
 10
62.671242
 20
99.559998
 11
142.013748
 21
99.559998
  0
LINE
  8
0
  6
CENTER
 10
185.671249
 20
128.247498
 11
185.671249
 21
-1.959100
  0
LINE
  8
0
  6
CENTER
 10
150.158554
 20
80.260002
 11
214.247253
 21
80.260002
  0
LINE
  8
0
  6
CONTINUOUS
 10
135.171249
 20
5.260000
 11
236.171249
 21
5.260000
  0
LINE
  8
0
  6
CONTINUOUS
 10
170.250153
 20
118.260002
 11
201.092346
 21
118.260002
  0
LINE
  8
0
  6
CONTINUOUS
 10
137.171249
 20
14.260000
 11
234.171249
 21
14.260000
  0
LINE
  8
0
  6
CENTER
 10
223.671249
 20
19.747499
 11
223.671249
 21
-1.502500
  0
LINE
  8
0
  6
CENTER
 10
147.671249
 20
19.997499
 11
147.671249
 21
-2.002500
  0
LINE
  8
0
  6
CONTINUOUS
 10
234.042648
 20
96.253181
 11
203.963745
 21
117.353287
  0
LINE
  8
0
  6
CONTINUOUS
 10
137.299850
 20
96.253181
 11
167.378754
 21
117.353279
  0
ARC
  8
0
  6
CONTINUOUS
 10
201.092453
 20
113.259987
 40
5.000000
 50
54.950878
 51
90.000000
  0
ARC
  8
0
  6
CONTINUOUS
 10
170.250153
 20
113.260002
 40
5.000000
 50
90.000000
 51
125.049698
  0
ARC
  8
0
  6
CONTINUOUS
 10
140.171249
 20
92.159927
 40
5.000000
 50
125.049797
 51
180.000000
  0
ARC
  8
0
  6
CONTINUOUS
 10
231.171249
 20
92.159882
 40
5.000000
 50
0.000000
 51
54.950901
  0
LINE
  8
0
  6
CONTINUOUS
 10
236.171249
 20
12.260000
 11
236.171249
 21
92.159897
  0
ARC
  8
0
  6
CONTINUOUS
 10
234.171249
 20
12.259990
 40
2.000000
 50
0.000000
 51
90.000000
  0
LINE
  8
0
  6
CONTINUOUS
 10
135.171249
 20
92.159927
 11
135.171249
 21
92.159897
  0
ARC
  8
0
  6
CONTINUOUS
 10
137.171249
 20
12.260000
 40
2.000000
 50
90.000000
 51
180.000000
  0
LINE
  8
0
  6
DASHED
 10
227.921249
 20
14.260000
 11
227.921249
 21
5.260000
  0
LINE
  8
0
  6
DASHED
 10
219.421249
 20
14.260000
 11
219.421249
 21
5.260000
  0
LINE
  8
0
  6
DASHED
 10
151.921249
 20
14.260000
 11
151.921249
 21
5.260000
  0
LINE
  8
0
  6
DASHED
 10
143.421249
 20
14.260000
 11
143.421249
 21
5.260000
  0
CIRCLE
  8
0
  6
CONTINUOUS
 10
185.671249
 20
80.260002
 40
23.500000
  0
LINE
  8
0
  6
CONTINUOUS
 10
137.671249
 20
80.952187
 11
137.671249
 21
49.567486
  0
LINE
  8
0
  6
CONTINUOUS
 10
233.671249
 20
80.952362
 11
233.671249
 21
49.567650
  0
ARC
  8
0
  6
CONTINUOUS
 10
185.671249
 20
65.260002
 40
50.500000
 50
198.103806
 51
341.896210
  0
LINE
  8
0
  6
CONTINUOUS
 10
135.171249
 20
92.159912
 11
135.171143
 21
5.260000
  0
ARC
  8
0
  6
CONTINUOUS
 10
185.671249
 20
65.260002
 40
50.500000
 50
18.103790
 51
161.896194
  0
LINE
  8
0
  6
CONTINUOUS
 10
62.671242
 20
88.969299
 11
133.554153
 21
88.969299
  0
LINE
  8
0
  6
CONTINUOUS
 10
62.671242
 20
20.150700
 11
133.554153
 21
20.150700
  0
LINE
  8
0
  6
CONTINUOUS
 10
179.296249
 20
42.813221
 11
179.296249
 21
37.259998
  0
LINE
  8
0
  6
CONTINUOUS
 10
182.483749
 20
44.830315
 11
182.483749
 21
46.822502
  0
LINE
  8
0
  6
CONTINUOUS
 10
188.858749
 20
44.830315
 11
188.858749
 21
46.822502
  0
LINE
  8
0
  6
CONTINUOUS
 10
185.048645
 20
45.652092
 11
185.048645
 21
38.305901
  0
LINE
  8
0
  6
CONTINUOUS
 10
186.244049
 20
45.652092
 11
186.244049
 21
38.305901
  0
LINE
  8
0
  6
CONTINUOUS
 10
192.519348
 20
45.652092
 11
192.519348
 21
38.256088
  0
LINE
  8
0
  6
CONTINUOUS
 10
193.615051
 20
41.729969
 11
193.615051
 21
38.256088
  0
LINE
  8
0
  6
CONTINUOUS
 10
177.783752
 20
45.552483
 11
174.711853
 21
45.552483
  0
LINE
  8
0
  6
CONTINUOUS
 10
174.711853
 20
45.552483
 11
173.992050
 21
44.659988
  0
LINE
  8
0
  6
CONTINUOUS
 10
174.078644
 20
46.822502
 11
172.921249
 21
45.340508
  0
LINE
  8
0
  6
CONTINUOUS
 10
173.992050
 20
39.150921
 11
174.723343
 21
38.380611
  0
LINE
  8
0
  6
CONTINUOUS
 10
172.921249
 20
38.500858
 11
174.151047
 21
37.259998
  0
LINE
  8
0
  6
CONTINUOUS
 10
172.921249
 20
45.340508
 11
172.921249
 21
38.500858
  0
LINE
  8
0
  6
CONTINUOUS
 10
173.992050
 20
44.659988
 11
173.992050
 21
39.150921
  0
LINE
  8
0
  6
CONTINUOUS
 10
178.374847
 20
44.981041
 11
177.771652
 21
45.552483
  0
LINE
  8
0
  6
CONTINUOUS
 10
178.365250
 20
46.822502
 11
179.296249
 21
45.789360
  0
LINE
  8
0
  6
CONTINUOUS
 10
178.374847
 20
44.830315
 11
179.296249
 21
44.830315
  0
LINE
  8
0
  6
CONTINUOUS
 10
174.078644
 20
46.822502
 11
178.365250
 21
46.822502
  0
LINE
  8
0
  6
CONTINUOUS
 10
178.374847
 20
41.767319
 11
176.706451
 21
41.767319
  0
LINE
  8
0
  6
CONTINUOUS
 10
178.374847
 20
40.771229
 11
178.374847
 21
41.568111
  0
LINE
  8
0
  6
CONTINUOUS
 10
176.382645
 20
38.380611
 11
174.723343
 21
38.380611
  0
ARC
  8
0
  6
CONTINUOUS
 10
176.382645
 20
40.372791
 40
1.992187
 50
-89.999786
 51
0.000109
  0
LINE
  8
0
  6
CONTINUOUS
 10
178.374847
 20
38.022270
 11
178.374847
 21
37.259998
  0
LINE
  8
0
  6
CONTINUOUS
 10
179.296249
 20
45.789360
 11
179.296249
 21
44.830315
  0
LINE
  8
0
  6
CONTINUOUS
 10
178.374847
 20
41.767319
 11
178.374847
 21
40.372791
  0
LINE
  8
0
  6
CONTINUOUS
 10
176.706451
 20
42.813221
 11
176.706451
 21
41.767319
  0
LINE
  8
0
  6
CONTINUOUS
 10
178.374847
 20
37.259998
 11
179.296249
 21
37.259998
  0
LINE
  8
0
  6
CONTINUOUS
 10
178.374847
 20
38.022270
 11
177.466354
 21
37.259998
  0
LINE
  8
0
  6
CONTINUOUS
 10
186.244049
 20
38.305901
 11
186.642456
 21
38.305901
  0
LINE
  8
0
  6
CONTINUOUS
 10
184.575546
 20
38.305901
 11
184.575546
 21
37.259998
  0
LINE
  8
0
  6
CONTINUOUS
 10
186.642456
 20
38.305901
 11
186.642456
 21
37.259998
  0
LINE
  8
0
  6
CONTINUOUS
 10
188.193756
 20
44.830315
 11
188.858749
 21
44.830315
  0
LINE
  8
0
  6
CONTINUOUS
 10
182.483749
 20
44.830315
 11
183.191345
 21
44.830315
  0
LINE
  8
0
  6
CONTINUOUS
 10
182.483749
 20
46.822502
 11
188.858749
 21
46.822502
  0
LINE
  8
0
  6
CONTINUOUS
 10
184.575546
 20
37.259998
 11
186.642456
 21
37.259998
  0
LINE
  8
0
  6
CONTINUOUS
 10
184.575546
 20
38.305901
 11
185.048645
 21
38.305901
  0
ARC
  8
0
  6
CONTINUOUS
 10
195.868744
 20
44.270012
 40
2.552490
 50
-73.981873
 51
90.003510
  0
ARC
  8
0
  6
CONTINUOUS
 10
195.868744
 20
44.270012
 40
1.557193
 50
-82.585274
 51
62.411850
  0
LINE
  8
0
  6
CONTINUOUS
 10
192.046249
 20
46.822502
 11
195.868744
 21
46.822502
  0
LINE
  8
0
  6
CONTINUOUS
 10
192.046249
 20
46.822502
 11
192.046249
 21
45.652092
  0
LINE
  8
0
  6
CONTINUOUS
 10
193.615051
 20
45.652092
 11
193.615051
 21
42.725842
  0
LINE
  8
0
  6
CONTINUOUS
 10
196.573044
 20
41.816620
 11
198.152954
 21
38.256088
  0
LINE
  8
0
  6
CONTINUOUS
 10
195.655548
 20
41.729969
 11
197.150650
 21
38.256088
  0
LINE
  8
0
  6
CONTINUOUS
 10
192.046249
 20
38.256088
 11
192.519348
 21
38.256088
  0
LINE
  8
0
  6
CONTINUOUS
 10
193.615051
 20
38.256088
 11
194.050858
 21
38.256088
  0
LINE
  8
0
  6
CONTINUOUS
 10
194.050858
 20
37.259998
 11
192.046249
 21
37.259998
  0
LINE
  8
0
  6
CONTINUOUS
 10
196.952057
 20
38.256088
 11
197.150650
 21
38.256088
  0
LINE
  8
0
  6
CONTINUOUS
 10
198.152954
 20
38.256088
 11
198.421249
 21
38.256088
  0
LINE
  8
0
  6
CONTINUOUS
 10
196.952057
 20
37.259998
 11
198.421249
 21
37.259998
  0
LINE
  8
0
  6
CONTINUOUS
 10
198.421249
 20
38.256088
 11
198.421249
 21
37.259998
  0
LINE
  8
0
  6
CONTINUOUS
 10
196.952057
 20
38.256088
 11
196.952057
 21
37.259998
  0
LINE
  8
0
  6
CONTINUOUS
 10
194.050858
 20
38.256088
 11
194.050858
 21
37.259998
  0
LINE
  8
0
  6
CONTINUOUS
 10
192.046249
 20
38.256088
 11
192.046249
 21
37.259998
  0
LINE
  8
0
  6
CONTINUOUS
 10
183.533752
 20
45.652092
 11
183.191345
 21
44.830315
  0
LINE
  8
0
  6
CONTINUOUS
 10
187.905045
 20
45.652092
 11
188.193756
 21
44.830315
  0
LINE
  8
0
  6
CONTINUOUS
 10
186.244049
 20
45.652092
 11
187.905045
 21
45.652092
  0
LINE
  8
0
  6
CONTINUOUS
 10
185.048645
 20
45.652092
 11
183.533752
 21
45.652092
  0
LINE
  8
0
  6
CONTINUOUS
 10
192.046249
 20
45.652092
 11
192.519348
 21
45.652092
  0
LINE
  8
0
  6
CONTINUOUS
 10
193.615051
 20
45.652092
 11
196.589951
 21
45.650154
  0
LINE
  8
0
  6
CONTINUOUS
 10
178.374847
 20
44.981041
 11
178.374847
 21
44.830315
  0
LINE
  8
0
  6
CONTINUOUS
 10
174.151047
 20
37.259998
 11
177.466354
 21
37.259998
  0
LINE
  8
0
  6
CONTINUOUS
 10
193.615051
 20
42.725842
 11
196.069748
 21
42.725842
  0
LINE
  8
0
  6
CONTINUOUS
 10
193.615051
 20
41.729969
 11
195.655548
 21
41.729969
  0
LINE
  8
0
  6
CONTINUOUS
 10
176.706451
 20
42.813221
 11
179.296249
 21
42.813221
  0
LINE
  8
0
  6
CENTER
 10
385.671265
 20
-5.033750
 11
385.671265
 21
127.216248
  0
LINE
  8
0
  6
CENTER
 10
331.981842
 20
54.560001
 11
438.174438
 21
54.560001
  0
LINE
  8
0
  6
CONTINUOUS
 10
443.671265
 20
12.260000
 11
443.671265
 21
5.260000
  0
LINE
  8
0
  6
CONTINUOUS
 10
327.671265
 20
12.260000
 11
327.671265
 21
5.260000
  0
LINE
  8
0
  6
CONTINUOUS
 10
327.671265
 20
5.260000
 11
443.671265
 21
5.260000
  0
LINE
  8
0
  6
CONTINUOUS
 10
425.671265
 20
14.260000
 11
441.671265
 21
14.260000
  0
LINE
  8
0
  6
CONTINUOUS
 10
348.671265
 20
17.260000
 11
348.671265
 21
115.648628
  0
LINE
  8
0
  6
CONTINUOUS
 10
422.671265
 20
17.260000
 11
422.671265
 21
115.648758
  0
LINE
  8
0
  6
CONTINUOUS
 10
427.671265
 20
57.759998
 11
427.671265
 21
102.760002
  0
LINE
  8
0
  6
CONTINUOUS
 10
426.671265
 20
103.760002
 11
424.671265
 21
103.760002
  0
LINE
  8
0
  6
CONTINUOUS
 10
426.671265
 20
56.759998
 11
424.671265
 21
56.759998
  0
LINE
  8
0
  6
CONTINUOUS
 10
385.671265
 20
118.260002
 11
420.706146
 21
117.648468
  0
LINE
  8
0
  6
CONTINUOUS
 10
350.636353
 20
117.648331
 11
385.671265
 21
118.260002
  0
ARC
  8
0
  6
CONTINUOUS
 10
424.671265
 20
105.760002
 40
2.000000
 50
180.000000
 51
270.000000
  0
ARC
  8
0
  6
CONTINUOUS
 10
420.671265
 20
115.648758
 40
2.000000
 50
0.000000
 51
89.000137
  0
ARC
  8
0
  6
CONTINUOUS
 10
350.671265
 20
115.648643
 40
2.000000
 50
91.000641
 51
180.000000
  0
ARC
  8
0
  6
CONTINUOUS
 10
424.671265
 20
54.760006
 40
2.000000
 50
90.000000
 51
180.000000
  0
ARC
  8
0
  6
CONTINUOUS
 10
426.671265
 20
102.759987
 40
1.000000
 50
0.000000
 51
90.000000
  0
ARC
  8
0
  6
CONTINUOUS
 10
426.671265
 20
57.759995
 40
1.000000
 50
-90.000000
 51
0.000000
  0
LINE
  8
0
  6
CONTINUOUS
 10
350.568054
 20
94.760002
 11
421.022736
 21
94.760002
  0
ARC
  8
0
  6
CONTINUOUS
 10
441.671265
 20
12.259990
 40
2.000000
 50
0.000000
 51
90.000000
  0
ARC
  8
0
  6
CONTINUOUS
 10
329.671265
 20
12.260010
 40
2.000000
 50
90.000000
 51
180.000000
  0
LINE
  8
0
  6
CENTER
 10
433.671265
 20
18.216249
 11
433.671265
 21
0.966250
  0
LINE
  8
0
  6
CENTER
 10
337.671265
 20
18.216249
 11
337.671265
 21
0.216250
  0
LINE
  8
0
  6
DASHED
 10
341.921265
 20
14.260000
 11
341.921265
 21
5.260000
  0
LINE
  8
0
  6
DASHED
 10
333.421265
 20
14.260000
 11
333.421265
 21
5.260000
  0
LINE
  8
0
  6
DASHED
 10
437.921265
 20
14.260000
 11
437.921265
 21
5.260000
  0
LINE
  8
0
  6
DASHED
 10
429.421265
 20
14.260000
 11
429.421265
 21
5.260000
  0
ARC
  8
0
  6
CONTINUOUS
 10
385.671265
 20
54.560001
 40
45.000000
 50
159.637695
 51
214.692093
  0
ARC
  8
0
  6
CONTINUOUS
 10
385.671265
 20
54.560001
 40
45.000000
 50
-34.692108
 51
20.437799
  0
LINE
  8
0
  6
CONTINUOUS
 10
343.671265
 20
57.759998
 11
343.671265
 21
102.760002
  0
LINE
  8
0
  6
CONTINUOUS
 10
344.671265
 20
103.760002
 11
346.671265
 21
103.760002
  0
LINE
  8
0
  6
CONTINUOUS
 10
344.671265
 20
56.759998
 11
346.671265
 21
56.759998
  0
ARC
  8
0
  6
CONTINUOUS
 10
346.671265
 20
105.760002
 40
2.000000
 50
-90.000000
 51
0.000000
  0
ARC
  8
0
  6
CONTINUOUS
 10
346.671265
 20
54.760006
 40
2.000000
 50
0.000000
 51
90.000000
  0
ARC
  8
0
  6
CONTINUOUS
 10
344.671265
 20
102.759987
 40
1.000000
 50
90.000000
 51
180.000000
  0
ARC
  8
0
  6
CONTINUOUS
 10
344.671265
 20
57.759995
 40
1.000000
 50
180.000000
 51
270.000000
  0
LINE
  8
0
  6
CENTER
 10
438.174438
 20
80.260002
 11
303.421265
 21
80.260002
  0
LINE
  8
0
  6
CONTINUOUS
 10
345.671265
 20
14.260000
 11
329.671265
 21
14.260000
  0
ARC
  8
0
  6
CONTINUOUS
 10
345.671265
 20
17.260000
 40
3.000000
 50
-90.000000
 51
0.000000
  0
ARC
  8
0
  6
CONTINUOUS
 10
425.671265
 20
17.260000
 40
3.000000
 50
180.000000
 51
270.000000
  0
LINE
  8
0
  6
CONTINUOUS
 10
432.671265
 20
80.660500
 11
432.671265
 21
28.459480
  0
LINE
  8
0
  6
CONTINUOUS
 10
338.671265
 20
28.459499
 11
338.671265
 21
71.260002
  0
LINE
  8
0
  6
CONTINUOUS
 10
430.620941
 20
85.610252
 11
427.671265
 21
88.559982
  0
LINE
  8
0
  6
CONTINUOUS
 10
340.721558
 20
23.509750
 11
348.340546
 21
15.890720
  0
LINE
  8
0
  6
CONTINUOUS
 10
430.621063
 20
23.509750
 11
423.001953
 21
15.890670
  0
ARC
  8
0
  6
CONTINUOUS
 10
345.671265
 20
28.459551
 40
7.000000
 50
180.000000
 51
225.000397
  0
ARC
  8
0
  6
CONTINUOUS
 10
425.671265
 20
28.459459
 40
7.000000
 50
-44.999599
 51
0.000000
  0
ARC
  8
0
  6
CONTINUOUS
 10
425.671265
 20
80.660477
 40
7.000000
 50
0.000000
 51
45.000229
  0
LINE
  8
0
  6
CONTINUOUS
 10
311.671265
 20
71.260002
 11
311.671265
 21
89.260002
  0
LINE
  8
0
  6
CONTINUOUS
 10
341.671265
 20
89.260002
 11
311.671265
 21
89.260002
  0
LINE
  8
0
  6
CONTINUOUS
 10
341.671265
 20
71.260002
 11
311.671265
 21
71.260002
  0
LINE
  8
0
  6
CONTINUOUS
 10
341.671265
 20
90.260002
 11
341.671265
 21
70.260002
  0
LINE
  8
0
  6
CONTINUOUS
 10
343.671265
 20
90.260002
 11
341.671265
 21
90.260002
  0
LINE
  8
0
  6
CONTINUOUS
 10
343.671265
 20
70.260002
 11
341.671265
 21
70.260002
  0
ARC
  8
0
  6
CONTINUOUS
 10
335.671265
 20
80.260002
 40
3.000000
 50
-90.000000
 51
90.000000
  0
LINE
  8
0
  6
CONTINUOUS
 10
335.671265
 20
83.260002
 11
311.671265
 21
83.260002
  0
LINE
  8
0
  6
CONTINUOUS
 10
335.671265
 20
77.260002
 11
311.671265
 21
77.260002
  0
LINE
  8
0
  6
CONTINUOUS
 10
191.171249
 20
77.260017
 11
191.171249
 21
83.260017
  0
LINE
  8
0
  6
CONTINUOUS
 10
197.171249
 20
77.260040
 11
197.171249
 21
83.260040
  0
LINE
  8
0
  6
CONTINUOUS
 10
197.171249
 20
77.260040
 11
191.171249
 21
77.260017
  0
LINE
  8
0
  6
CONTINUOUS
 10
197.171249
 20
83.260040
 11
191.171249
 21
83.260017
  0
ARC
  8
0
  6
CONTINUOUS
 10
185.671249
 20
80.260002
 40
9.000000
 50
19.471210
 51
340.528809
  0
LINE
  8
0
  6
CENTER
 10
185.671249
 20
349.203735
 11
185.671249
 21
201.736252
  0
LINE
  8
0
  6
CENTER
 10
223.671249
 20
338.538757
 11
223.671249
 21
319.776245
  0
LINE
  8
0
  6
CENTER
 10
-6.007500
 20
282.029388
 11
249.812500
 21
282.029388
  0
LINE
  8
0
  6
CONTINUOUS
 10
235.330368
 20
330.203888
 11
236.171249
 21
282.029388
  0
LINE
  8
0
  6
CONTINUOUS
 10
225.331879
 20
340.029388
 11
185.671249
 21
340.029388
  0
LINE
  8
0
  6
CONTINUOUS
 10
137.171249
 20
319.029388
 11
233.560013
 21
319.029388
  0
ARC
  8
0
  6
CONTINUOUS
 10
225.331879
 20
330.029388
 40
10.000000
 50
1.000000
 51
90.000000
  0
ARC
  8
0
  6
CONTINUOUS
 10
233.560013
 20
317.029388
 40
2.000000
 50
1.000000
 51
90.000000
  0
LINE
  8
0
  6
CENTER
 10
214.075943
 20
330.029388
 11
234.418442
 21
330.029388
  0
CIRCLE
  8
0
  6
CONTINUOUS
 10
223.671249
 20
330.029388
 40
4.250000
  0
LINE
  8
0
  6
CENTER
 10
147.671249
 20
338.736237
 11
147.671249
 21
319.776245
  0
LINE
  8
0
  6
CONTINUOUS
 10
136.012146
 20
330.203888
 11
135.826157
 21
319.549255
  0
ARC
  8
0
  6
CONTINUOUS
 10
146.010620
 20
330.029388
 40
10.000000
 50
90.000000
 51
179.000000
  0
ARC
  8
0
  6
CONTINUOUS
 10
137.782486
 20
317.029388
 40
2.000000
 50
90.000000
 51
179.000000
  0
LINE
  8
0
  6
CENTER
 10
156.998444
 20
330.029388
 11
137.445938
 21
330.029388
  0
CIRCLE
  8
0
  6
CONTINUOUS
 10
147.671249
 20
330.029388
 40
4.250000
  0
LINE
  8
0
  6
CONTINUOUS
 10
135.171249
 20
321.029388
 11
135.171249
 21
325.029388
  0
LINE
  8
0
  6
CONTINUOUS
 10
133.171249
 20
327.029388
 11
62.671249
 21
327.029388
  0
ARC
  8
0
  6
CONTINUOUS
 10
133.171249
 20
325.029388
 40
2.000000
 50
0.000000
 51
90.000000
  0
ARC
  8
0
  6
CONTINUOUS
 10
137.171249
 20
321.029388
 40
2.000000
 50
180.000000
 51
270.000000
  0
LINE
  8
0
  6
CONTINUOUS
 10
135.782791
 20
317.064270
 11
135.677444
 21
311.029388
  0
LINE
  8
0
  6
CONTINUOUS
 10
62.671249
 20
311.029388
 11
142.013794
 21
311.029388
  0
LINE
  8
0
  6
CONTINUOUS
 10
62.671249
 20
253.029373
 11
142.013794
 21
253.029373
  0
LINE
  8
0
  6
CONTINUOUS
 10
133.171249
 20
237.029373
 11
62.671249
 21
237.029373
  0
ARC
  8
0
  6
CONTINUOUS
 10
133.171249
 20
239.029373
 40
2.000000
 50
-90.000000
 51
0.000000
  0
LINE
  8
0
  6
CENTER
 10
223.671249
 20
225.173752
 11
223.671249
 21
244.232498
  0
LINE
  8
0
  6
CONTINUOUS
 10
235.330368
 20
233.854858
 11
236.171249
 21
282.029388
  0
LINE
  8
0
  6
CONTINUOUS
 10
225.331879
 20
224.029373
 11
197.171249
 21
224.029373
  0
LINE
  8
0
  6
CONTINUOUS
 10
137.171249
 20
245.029373
 11
233.560013
 21
245.029373
  0
ARC
  8
0
  6
CONTINUOUS
 10
225.331879
 20
234.029373
 40
10.000000
 50
-90.000000
 51
-1.000000
  0
ARC
  8
0
  6
CONTINUOUS
 10
233.560013
 20
247.029373
 40
2.000000
 50
-90.000000
 51
-1.000000
  0
LINE
  8
0
  6
CENTER
 10
214.569687
 20
234.029373
 11
234.615936
 21
234.029373
  0
CIRCLE
  8
0
  6
CONTINUOUS
 10
223.671249
 20
234.029373
 40
4.250000
  0
LINE
  8
0
  6
CENTER
 10
147.671249
 20
224.679993
 11
147.671249
 21
244.035004
  0
LINE
  8
0
  6
CONTINUOUS
 10
136.012146
 20
233.854858
 11
135.826157
 21
244.509491
  0
ARC
  8
0
  6
CONTINUOUS
 10
146.010620
 20
234.029373
 40
10.000000
 50
-179.000000
 51
-90.000000
  0
ARC
  8
0
  6
CONTINUOUS
 10
137.782486
 20
247.029373
 40
2.000000
 50
-179.000000
 51
-90.000000
  0
LINE
  8
0
  6
CENTER
 10
157.492188
 20
234.029373
 11
137.248444
 21
234.029373
  0
CIRCLE
  8
0
  6
CONTINUOUS
 10
147.671249
 20
234.029373
 40
4.250000
  0
LINE
  8
0
  6
CONTINUOUS
 10
135.171249
 20
243.029373
 11
135.171249
 21
239.029373
  0
ARC
  8
0
  6
CONTINUOUS
 10
137.171249
 20
243.029373
 40
2.000000
 50
-270.000000
 51
-180.000000
  0
LINE
  8
0
  6
CONTINUOUS
 10
135.782791
 20
246.994476
 11
135.677444
 21
253.029373
  0
LINE
  8
0
  6
CONTINUOUS
 10
168.671249
 20
314.029388
 11
168.671249
 21
250.029373
  0
LINE
  8
0
  6
CONTINUOUS
 10
202.671249
 20
314.029388
 11
202.671249
 21
250.029373
  0
LINE
  8
0
  6
CONTINUOUS
 10
142.013794
 20
309.029388
 11
142.013794
 21
255.029373
  0
LINE
  8
0
  6
CONTINUOUS
 10
208.171249
 20
324.029388
 11
163.171249
 21
324.029388
  0
LINE
  8
0
  6
CONTINUOUS
 10
162.171249
 20
323.029388
 11
162.171249
 21
321.029388
  0
LINE
  8
0
  6
CONTINUOUS
 10
209.171249
 20
323.029388
 11
209.171249
 21
321.029388
  0
ARC
  8
0
  6
CONTINUOUS
 10
160.171249
 20
321.029388
 40
2.000000
 50
-90.000000
 51
0.000000
  0
ARC
  8
0
  6
CONTINUOUS
 10
211.171249
 20
321.029388
 40
2.000000
 50
180.000000
 51
270.000000
  0
ARC
  8
0
  6
CONTINUOUS
 10
163.171265
 20
323.029388
 40
1.000000
 50
90.000000
 51
180.000000
  0
ARC
  8
0
  6
CONTINUOUS
 10
208.171249
 20
323.029388
 40
1.000000
 50
0.000000
 51
90.000000
  0
LINE
  8
0
  6
CONTINUOUS
 10
185.671249
 20
340.029388
 11
146.010620
 21
340.029388
  0
LINE
  8
0
  6
CONTINUOUS
 10
208.171249
 20
240.029373
 11
163.171249
 21
240.029373
  0
LINE
  8
0
  6
CONTINUOUS
 10
162.171249
 20
241.029373
 11
162.171249
 21
243.029373
  0
LINE
  8
0
  6
CONTINUOUS
 10
209.171249
 20
241.029373
 11
209.171249
 21
243.029373
  0
ARC
  8
0
  6
CONTINUOUS
 10
160.171249
 20
243.029373
 40
2.000000
 50
0.000000
 51
90.000000
  0
ARC
  8
0
  6
CONTINUOUS
 10
211.171249
 20
243.029373
 40
2.000000
 50
-270.000000
 51
-180.000000
  0
ARC
  8
0
  6
CONTINUOUS
 10
163.171265
 20
241.029373
 40
1.000000
 50
-180.000000
 51
-90.000000
  0
ARC
  8
0
  6
CONTINUOUS
 10
208.171249
 20
241.029373
 40
1.000000
 50
-90.000000
 51
0.000000
  0
LINE
  8
0
  6
CONTINUOUS
 10
197.171249
 20
208.029373
 11
176.671249
 21
208.029373
  0
LINE
  8
0
  6
CONTINUOUS
 10
176.671249
 20
238.029373
 11
176.671249
 21
208.029373
  0
LINE
  8
0
  6
CONTINUOUS
 10
194.671249
 20
238.029373
 11
194.671249
 21
235.029373
  0
LINE
  8
0
  6
CONTINUOUS
 10
175.671249
 20
238.029373
 11
195.671249
 21
238.029373
  0
LINE
  8
0
  6
CONTINUOUS
 10
175.671249
 20
240.029373
 11
175.671249
 21
238.029373
  0
LINE
  8
0
  6
CONTINUOUS
 10
195.671249
 20
240.029373
 11
195.671249
 21
238.029373
  0
LINE
  8
0
  6
CONTINUOUS
 10
197.171249
 20
208.029373
 11
197.171249
 21
235.029373
  0
LINE
  8
0
  6
CONTINUOUS
 10
197.171249
 20
235.029373
 11
194.156250
 21
235.029373
  0
LINE
  8
0
  6
CONTINUOUS
 10
194.156250
 20
208.029373
 11
194.156250
 21
235.029373
  0
LINE
  8
0
  6
CONTINUOUS
 10
176.671249
 20
224.029373
 11
146.010620
 21
224.029373
  0
LINE
  8
0
  6
CONTINUOUS
 10
53.171249
 20
327.029388
 11
62.671249
 21
327.029388
  0
LINE
  8
0
  6
CONTINUOUS
 10
62.671249
 20
311.029388
 11
53.171249
 21
311.029388
  0
LINE
  8
0
  6
CONTINUOUS
 10
53.171249
 20
237.029373
 11
62.671249
 21
237.029373
  0
LINE
  8
0
  6
CONTINUOUS
 10
62.671249
 20
237.029373
 11
62.671249
 21
275.163361
  0
LINE
  8
0
  6
CONTINUOUS
 10
62.671249
 20
253.029373
 11
53.171249
 21
253.029373
  0
LINE
  8
0
  6
CONTINUOUS
 10
56.171249
 20
276.029388
 11
56.171249
 21
288.029388
  0
LINE
  8
0
  6
CONTINUOUS
 10
63.171249
 20
276.029388
 11
63.171249
 21
288.029388
  0
LINE
  8
0
  6
CONTINUOUS
 10
57.171249
 20
289.029388
 11
62.171249
 21
289.029388
  0
LINE
  8
0
  6
CONTINUOUS
 10
62.171249
 20
275.029388
 11
57.171249
 21
275.029388
  0
ARC
  8
0
  6
CONTINUOUS
 10
62.171249
 20
288.029388
 40
1.000000
 50
0.000000
 51
90.000000
  0
ARC
  8
0
  6
CONTINUOUS
 10
57.171249
 20
288.029388
 40
1.000000
 50
90.000000
 51
180.000000
  0
ARC
  8
0
  6
CONTINUOUS
 10
57.171249
 20
276.029388
 40
1.000000
 50
180.000000
 51
270.000000
  0
ARC
  8
0
  6
CONTINUOUS
 10
62.171249
 20
276.029388
 40
1.000000
 50
-90.000000
 51
0.000000
  0
LINE
  8
0
  6
CONTINUOUS
 10
60.671249
 20
278.529388
 11
60.671249
 21
285.529388
  0
LINE
  8
0
  6
CONTINUOUS
 10
58.671249
 20
278.529388
 11
58.671249
 21
285.529388
  0
ARC
  8
0
  6
CONTINUOUS
 10
59.671249
 20
285.529388
 40
1.000000
 50
90.000000
 51
180.000000
  0
ARC
  8
0
  6
CONTINUOUS
 10
59.671249
 20
285.529388
 40
1.000000
 50
0.000000
 51
90.000000
  0
ARC
  8
0
  6
CONTINUOUS
 10
59.671249
 20
278.529388
 40
1.000000
 50
180.000000
 51
270.000000
  0
ARC
  8
0
  6
CONTINUOUS
 10
59.671249
 20
278.529388
 40
1.000000
 50
-90.000000
 51
0.000000
  0
LINE
  8
0
  6
CONTINUOUS
 10
62.671249
 20
288.895386
 11
62.671249
 21
327.029388
  0
LINE
  8
0
  6
CONTINUOUS
 10
53.171249
 20
329.029388
 11
53.171249
 21
235.029373
  0
LINE
  8
0
  6
CONTINUOUS
 10
53.171249
 20
311.029388
 11
9.196220
 21
311.029388
  0
LINE
  8
0
  6
CONTINUOUS
 10
53.171249
 20
253.029373
 11
9.196220
 21
253.029373
  0
LINE
  8
0
  6
CONTINUOUS
 10
10.671230
 20
329.029388
 11
53.171249
 21
329.029388
  0
LINE
  8
0
  6
CONTINUOUS
 10
10.671230
 20
235.029373
 11
53.171249
 21
235.029373
  0
ARC
  8
0
  6
CONTINUOUS
 10
10.671260
 20
324.029388
 40
5.000000
 50
90.000000
 51
180.000000
  0
ARC
  8
0
  6
CONTINUOUS
 10
10.671230
 20
240.029373
 40
5.000000
 50
180.000000
 51
270.000000
  0
LINE
  8
0
  6
CONTINUOUS
 10
5.671260
 20
324.029388
 11
5.671230
 21
240.029358
  0
ARC
  8
0
  6
CONTINUOUS
 10
53.171249
 20
242.759537
 40
4.500000
 50
0.000000
 51
90.000000
  0
ARC
  8
0
  6
CONTINUOUS
 10
53.171249
 20
242.759537
 40
3.000000
 50
0.000000
 51
90.000000
  0
ARC
  8
0
  6
CONTINUOUS
 10
53.171249
 20
242.759537
 40
1.500000
 50
0.000000
 51
90.000000
  0
LINE
  8
0
  6
CONTINUOUS
 10
54.671249
 20
242.759537
 11
54.671249
 21
237.743927
  0
LINE
  8
0
  6
CONTINUOUS
 10
56.171249
 20
242.759537
 11
56.171249
 21
238.259537
  0
LINE
  8
0
  6
CONTINUOUS
 10
57.671249
 20
242.759537
 11
57.671249
 21
238.259537
  0
LINE
  8
0
  6
CONTINUOUS
 10
54.671249
 20
237.759537
 11
56.171249
 21
238.259537
  0
LINE
  8
0
  6
CONTINUOUS
 10
56.171249
 20
238.759537
 11
57.671249
 21
238.259537
  0
ARC
  8
0
  6
CONTINUOUS
 10
53.171242
 20
83.089401
 40
4.500000
 50
0.000000
 51
90.000000
  0
ARC
  8
0
  6
CONTINUOUS
 10
53.171242
 20
83.089401
 40
3.000000
 50
0.000000
 51
90.000000
  0
ARC
  8
0
  6
CONTINUOUS
 10
53.171242
 20
83.089401
 40
1.500000
 50
0.000000
 51
90.000000
  0
LINE
  8
0
  6
CONTINUOUS
 10
54.671242
 20
83.089401
 11
54.671242
 21
78.073799
  0
LINE
  8
0
  6
CONTINUOUS
 10
56.171242
 20
83.089401
 11
56.171242
 21
78.589401
  0
LINE
  8
0
  6
CONTINUOUS
 10
57.671242
 20
83.089401
 11
57.671242
 21
78.589401
  0
LINE
  8
0
  6
CONTINUOUS
 10
54.671242
 20
78.089401
 11
56.171242
 21
78.589401
  0
LINE
  8
0
  6
CONTINUOUS
 10
56.171242
 20
79.089401
 11
57.671242
 21
78.589401
  0
TEXT
  8
0
 10
-8.000000
 20
-5.000000
 40
4.000000
 41
1.000000
  1
HLMN-18R-10~240-S90
 50
0.000000
  0
ENDSEC
  0
EOF
