  0
SECTION
  2
HEADER
  9
$CLAYER
  8
1
  9
$LTSCALE
 40
3.0
  0
ENDSEC
  0
SECTION
  2
TABLES
  0
TABLE
  2
LTYPE
 70
     4
  0
LTYPE
  2
CONTINUOUS
  3
solid line
 70
    64
 72
    65
 73
     0
 40
0.0
  0
LTYPE
  2
DASHED
  3
__ __ __ __ __ __ __ __ __ __ __ __ __ __ __
 70
    64
 72
    65
 73
     2
 40
0.75
 49
0.5
 49
-0.25
  0
LTYPE
  2
CENTER
  3
____ _ ____ _ ____ _ ____ _ ____ _ ____ _ ____
 70
    64
 72
    65
 73
     4
 40
2.0
 49
1.25
 49
-0.25
 49
0.25
 49
-0.25
  0
LTYPE
  2
PHANTOM
  3
_____ _ _ _____ _ _ _____ _ _ _____ _ _ ____
 70
    64
 72
    65
 73
     6
 40
2.5
 49
1.25
 49
-0.25
 49
0.25
 49
-0.25
 49
0.25
 49
-0.25
  0
ENDTAB
  0
TABLE
  2
LAYER
 70
     1
  0
LAYER
  2
0
 70
    64
 62
     7
  6
CONTINUOUS
  0
ENDTAB
  0
TABLE
  2
STYLE
 70
     1
  0
STYLE
  2
STANDARD
 70
     0
 40
0.000000
 41
1.000000
 50
0.000000
 71
     0
 42
3.000000
  3
txt
  4
BIGFONT
  0
ENDTAB
  0
ENDSEC
  0
SECTION
  2
BLOCKS
  0
ENDSEC
  0
SECTION
  2
ENTITIES
  0
LINE
  8
0
  6
CONTINUOUS
 10
59.248116
 20
9.175000
 11
59.248116
 21
99.175003
  0
LINE
  8
0
  6
CENTER
 10
59.248116
 20
54.174999
 11
155.037628
 21
54.174999
  0
LINE
  8
0
  6
CONTINUOUS
 10
232.748123
 20
11.875000
 11
232.748123
 21
4.875000
  0
LINE
  8
0
  6
CONTINUOUS
 10
59.248116
 20
9.175000
 11
131.748123
 21
9.175000
  0
LINE
  8
0
  6
CONTINUOUS
 10
59.248116
 20
99.175003
 11
138.590622
 21
99.175003
  0
LINE
  8
0
  6
CENTER
 10
182.248123
 20
127.862503
 11
182.248123
 21
-8.737500
  0
LINE
  8
0
  6
CENTER
 10
147.774368
 20
79.875000
 11
217.940628
 21
79.875000
  0
LINE
  8
0
  6
CONTINUOUS
 10
131.748123
 20
4.875000
 11
232.748123
 21
4.875000
  0
LINE
  8
0
  6
CONTINUOUS
 10
166.827026
 20
117.875000
 11
197.669220
 21
117.875000
  0
LINE
  8
0
  6
CONTINUOUS
 10
133.748123
 20
13.875000
 11
230.748123
 21
13.875000
  0
LINE
  8
0
  6
CENTER
 10
220.248123
 20
19.362499
 11
220.248123
 21
-1.887500
  0
LINE
  8
0
  6
CENTER
 10
144.248123
 20
19.612499
 11
144.248123
 21
-2.387500
  0
LINE
  8
0
  6
CONTINUOUS
 10
230.619522
 20
95.868179
 11
200.540619
 21
116.968292
  0
LINE
  8
0
  6
CONTINUOUS
 10
133.876724
 20
95.868179
 11
163.955627
 21
116.968277
  0
ARC
  8
0
  6
CONTINUOUS
 10
197.669327
 20
112.874992
 40
5.000000
 50
54.950878
 51
90.000000
  0
ARC
  8
0
  6
CONTINUOUS
 10
166.827026
 20
112.875000
 40
5.000000
 50
90.000000
 51
125.049698
  0
ARC
  8
0
  6
CONTINUOUS
 10
136.748123
 20
91.774933
 40
5.000000
 50
125.049797
 51
180.000000
  0
ARC
  8
0
  6
CONTINUOUS
 10
227.748123
 20
91.774879
 40
5.000000
 50
0.000000
 51
54.950901
  0
LINE
  8
0
  6
CONTINUOUS
 10
232.748123
 20
11.875000
 11
232.748123
 21
91.774902
  0
ARC
  8
0
  6
CONTINUOUS
 10
230.748123
 20
11.874990
 40
2.000000
 50
0.000000
 51
90.000000
  0
LINE
  8
0
  6
CONTINUOUS
 10
131.748123
 20
91.774933
 11
131.748123
 21
91.774902
  0
ARC
  8
0
  6
CONTINUOUS
 10
133.748123
 20
11.875000
 40
2.000000
 50
90.000000
 51
180.000000
  0
LINE
  8
0
  6
DASHED
 10
224.498123
 20
13.875000
 11
224.498123
 21
4.875000
  0
LINE
  8
0
  6
DASHED
 10
215.998123
 20
13.875000
 11
215.998123
 21
4.875000
  0
LINE
  8
0
  6
DASHED
 10
148.498123
 20
13.875000
 11
148.498123
 21
4.875000
  0
LINE
  8
0
  6
DASHED
 10
139.998123
 20
13.875000
 11
139.998123
 21
4.875000
  0
CIRCLE
  8
0
  6
CONTINUOUS
 10
182.248123
 20
79.875000
 40
23.500000
  0
LINE
  8
0
  6
CONTINUOUS
 10
134.248123
 20
80.567192
 11
134.248123
 21
49.182484
  0
LINE
  8
0
  6
CONTINUOUS
 10
230.248123
 20
80.567360
 11
230.248123
 21
49.182648
  0
ARC
  8
0
  6
CONTINUOUS
 10
182.248123
 20
64.875000
 40
50.500000
 50
198.103806
 51
341.896210
  0
LINE
  8
0
  6
CONTINUOUS
 10
131.748123
 20
91.774910
 11
131.748032
 21
4.875000
  0
ARC
  8
0
  6
CONTINUOUS
 10
182.248123
 20
64.875000
 40
50.500000
 50
18.103790
 51
161.896194
  0
LINE
  8
0
  6
CONTINUOUS
 10
59.248116
 20
88.584297
 11
130.131027
 21
88.584297
  0
LINE
  8
0
  6
CONTINUOUS
 10
59.248116
 20
19.765699
 11
130.131027
 21
19.765699
  0
LINE
  8
0
  6
CONTINUOUS
 10
175.873123
 20
42.428219
 11
175.873123
 21
36.875000
  0
LINE
  8
0
  6
CONTINUOUS
 10
179.060623
 20
44.445312
 11
179.060623
 21
46.437500
  0
LINE
  8
0
  6
CONTINUOUS
 10
185.435623
 20
44.445312
 11
185.435623
 21
46.437500
  0
LINE
  8
0
  6
CONTINUOUS
 10
181.625519
 20
45.267090
 11
181.625519
 21
37.920898
  0
LINE
  8
0
  6
CONTINUOUS
 10
182.820923
 20
45.267090
 11
182.820923
 21
37.920898
  0
LINE
  8
0
  6
CONTINUOUS
 10
189.096222
 20
45.267090
 11
189.096222
 21
37.871090
  0
LINE
  8
0
  6
CONTINUOUS
 10
190.191925
 20
41.344971
 11
190.191925
 21
37.871090
  0
LINE
  8
0
  6
CONTINUOUS
 10
174.360626
 20
45.167480
 11
171.288727
 21
45.167480
  0
LINE
  8
0
  6
CONTINUOUS
 10
171.288727
 20
45.167480
 11
170.568924
 21
44.274986
  0
LINE
  8
0
  6
CONTINUOUS
 10
170.655518
 20
46.437500
 11
169.498123
 21
44.955505
  0
LINE
  8
0
  6
CONTINUOUS
 10
170.568924
 20
38.765919
 11
171.300232
 21
37.995609
  0
LINE
  8
0
  6
CONTINUOUS
 10
169.498123
 20
38.115860
 11
170.727921
 21
36.875000
  0
LINE
  8
0
  6
CONTINUOUS
 10
169.498123
 20
44.955505
 11
169.498123
 21
38.115860
  0
LINE
  8
0
  6
CONTINUOUS
 10
170.568924
 20
44.274986
 11
170.568924
 21
38.765919
  0
LINE
  8
0
  6
CONTINUOUS
 10
174.951721
 20
44.596039
 11
174.348526
 21
45.167480
  0
LINE
  8
0
  6
CONTINUOUS
 10
174.942123
 20
46.437500
 11
175.873123
 21
45.404358
  0
LINE
  8
0
  6
CONTINUOUS
 10
174.951721
 20
44.445312
 11
175.873123
 21
44.445312
  0
LINE
  8
0
  6
CONTINUOUS
 10
170.655518
 20
46.437500
 11
174.942123
 21
46.437500
  0
LINE
  8
0
  6
CONTINUOUS
 10
174.951721
 20
41.382320
 11
173.283325
 21
41.382320
  0
LINE
  8
0
  6
CONTINUOUS
 10
174.951721
 20
40.386230
 11
174.951721
 21
41.183109
  0
LINE
  8
0
  6
CONTINUOUS
 10
172.959518
 20
37.995609
 11
171.300232
 21
37.995609
  0
ARC
  8
0
  6
CONTINUOUS
 10
172.959518
 20
39.987789
 40
1.992187
 50
-89.999786
 51
0.000109
  0
LINE
  8
0
  6
CONTINUOUS
 10
174.951721
 20
37.637272
 11
174.951721
 21
36.875000
  0
LINE
  8
0
  6
CONTINUOUS
 10
175.873123
 20
45.404358
 11
175.873123
 21
44.445312
  0
LINE
  8
0
  6
CONTINUOUS
 10
174.951721
 20
41.382320
 11
174.951721
 21
39.987789
  0
LINE
  8
0
  6
CONTINUOUS
 10
173.283325
 20
42.428219
 11
173.283325
 21
41.382320
  0
LINE
  8
0
  6
CONTINUOUS
 10
174.951721
 20
36.875000
 11
175.873123
 21
36.875000
  0
LINE
  8
0
  6
CONTINUOUS
 10
174.951721
 20
37.637272
 11
174.043228
 21
36.875000
  0
LINE
  8
0
  6
CONTINUOUS
 10
182.820923
 20
37.920898
 11
183.219330
 21
37.920898
  0
LINE
  8
0
  6
CONTINUOUS
 10
181.152420
 20
37.920898
 11
181.152420
 21
36.875000
  0
LINE
  8
0
  6
CONTINUOUS
 10
183.219330
 20
37.920898
 11
183.219330
 21
36.875000
  0
LINE
  8
0
  6
CONTINUOUS
 10
184.770630
 20
44.445312
 11
185.435623
 21
44.445312
  0
LINE
  8
0
  6
CONTINUOUS
 10
179.060623
 20
44.445312
 11
179.768219
 21
44.445312
  0
LINE
  8
0
  6
CONTINUOUS
 10
179.060623
 20
46.437500
 11
185.435623
 21
46.437500
  0
LINE
  8
0
  6
CONTINUOUS
 10
181.152420
 20
36.875000
 11
183.219330
 21
36.875000
  0
LINE
  8
0
  6
CONTINUOUS
 10
181.152420
 20
37.920898
 11
181.625519
 21
37.920898
  0
ARC
  8
0
  6
CONTINUOUS
 10
192.445618
 20
43.885010
 40
2.552490
 50
-73.981873
 51
90.003510
  0
ARC
  8
0
  6
CONTINUOUS
 10
192.445618
 20
43.885010
 40
1.557193
 50
-82.585274
 51
62.411850
  0
LINE
  8
0
  6
CONTINUOUS
 10
188.623123
 20
46.437500
 11
192.445618
 21
46.437500
  0
LINE
  8
0
  6
CONTINUOUS
 10
188.623123
 20
46.437500
 11
188.623123
 21
45.267090
  0
LINE
  8
0
  6
CONTINUOUS
 10
190.191925
 20
45.267090
 11
190.191925
 21
42.340839
  0
LINE
  8
0
  6
CONTINUOUS
 10
193.149918
 20
41.431622
 11
194.729828
 21
37.871090
  0
LINE
  8
0
  6
CONTINUOUS
 10
192.232422
 20
41.344971
 11
193.727524
 21
37.871090
  0
LINE
  8
0
  6
CONTINUOUS
 10
188.623123
 20
37.871090
 11
189.096222
 21
37.871090
  0
LINE
  8
0
  6
CONTINUOUS
 10
190.191925
 20
37.871090
 11
190.627731
 21
37.871090
  0
LINE
  8
0
  6
CONTINUOUS
 10
190.627731
 20
36.875000
 11
188.623123
 21
36.875000
  0
LINE
  8
0
  6
CONTINUOUS
 10
193.528931
 20
37.871090
 11
193.727524
 21
37.871090
  0
LINE
  8
0
  6
CONTINUOUS
 10
194.729828
 20
37.871090
 11
194.998123
 21
37.871090
  0
LINE
  8
0
  6
CONTINUOUS
 10
193.528931
 20
36.875000
 11
194.998123
 21
36.875000
  0
LINE
  8
0
  6
CONTINUOUS
 10
194.998123
 20
37.871090
 11
194.998123
 21
36.875000
  0
LINE
  8
0
  6
CONTINUOUS
 10
193.528931
 20
37.871090
 11
193.528931
 21
36.875000
  0
LINE
  8
0
  6
CONTINUOUS
 10
190.627731
 20
37.871090
 11
190.627731
 21
36.875000
  0
LINE
  8
0
  6
CONTINUOUS
 10
188.623123
 20
37.871090
 11
188.623123
 21
36.875000
  0
LINE
  8
0
  6
CONTINUOUS
 10
180.110626
 20
45.267090
 11
179.768219
 21
44.445312
  0
LINE
  8
0
  6
CONTINUOUS
 10
184.481918
 20
45.267090
 11
184.770630
 21
44.445312
  0
LINE
  8
0
  6
CONTINUOUS
 10
182.820923
 20
45.267090
 11
184.481918
 21
45.267090
  0
LINE
  8
0
  6
CONTINUOUS
 10
181.625519
 20
45.267090
 11
180.110626
 21
45.267090
  0
LINE
  8
0
  6
CONTINUOUS
 10
188.623123
 20
45.267090
 11
189.096222
 21
45.267090
  0
LINE
  8
0
  6
CONTINUOUS
 10
190.191925
 20
45.267090
 11
193.166824
 21
45.265152
  0
LINE
  8
0
  6
CONTINUOUS
 10
174.951721
 20
44.596039
 11
174.951721
 21
44.445312
  0
LINE
  8
0
  6
CONTINUOUS
 10
170.727921
 20
36.875000
 11
174.043228
 21
36.875000
  0
LINE
  8
0
  6
CONTINUOUS
 10
190.191925
 20
42.340839
 11
192.646622
 21
42.340839
  0
LINE
  8
0
  6
CONTINUOUS
 10
190.191925
 20
41.344971
 11
192.232422
 21
41.344971
  0
LINE
  8
0
  6
CONTINUOUS
 10
173.283325
 20
42.428219
 11
175.873123
 21
42.428219
  0
LINE
  8
0
  6
CENTER
 10
387.248138
 20
-8.475000
 11
387.248138
 21
160.380005
  0
LINE
  8
0
  6
CENTER
 10
333.558716
 20
54.174999
 11
443.773132
 21
54.174999
  0
LINE
  8
0
  6
CONTINUOUS
 10
445.248138
 20
11.875000
 11
445.248138
 21
4.875000
  0
LINE
  8
0
  6
CONTINUOUS
 10
329.248138
 20
11.875000
 11
329.248138
 21
4.875000
  0
LINE
  8
0
  6
CONTINUOUS
 10
329.248138
 20
4.875000
 11
445.248138
 21
4.875000
  0
LINE
  8
0
  6
CONTINUOUS
 10
427.248138
 20
13.875000
 11
443.248138
 21
13.875000
  0
LINE
  8
0
  6
CONTINUOUS
 10
350.248138
 20
16.875000
 11
350.248138
 21
115.263634
  0
LINE
  8
0
  6
CONTINUOUS
 10
424.248138
 20
16.875000
 11
424.248138
 21
115.263763
  0
LINE
  8
0
  6
CONTINUOUS
 10
429.248138
 20
57.374996
 11
429.248138
 21
102.375000
  0
LINE
  8
0
  6
CONTINUOUS
 10
428.248138
 20
103.375000
 11
426.248138
 21
103.375000
  0
LINE
  8
0
  6
CONTINUOUS
 10
428.248138
 20
56.374996
 11
426.248138
 21
56.374996
  0
LINE
  8
0
  6
CONTINUOUS
 10
387.248138
 20
117.875000
 11
422.283020
 21
117.263474
  0
LINE
  8
0
  6
CONTINUOUS
 10
352.213226
 20
117.263329
 11
387.248138
 21
117.875000
  0
ARC
  8
0
  6
CONTINUOUS
 10
426.248138
 20
105.375000
 40
2.000000
 50
180.000000
 51
270.000000
  0
ARC
  8
0
  6
CONTINUOUS
 10
422.248138
 20
115.263763
 40
2.000000
 50
0.000000
 51
89.000137
  0
ARC
  8
0
  6
CONTINUOUS
 10
352.248138
 20
115.263641
 40
2.000000
 50
91.000641
 51
180.000000
  0
ARC
  8
0
  6
CONTINUOUS
 10
426.248138
 20
54.375008
 40
2.000000
 50
90.000000
 51
180.000000
  0
ARC
  8
0
  6
CONTINUOUS
 10
428.248138
 20
102.374992
 40
1.000000
 50
0.000000
 51
90.000000
  0
ARC
  8
0
  6
CONTINUOUS
 10
428.248138
 20
57.374996
 40
1.000000
 50
-90.000000
 51
0.000000
  0
LINE
  8
0
  6
CONTINUOUS
 10
352.144928
 20
94.375000
 11
422.599640
 21
94.375000
  0
ARC
  8
0
  6
CONTINUOUS
 10
443.248138
 20
11.874990
 40
2.000000
 50
0.000000
 51
90.000000
  0
ARC
  8
0
  6
CONTINUOUS
 10
331.248138
 20
11.875010
 40
2.000000
 50
90.000000
 51
180.000000
  0
LINE
  8
0
  6
CENTER
 10
435.248138
 20
17.831249
 11
435.248138
 21
0.581250
  0
LINE
  8
0
  6
CENTER
 10
339.248138
 20
17.831249
 11
339.248138
 21
-0.168750
  0
LINE
  8
0
  6
DASHED
 10
343.498138
 20
13.875000
 11
343.498138
 21
4.875000
  0
LINE
  8
0
  6
DASHED
 10
334.998138
 20
13.875000
 11
334.998138
 21
4.875000
  0
LINE
  8
0
  6
DASHED
 10
439.498138
 20
13.875000
 11
439.498138
 21
4.875000
  0
LINE
  8
0
  6
DASHED
 10
430.998138
 20
13.875000
 11
430.998138
 21
4.875000
  0
ARC
  8
0
  6
CONTINUOUS
 10
387.248138
 20
54.174999
 40
45.000000
 50
159.637695
 51
214.692093
  0
ARC
  8
0
  6
CONTINUOUS
 10
387.248138
 20
54.174999
 40
45.000000
 50
-34.692108
 51
20.437799
  0
LINE
  8
0
  6
CONTINUOUS
 10
345.248138
 20
57.374996
 11
345.248138
 21
102.375000
  0
LINE
  8
0
  6
CONTINUOUS
 10
346.248138
 20
103.375000
 11
348.248138
 21
103.375000
  0
LINE
  8
0
  6
CONTINUOUS
 10
346.248138
 20
56.374996
 11
348.248138
 21
56.374996
  0
ARC
  8
0
  6
CONTINUOUS
 10
348.248138
 20
105.375000
 40
2.000000
 50
-90.000000
 51
0.000000
  0
ARC
  8
0
  6
CONTINUOUS
 10
348.248138
 20
54.375008
 40
2.000000
 50
0.000000
 51
90.000000
  0
ARC
  8
0
  6
CONTINUOUS
 10
346.248138
 20
102.374992
 40
1.000000
 50
90.000000
 51
180.000000
  0
ARC
  8
0
  6
CONTINUOUS
 10
346.248138
 20
57.374996
 40
1.000000
 50
180.000000
 51
270.000000
  0
LINE
  8
0
  6
CENTER
 10
436.455811
 20
79.875000
 11
304.998138
 21
79.875000
  0
LINE
  8
0
  6
CONTINUOUS
 10
347.248138
 20
13.875000
 11
331.248138
 21
13.875000
  0
ARC
  8
0
  6
CONTINUOUS
 10
347.248138
 20
16.875000
 40
3.000000
 50
-90.000000
 51
0.000000
  0
ARC
  8
0
  6
CONTINUOUS
 10
427.248138
 20
16.875000
 40
3.000000
 50
180.000000
 51
270.000000
  0
LINE
  8
0
  6
CONTINUOUS
 10
434.248138
 20
80.275497
 11
434.248138
 21
28.074480
  0
LINE
  8
0
  6
CONTINUOUS
 10
340.248138
 20
28.074499
 11
340.248138
 21
70.875000
  0
LINE
  8
0
  6
CONTINUOUS
 10
432.197815
 20
85.225250
 11
429.248138
 21
88.174980
  0
LINE
  8
0
  6
CONTINUOUS
 10
342.298431
 20
23.124750
 11
349.917419
 21
15.505720
  0
LINE
  8
0
  6
CONTINUOUS
 10
432.197937
 20
23.124750
 11
424.578827
 21
15.505670
  0
ARC
  8
0
  6
CONTINUOUS
 10
347.248138
 20
28.074551
 40
7.000000
 50
180.000000
 51
225.000397
  0
ARC
  8
0
  6
CONTINUOUS
 10
427.248138
 20
28.074459
 40
7.000000
 50
-44.999599
 51
0.000000
  0
ARC
  8
0
  6
CONTINUOUS
 10
427.248138
 20
80.275482
 40
7.000000
 50
0.000000
 51
45.000229
  0
LINE
  8
0
  6
CONTINUOUS
 10
313.248138
 20
70.875000
 11
313.248138
 21
88.875000
  0
LINE
  8
0
  6
CONTINUOUS
 10
343.248138
 20
88.875000
 11
313.248138
 21
88.875000
  0
LINE
  8
0
  6
CONTINUOUS
 10
343.248138
 20
70.875000
 11
313.248138
 21
70.875000
  0
LINE
  8
0
  6
CONTINUOUS
 10
343.248138
 20
89.875000
 11
343.248138
 21
69.875000
  0
LINE
  8
0
  6
CONTINUOUS
 10
345.248138
 20
89.875000
 11
343.248138
 21
89.875000
  0
LINE
  8
0
  6
CONTINUOUS
 10
345.248138
 20
69.875000
 11
343.248138
 21
69.875000
  0
ARC
  8
0
  6
CONTINUOUS
 10
337.248138
 20
79.875000
 40
3.000000
 50
-90.000000
 51
90.000000
  0
LINE
  8
0
  6
CONTINUOUS
 10
337.248138
 20
82.875000
 11
313.248138
 21
82.875000
  0
LINE
  8
0
  6
CONTINUOUS
 10
337.248138
 20
76.875000
 11
313.248138
 21
76.875000
  0
LINE
  8
0
  6
CONTINUOUS
 10
187.748123
 20
76.875023
 11
187.748123
 21
82.875023
  0
LINE
  8
0
  6
CONTINUOUS
 10
193.748123
 20
76.875038
 11
193.748123
 21
82.875038
  0
LINE
  8
0
  6
CONTINUOUS
 10
193.748123
 20
76.875038
 11
187.748123
 21
76.875023
  0
LINE
  8
0
  6
CONTINUOUS
 10
193.748123
 20
82.875038
 11
187.748123
 21
82.875023
  0
ARC
  8
0
  6
CONTINUOUS
 10
182.248123
 20
79.875000
 40
9.000000
 50
19.471210
 51
340.528809
  0
LINE
  8
0
  6
CONTINUOUS
 10
49.748123
 20
99.175003
 11
59.248123
 21
99.175003
  0
LINE
  8
0
  6
CONTINUOUS
 10
59.248123
 20
88.584297
 11
49.748123
 21
88.584297
  0
LINE
  8
0
  6
CONTINUOUS
 10
49.748123
 20
9.175000
 11
59.248123
 21
9.175000
  0
LINE
  8
0
  6
CONTINUOUS
 10
59.248123
 20
19.765699
 11
49.748123
 21
19.765699
  0
LINE
  8
0
  6
CENTER
 10
-10.351875
 20
54.174999
 11
59.248123
 21
54.174999
  0
LINE
  8
0
  6
CONTINUOUS
 10
49.748123
 20
101.175003
 11
49.748123
 21
7.175000
  0
LINE
  8
0
  6
CONTINUOUS
 10
49.748123
 20
83.175003
 11
5.773125
 21
83.175003
  0
LINE
  8
0
  6
CONTINUOUS
 10
49.748123
 20
25.174999
 11
5.773127
 21
25.174999
  0
LINE
  8
0
  6
CONTINUOUS
 10
7.248123
 20
101.175003
 11
49.748123
 21
101.175003
  0
LINE
  8
0
  6
CONTINUOUS
 10
7.248124
 20
7.175000
 11
49.748123
 21
7.175000
  0
LINE
  8
0
  6
CONTINUOUS
 10
2.248123
 20
12.175000
 11
2.248123
 21
96.175003
  0
ARC
  8
0
  6
CONTINUOUS
 10
7.248148
 20
96.175018
 40
5.000000
 50
90.000000
 51
180.000000
  0
ARC
  8
0
  6
CONTINUOUS
 10
7.248123
 20
12.175000
 40
5.000000
 50
180.000000
 51
270.000000
  0
LINE
  8
0
  6
CONTINUOUS
 10
51.748116
 20
100.675003
 11
110.248123
 21
100.675003
  0
LINE
  8
0
  6
CONTINUOUS
 10
51.748116
 20
100.675003
 11
51.748116
 21
99.175003
  0
LINE
  8
0
  6
CONTINUOUS
 10
97.748108
 20
100.675003
 11
97.748108
 21
99.175003
  0
LINE
  8
0
  6
CONTINUOUS
 10
50.248116
 20
149.675003
 11
50.248116
 21
102.675003
  0
LINE
  8
0
  6
CONTINUOUS
 10
112.248123
 20
149.675018
 11
112.248123
 21
102.675003
  0
LINE
  8
0
  6
CONTINUOUS
 10
112.248123
 20
102.675003
 11
110.248123
 21
100.675003
  0
LINE
  8
0
  6
CONTINUOUS
 10
50.248116
 20
102.675003
 11
52.248116
 21
100.675003
  0
LINE
  8
0
  6
CONTINUOUS
 10
50.248116
 20
102.675003
 11
112.248123
 21
102.675003
  0
LINE
  8
0
  6
CONTINUOUS
 10
50.248116
 20
112.675018
 11
112.248123
 21
112.675018
  0
LINE
  8
0
  6
CENTER
 10
81.248108
 20
156.431244
 11
81.248108
 21
96.080994
  0
LINE
  8
0
  6
CONTINUOUS
 10
50.248116
 20
113.675018
 11
112.248123
 21
113.675018
  0
LINE
  8
0
  6
CONTINUOUS
 10
51.248116
 20
150.675003
 11
111.248123
 21
150.675018
  0
LINE
  8
0
  6
CONTINUOUS
 10
111.248123
 20
150.675018
 11
112.248123
 21
149.675018
  0
LINE
  8
0
  6
CONTINUOUS
 10
50.248116
 20
149.675003
 11
51.248116
 21
150.675003
  0
LINE
  8
0
  6
CONTINUOUS
 10
50.248116
 20
149.675003
 11
112.248123
 21
149.675018
  0
LINE
  8
0
  6
CENTER
 10
47.623116
 20
133.675018
 11
53.373116
 21
133.675018
  0
LINE
  8
0
  6
CONTINUOUS
 10
49.123116
 20
144.175018
 11
52.248116
 21
144.175018
  0
LINE
  8
0
  6
CONTINUOUS
 10
49.123116
 20
123.175018
 11
52.248116
 21
123.175018
  0
LINE
  8
0
  6
CONTINUOUS
 10
418.248138
 20
149.675003
 11
418.248138
 21
117.333900
  0
LINE
  8
0
  6
CONTINUOUS
 10
356.248138
 20
149.675003
 11
356.248138
 21
117.333778
  0
LINE
  8
0
  6
CONTINUOUS
 10
357.248138
 20
150.675003
 11
417.248138
 21
150.675003
  0
LINE
  8
0
  6
CONTINUOUS
 10
417.248138
 20
150.675003
 11
418.248138
 21
149.675003
  0
LINE
  8
0
  6
CONTINUOUS
 10
357.248138
 20
150.675003
 11
356.248138
 21
149.675003
  0
LINE
  8
0
  6
CONTINUOUS
 10
356.248138
 20
149.675003
 11
418.248138
 21
149.675003
  0
LINE
  8
0
  6
CENTER
 10
182.248123
 20
352.802490
 11
182.248123
 21
205.335007
  0
LINE
  8
0
  6
CENTER
 10
220.248123
 20
342.137512
 11
220.248123
 21
323.375000
  0
LINE
  8
0
  6
CENTER
 10
-9.430625
 20
285.628113
 11
246.389374
 21
285.628113
  0
LINE
  8
0
  6
CONTINUOUS
 10
231.907242
 20
333.802643
 11
232.748123
 21
285.628113
  0
LINE
  8
0
  6
CONTINUOUS
 10
221.908752
 20
343.628113
 11
182.248123
 21
343.628113
  0
LINE
  8
0
  6
CONTINUOUS
 10
133.748123
 20
322.628113
 11
230.136887
 21
322.628113
  0
ARC
  8
0
  6
CONTINUOUS
 10
221.908752
 20
333.628113
 40
10.000000
 50
1.000000
 51
90.000000
  0
ARC
  8
0
  6
CONTINUOUS
 10
230.136887
 20
320.628113
 40
2.000000
 50
1.000000
 51
90.000000
  0
LINE
  8
0
  6
CENTER
 10
210.652817
 20
333.628113
 11
230.995316
 21
333.628113
  0
CIRCLE
  8
0
  6
CONTINUOUS
 10
220.248123
 20
333.628113
 40
4.250000
  0
LINE
  8
0
  6
CENTER
 10
144.248123
 20
342.334991
 11
144.248123
 21
323.375000
  0
LINE
  8
0
  6
CONTINUOUS
 10
132.589020
 20
333.802643
 11
132.403030
 21
323.148010
  0
ARC
  8
0
  6
CONTINUOUS
 10
142.587494
 20
333.628113
 40
10.000000
 50
90.000000
 51
179.000000
  0
ARC
  8
0
  6
CONTINUOUS
 10
134.359360
 20
320.628113
 40
2.000000
 50
90.000000
 51
179.000000
  0
LINE
  8
0
  6
CENTER
 10
153.575317
 20
333.628113
 11
134.022812
 21
333.628113
  0
CIRCLE
  8
0
  6
CONTINUOUS
 10
144.248123
 20
333.628113
 40
4.250000
  0
LINE
  8
0
  6
CONTINUOUS
 10
131.748123
 20
324.628113
 11
131.748123
 21
328.628113
  0
LINE
  8
0
  6
CONTINUOUS
 10
129.748123
 20
330.628113
 11
59.248123
 21
330.628113
  0
ARC
  8
0
  6
CONTINUOUS
 10
129.748123
 20
328.628113
 40
2.000000
 50
0.000000
 51
90.000000
  0
ARC
  8
0
  6
CONTINUOUS
 10
133.748123
 20
324.628113
 40
2.000000
 50
180.000000
 51
270.000000
  0
LINE
  8
0
  6
CONTINUOUS
 10
132.359665
 20
320.663025
 11
132.254318
 21
314.628113
  0
LINE
  8
0
  6
CONTINUOUS
 10
112.248108
 20
314.628113
 11
138.590668
 21
314.628113
  0
LINE
  8
0
  6
CONTINUOUS
 10
112.248108
 20
256.628113
 11
138.590668
 21
256.628113
  0
LINE
  8
0
  6
CONTINUOUS
 10
129.748123
 20
240.628128
 11
59.248123
 21
240.628128
  0
ARC
  8
0
  6
CONTINUOUS
 10
129.748123
 20
242.628128
 40
2.000000
 50
-90.000000
 51
0.000000
  0
LINE
  8
0
  6
CENTER
 10
220.248123
 20
228.772507
 11
220.248123
 21
247.831253
  0
LINE
  8
0
  6
CONTINUOUS
 10
231.907242
 20
237.453598
 11
232.748123
 21
285.628113
  0
LINE
  8
0
  6
CONTINUOUS
 10
221.908752
 20
227.628128
 11
193.748123
 21
227.628128
  0
LINE
  8
0
  6
CONTINUOUS
 10
133.748123
 20
248.628128
 11
230.136887
 21
248.628128
  0
ARC
  8
0
  6
CONTINUOUS
 10
221.908752
 20
237.628128
 40
10.000000
 50
-90.000000
 51
-1.000000
  0
ARC
  8
0
  6
CONTINUOUS
 10
230.136887
 20
250.628128
 40
2.000000
 50
-90.000000
 51
-1.000000
  0
LINE
  8
0
  6
CENTER
 10
211.146561
 20
237.628128
 11
231.192810
 21
237.628128
  0
CIRCLE
  8
0
  6
CONTINUOUS
 10
220.248123
 20
237.628128
 40
4.250000
  0
LINE
  8
0
  6
CENTER
 10
144.248123
 20
228.278748
 11
144.248123
 21
247.633743
  0
LINE
  8
0
  6
CONTINUOUS
 10
132.589020
 20
237.453598
 11
132.403030
 21
248.108246
  0
ARC
  8
0
  6
CONTINUOUS
 10
142.587494
 20
237.628128
 40
10.000000
 50
-179.000000
 51
-90.000000
  0
ARC
  8
0
  6
CONTINUOUS
 10
134.359360
 20
250.628128
 40
2.000000
 50
-179.000000
 51
-90.000000
  0
LINE
  8
0
  6
CENTER
 10
154.069061
 20
237.628128
 11
133.825317
 21
237.628128
  0
CIRCLE
  8
0
  6
CONTINUOUS
 10
144.248123
 20
237.628128
 40
4.250000
  0
LINE
  8
0
  6
CONTINUOUS
 10
131.748123
 20
246.628128
 11
131.748123
 21
242.628128
  0
ARC
  8
0
  6
CONTINUOUS
 10
133.748123
 20
246.628128
 40
2.000000
 50
-270.000000
 51
-180.000000
  0
LINE
  8
0
  6
CONTINUOUS
 10
132.359665
 20
250.593216
 11
132.254318
 21
256.628113
  0
LINE
  8
0
  6
CONTINUOUS
 10
165.248123
 20
317.628113
 11
165.248123
 21
253.628128
  0
LINE
  8
0
  6
CONTINUOUS
 10
199.248123
 20
317.628113
 11
199.248123
 21
253.628128
  0
LINE
  8
0
  6
CONTINUOUS
 10
138.590668
 20
312.628113
 11
138.590668
 21
258.628113
  0
LINE
  8
0
  6
CONTINUOUS
 10
204.748123
 20
327.628113
 11
159.748123
 21
327.628113
  0
LINE
  8
0
  6
CONTINUOUS
 10
158.748123
 20
326.628113
 11
158.748123
 21
324.628113
  0
LINE
  8
0
  6
CONTINUOUS
 10
205.748123
 20
326.628113
 11
205.748123
 21
324.628113
  0
ARC
  8
0
  6
CONTINUOUS
 10
156.748123
 20
324.628113
 40
2.000000
 50
-90.000000
 51
0.000000
  0
ARC
  8
0
  6
CONTINUOUS
 10
207.748123
 20
324.628113
 40
2.000000
 50
180.000000
 51
270.000000
  0
ARC
  8
0
  6
CONTINUOUS
 10
159.748138
 20
326.628113
 40
1.000000
 50
90.000000
 51
180.000000
  0
ARC
  8
0
  6
CONTINUOUS
 10
204.748123
 20
326.628113
 40
1.000000
 50
0.000000
 51
90.000000
  0
LINE
  8
0
  6
CONTINUOUS
 10
182.248123
 20
343.628113
 11
142.587494
 21
343.628113
  0
LINE
  8
0
  6
CONTINUOUS
 10
204.748123
 20
243.628128
 11
159.748123
 21
243.628128
  0
LINE
  8
0
  6
CONTINUOUS
 10
158.748123
 20
244.628128
 11
158.748123
 21
246.628128
  0
LINE
  8
0
  6
CONTINUOUS
 10
205.748123
 20
244.628128
 11
205.748123
 21
246.628128
  0
ARC
  8
0
  6
CONTINUOUS
 10
156.748123
 20
246.628128
 40
2.000000
 50
0.000000
 51
90.000000
  0
ARC
  8
0
  6
CONTINUOUS
 10
207.748123
 20
246.628128
 40
2.000000
 50
-270.000000
 51
-180.000000
  0
ARC
  8
0
  6
CONTINUOUS
 10
159.748138
 20
244.628128
 40
1.000000
 50
-180.000000
 51
-90.000000
  0
ARC
  8
0
  6
CONTINUOUS
 10
204.748123
 20
244.628128
 40
1.000000
 50
-90.000000
 51
0.000000
  0
LINE
  8
0
  6
CONTINUOUS
 10
193.748123
 20
211.628128
 11
173.248123
 21
211.628128
  0
LINE
  8
0
  6
CONTINUOUS
 10
173.248123
 20
241.628128
 11
173.248123
 21
211.628128
  0
LINE
  8
0
  6
CONTINUOUS
 10
191.248123
 20
241.628128
 11
191.248123
 21
238.628128
  0
LINE
  8
0
  6
CONTINUOUS
 10
172.248123
 20
241.628128
 11
192.248123
 21
241.628128
  0
LINE
  8
0
  6
CONTINUOUS
 10
172.248123
 20
243.628128
 11
172.248123
 21
241.628128
  0
LINE
  8
0
  6
CONTINUOUS
 10
192.248123
 20
243.628128
 11
192.248123
 21
241.628128
  0
LINE
  8
0
  6
CONTINUOUS
 10
193.748123
 20
211.628128
 11
193.748123
 21
238.628128
  0
LINE
  8
0
  6
CONTINUOUS
 10
193.748123
 20
238.628128
 11
190.733124
 21
238.628128
  0
LINE
  8
0
  6
CONTINUOUS
 10
190.733124
 20
211.628128
 11
190.733124
 21
238.628128
  0
LINE
  8
0
  6
CONTINUOUS
 10
173.248123
 20
227.628128
 11
142.587494
 21
227.628128
  0
LINE
  8
0
  6
CONTINUOUS
 10
49.748123
 20
330.628113
 11
59.248123
 21
330.628113
  0
LINE
  8
0
  6
CONTINUOUS
 10
50.248104
 20
314.628113
 11
49.748123
 21
314.628113
  0
LINE
  8
0
  6
CONTINUOUS
 10
49.748123
 20
240.628128
 11
59.248123
 21
240.628128
  0
LINE
  8
0
  6
CONTINUOUS
 10
59.248123
 20
240.628128
 11
59.248123
 21
254.628128
  0
LINE
  8
0
  6
CONTINUOUS
 10
50.248104
 20
256.628113
 11
49.748123
 21
256.628113
  0
LINE
  8
0
  6
CONTINUOUS
 10
59.248123
 20
316.628113
 11
59.248123
 21
330.628113
  0
LINE
  8
0
  6
CONTINUOUS
 10
49.748123
 20
332.628113
 11
49.748123
 21
238.628128
  0
LINE
  8
0
  6
CONTINUOUS
 10
49.748123
 20
314.628113
 11
5.773095
 21
314.628113
  0
LINE
  8
0
  6
CONTINUOUS
 10
49.748123
 20
256.628113
 11
5.773095
 21
256.628113
  0
LINE
  8
0
  6
CONTINUOUS
 10
7.248105
 20
332.628113
 11
49.748123
 21
332.628113
  0
LINE
  8
0
  6
CONTINUOUS
 10
7.248105
 20
238.628128
 11
49.748123
 21
238.628128
  0
ARC
  8
0
  6
CONTINUOUS
 10
7.248135
 20
327.628113
 40
5.000000
 50
90.000000
 51
180.000000
  0
ARC
  8
0
  6
CONTINUOUS
 10
7.248105
 20
243.628128
 40
5.000000
 50
180.000000
 51
270.000000
  0
LINE
  8
0
  6
CONTINUOUS
 10
2.248135
 20
327.628113
 11
2.248105
 21
243.628113
  0
LINE
  8
0
  6
CONTINUOUS
 10
112.248108
 20
256.628113
 11
112.248108
 21
314.628113
  0
LINE
  8
0
  6
CONTINUOUS
 10
50.248104
 20
314.628113
 11
50.248104
 21
256.628113
  0
LINE
  8
0
  6
CENTER
 10
81.248108
 20
249.381882
 11
81.248108
 21
322.074677
  0
LINE
  8
0
  6
CONTINUOUS
 10
110.248108
 20
254.628128
 11
52.248104
 21
254.628128
  0
LINE
  8
0
  6
CONTINUOUS
 10
110.248108
 20
316.628113
 11
52.248104
 21
316.628113
  0
LINE
  8
0
  6
CONTINUOUS
 10
52.248104
 20
254.628128
 11
50.248104
 21
256.628113
  0
LINE
  8
0
  6
CONTINUOUS
 10
50.248104
 20
314.628113
 11
52.248104
 21
316.628113
  0
LINE
  8
0
  6
CONTINUOUS
 10
112.248108
 20
314.628113
 11
110.248108
 21
316.628113
  0
LINE
  8
0
  6
CONTINUOUS
 10
112.248108
 20
256.628113
 11
110.248108
 21
254.628128
  0
LINE
  8
0
  6
CONTINUOUS
 10
58.248104
 20
259.628113
 11
58.248104
 21
254.628128
  0
LINE
  8
0
  6
CONTINUOUS
 10
55.248104
 20
262.628113
 11
50.248104
 21
262.628113
  0
CIRCLE
  8
0
  6
CONTINUOUS
 10
54.248104
 20
258.628113
 40
2.250000
  0
ARC
  8
0
  6
CONTINUOUS
 10
55.248104
 20
259.628113
 40
3.000000
 50
0.000000
 51
90.000000
  0
LINE
  8
0
  6
CONTINUOUS
 10
51.248104
 20
263.628113
 11
51.248104
 21
307.628113
  0
LINE
  8
0
  6
CONTINUOUS
 10
55.248104
 20
263.628113
 11
51.248104
 21
263.628113
  0
ARC
  8
0
  6
CONTINUOUS
 10
55.248104
 20
259.628113
 40
4.000000
 50
0.000000
 51
90.000000
  0
LINE
  8
0
  6
CONTINUOUS
 10
59.248104
 20
255.628128
 11
59.248104
 21
259.628113
  0
LINE
  8
0
  6
CONTINUOUS
 10
51.248104
 20
263.628113
 11
50.248104
 21
262.628113
  0
LINE
  8
0
  6
CONTINUOUS
 10
103.248108
 20
255.628128
 11
59.248104
 21
255.628128
  0
LINE
  8
0
  6
CONTINUOUS
 10
59.248104
 20
255.628128
 11
58.248104
 21
254.628128
  0
LINE
  8
0
  6
CONTINUOUS
 10
107.248108
 20
262.628113
 11
112.248108
 21
262.628113
  0
LINE
  8
0
  6
CONTINUOUS
 10
104.248108
 20
259.628113
 11
104.248108
 21
254.628128
  0
CIRCLE
  8
0
  6
CONTINUOUS
 10
108.248108
 20
258.628113
 40
2.250000
  0
ARC
  8
0
  6
CONTINUOUS
 10
107.248108
 20
259.628113
 40
3.000000
 50
90.000000
 51
180.000000
  0
LINE
  8
0
  6
CONTINUOUS
 10
103.248108
 20
259.628113
 11
103.248108
 21
255.628128
  0
ARC
  8
0
  6
CONTINUOUS
 10
107.248108
 20
259.628113
 40
4.000000
 50
90.000000
 51
180.000000
  0
LINE
  8
0
  6
CONTINUOUS
 10
111.248108
 20
263.628113
 11
107.248108
 21
263.628113
  0
LINE
  8
0
  6
CONTINUOUS
 10
103.248108
 20
255.628128
 11
104.248108
 21
254.628128
  0
LINE
  8
0
  6
CONTINUOUS
 10
111.248108
 20
263.628113
 11
112.248108
 21
262.628113
  0
LINE
  8
0
  6
CONTINUOUS
 10
104.248108
 20
311.628113
 11
104.248108
 21
316.628113
  0
LINE
  8
0
  6
CONTINUOUS
 10
107.248108
 20
308.628113
 11
112.248108
 21
308.628113
  0
CIRCLE
  8
0
  6
CONTINUOUS
 10
108.248108
 20
312.628113
 40
2.250000
  0
ARC
  8
0
  6
CONTINUOUS
 10
107.248108
 20
311.628113
 40
3.000000
 50
180.000000
 51
270.000000
  0
LINE
  8
0
  6
CONTINUOUS
 10
107.248108
 20
307.628113
 11
111.248108
 21
307.628113
  0
ARC
  8
0
  6
CONTINUOUS
 10
107.248108
 20
311.628113
 40
4.000000
 50
180.000000
 51
270.000000
  0
LINE
  8
0
  6
CONTINUOUS
 10
103.248108
 20
315.628113
 11
103.248108
 21
311.628113
  0
LINE
  8
0
  6
CONTINUOUS
 10
111.248108
 20
307.628113
 11
112.248108
 21
308.628113
  0
LINE
  8
0
  6
CONTINUOUS
 10
103.248108
 20
315.628113
 11
104.248108
 21
316.628113
  0
LINE
  8
0
  6
CONTINUOUS
 10
55.248104
 20
308.628113
 11
50.248104
 21
308.628113
  0
LINE
  8
0
  6
CONTINUOUS
 10
58.248104
 20
311.628113
 11
58.248104
 21
316.628113
  0
CIRCLE
  8
0
  6
CONTINUOUS
 10
54.248104
 20
312.628113
 40
2.250000
  0
ARC
  8
0
  6
CONTINUOUS
 10
55.248104
 20
311.628113
 40
3.000000
 50
-90.000000
 51
0.000000
  0
LINE
  8
0
  6
CONTINUOUS
 10
59.248104
 20
311.628113
 11
59.248104
 21
315.628113
  0
ARC
  8
0
  6
CONTINUOUS
 10
55.248104
 20
311.628113
 40
4.000000
 50
-90.000000
 51
0.000000
  0
LINE
  8
0
  6
CONTINUOUS
 10
51.248104
 20
307.628113
 11
55.248104
 21
307.628113
  0
LINE
  8
0
  6
CONTINUOUS
 10
59.248104
 20
315.628113
 11
58.248104
 21
316.628113
  0
LINE
  8
0
  6
CONTINUOUS
 10
51.248104
 20
307.628113
 11
50.248104
 21
308.628113
  0
LINE
  8
0
  6
CONTINUOUS
 10
103.248108
 20
315.628113
 11
59.248104
 21
315.628113
  0
LINE
  8
0
  6
CONTINUOUS
 10
111.248108
 20
263.628113
 11
111.248108
 21
307.628113
  0
TEXT
  8
0
 10
-10.000000
 20
-8.000000
 40
4.000000
 41
1.000000
  1
HLMN-18R-10~240-T60WC
 50
0.000000
  0
ENDSEC
  0
EOF
