  0
SECTION
  2
HEADER
  9
$CLAYER
  8
1
  9
$LTSCALE
 40
3.0
  0
ENDSEC
  0
SECTION
  2
TABLES
  0
TABLE
  2
LTYPE
 70
     4
  0
LTYPE
  2
CONTINUOUS
  3
solid line
 70
    64
 72
    65
 73
     0
 40
0.0
  0
LTYPE
  2
DASHED
  3
__ __ __ __ __ __ __ __ __ __ __ __ __ __ __
 70
    64
 72
    65
 73
     2
 40
0.75
 49
0.5
 49
-0.25
  0
LTYPE
  2
CENTER
  3
____ _ ____ _ ____ _ ____ _ ____ _ ____ _ ____
 70
    64
 72
    65
 73
     4
 40
2.0
 49
1.25
 49
-0.25
 49
0.25
 49
-0.25
  0
LTYPE
  2
PHANTOM
  3
_____ _ _ _____ _ _ _____ _ _ _____ _ _ ____
 70
    64
 72
    65
 73
     6
 40
2.5
 49
1.25
 49
-0.25
 49
0.25
 49
-0.25
 49
0.25
 49
-0.25
  0
ENDTAB
  0
TABLE
  2
LAYER
 70
     1
  0
LAYER
  2
0
 70
    64
 62
     7
  6
CONTINUOUS
  0
ENDTAB
  0
TABLE
  2
STYLE
 70
     1
  0
STYLE
  2
STANDARD
 70
     0
 40
0.000000
 41
1.000000
 50
0.000000
 71
     0
 42
3.000000
  3
txt
  4
BIGFONT
  0
ENDTAB
  0
ENDSEC
  0
SECTION
  2
BLOCKS
  0
ENDSEC
  0
SECTION
  2
ENTITIES
  0
LINE
  8
0
  6
CONTINUOUS
 10
51.852489
 20
105.059998
 11
61.352489
 21
105.059998
  0
LINE
  8
0
  6
CONTINUOUS
 10
61.352489
 20
94.469299
 11
51.852489
 21
94.469299
  0
LINE
  8
0
  6
CONTINUOUS
 10
51.852489
 20
15.060000
 11
61.352489
 21
15.060000
  0
LINE
  8
0
  6
CONTINUOUS
 10
61.352489
 20
25.650700
 11
51.852489
 21
25.650700
  0
LINE
  8
0
  6
CONTINUOUS
 10
51.852489
 20
107.059998
 11
51.852489
 21
13.060000
  0
LINE
  8
0
  6
CONTINUOUS
 10
51.852489
 20
89.059998
 11
7.877490
 21
89.059998
  0
LINE
  8
0
  6
CONTINUOUS
 10
51.852489
 20
31.059999
 11
7.877489
 21
31.059999
  0
LINE
  8
0
  6
CONTINUOUS
 10
61.852489
 20
106.559998
 11
61.852489
 21
105.059998
  0
LINE
  8
0
  6
CONTINUOUS
 10
54.852489
 20
106.559998
 11
54.852489
 21
105.059998
  0
LINE
  8
0
  6
CONTINUOUS
 10
54.852489
 20
106.559998
 11
61.852489
 21
106.559998
  0
LINE
  8
0
  6
CONTINUOUS
 10
59.252491
 20
119.559998
 11
59.252491
 21
106.559998
  0
LINE
  8
0
  6
CONTINUOUS
 10
57.452492
 20
120.184998
 11
57.452492
 21
106.559998
  0
LINE
  8
0
  6
CONTINUOUS
 10
55.652489
 20
118.122498
 11
55.652489
 21
106.559998
  0
LINE
  8
0
  6
CONTINUOUS
 10
61.052490
 20
118.934998
 11
61.052490
 21
106.559998
  0
LINE
  8
0
  6
CONTINUOUS
 10
57.452492
 20
120.184998
 11
59.252491
 21
119.559998
  0
LINE
  8
0
  6
CONTINUOUS
 10
55.652489
 20
118.122498
 11
57.452492
 21
118.747498
  0
LINE
  8
0
  6
CONTINUOUS
 10
61.052490
 20
118.934998
 11
59.253502
 21
118.487289
  0
LINE
  8
0
  6
CONTINUOUS
 10
9.352488
 20
107.059998
 11
51.852489
 21
107.059998
  0
LINE
  8
0
  6
CONTINUOUS
 10
9.352488
 20
13.060000
 11
51.852489
 21
13.060000
  0
ARC
  8
0
  6
CONTINUOUS
 10
9.352513
 20
102.060028
 40
5.000000
 50
90.000000
 51
180.000000
  0
ARC
  8
0
  6
CONTINUOUS
 10
9.352487
 20
18.059999
 40
5.000000
 50
180.000000
 51
270.000000
  0
LINE
  8
0
  6
CONTINUOUS
 10
4.352513
 20
102.060013
 11
4.352488
 21
18.059990
  0
LINE
  8
0
  6
CONTINUOUS
 10
61.352489
 20
15.060000
 11
61.352489
 21
105.059998
  0
LINE
  8
0
  6
CENTER
 10
-7.718437
 20
60.060001
 11
157.141998
 21
60.060001
  0
LINE
  8
0
  6
CONTINUOUS
 10
234.852493
 20
17.760000
 11
234.852493
 21
10.760000
  0
LINE
  8
0
  6
CONTINUOUS
 10
61.352489
 20
15.060000
 11
133.852493
 21
15.060000
  0
LINE
  8
0
  6
CONTINUOUS
 10
61.352489
 20
105.059998
 11
140.695007
 21
105.059998
  0
LINE
  8
0
  6
CENTER
 10
184.352493
 20
133.747498
 11
184.352493
 21
3.540900
  0
LINE
  8
0
  6
CENTER
 10
148.839798
 20
85.760002
 11
219.274216
 21
85.760002
  0
LINE
  8
0
  6
CONTINUOUS
 10
133.852493
 20
10.760000
 11
234.852493
 21
10.760000
  0
LINE
  8
0
  6
CONTINUOUS
 10
168.931396
 20
123.760002
 11
199.773605
 21
123.760002
  0
LINE
  8
0
  6
CONTINUOUS
 10
135.852493
 20
19.760000
 11
232.852493
 21
19.760000
  0
LINE
  8
0
  6
CENTER
 10
222.352493
 20
25.247499
 11
222.352493
 21
3.997500
  0
LINE
  8
0
  6
CENTER
 10
146.352493
 20
25.497499
 11
146.352493
 21
3.497500
  0
LINE
  8
0
  6
CONTINUOUS
 10
232.723907
 20
101.753181
 11
202.645004
 21
122.853287
  0
LINE
  8
0
  6
CONTINUOUS
 10
135.981094
 20
101.753181
 11
166.059998
 21
122.853279
  0
ARC
  8
0
  6
CONTINUOUS
 10
199.773697
 20
118.759987
 40
5.000000
 50
54.950878
 51
90.000000
  0
ARC
  8
0
  6
CONTINUOUS
 10
168.931396
 20
118.760002
 40
5.000000
 50
90.000000
 51
125.049698
  0
ARC
  8
0
  6
CONTINUOUS
 10
138.852493
 20
97.659927
 40
5.000000
 50
125.049797
 51
180.000000
  0
ARC
  8
0
  6
CONTINUOUS
 10
229.852493
 20
97.659882
 40
5.000000
 50
0.000000
 51
54.950901
  0
LINE
  8
0
  6
CONTINUOUS
 10
234.852493
 20
17.760000
 11
234.852493
 21
97.659897
  0
ARC
  8
0
  6
CONTINUOUS
 10
232.852493
 20
17.759991
 40
2.000000
 50
0.000000
 51
90.000000
  0
LINE
  8
0
  6
CONTINUOUS
 10
133.852493
 20
97.659927
 11
133.852493
 21
97.659897
  0
ARC
  8
0
  6
CONTINUOUS
 10
135.852493
 20
17.760000
 40
2.000000
 50
90.000000
 51
180.000000
  0
LINE
  8
0
  6
DASHED
 10
226.602493
 20
19.760000
 11
226.602493
 21
10.760000
  0
LINE
  8
0
  6
DASHED
 10
218.102493
 20
19.760000
 11
218.102493
 21
10.760000
  0
LINE
  8
0
  6
DASHED
 10
150.602493
 20
19.760000
 11
150.602493
 21
10.760000
  0
LINE
  8
0
  6
DASHED
 10
142.102493
 20
19.760000
 11
142.102493
 21
10.760000
  0
CIRCLE
  8
0
  6
CONTINUOUS
 10
184.352493
 20
85.760002
 40
23.500000
  0
LINE
  8
0
  6
CONTINUOUS
 10
136.352493
 20
86.452187
 11
136.352493
 21
55.067486
  0
LINE
  8
0
  6
CONTINUOUS
 10
232.352493
 20
86.452362
 11
232.352493
 21
55.067650
  0
ARC
  8
0
  6
CONTINUOUS
 10
184.352493
 20
70.760002
 40
50.500000
 50
198.103806
 51
341.896210
  0
LINE
  8
0
  6
CONTINUOUS
 10
133.852493
 20
97.659912
 11
133.852402
 21
10.760000
  0
ARC
  8
0
  6
CONTINUOUS
 10
184.352493
 20
70.760002
 40
50.500000
 50
18.103790
 51
161.896194
  0
LINE
  8
0
  6
CONTINUOUS
 10
61.352489
 20
94.469299
 11
132.235397
 21
94.469299
  0
LINE
  8
0
  6
CONTINUOUS
 10
61.352489
 20
25.650700
 11
132.235397
 21
25.650700
  0
LINE
  8
0
  6
CONTINUOUS
 10
177.977493
 20
48.313221
 11
177.977493
 21
42.759998
  0
LINE
  8
0
  6
CONTINUOUS
 10
181.164993
 20
50.330315
 11
181.164993
 21
52.322502
  0
LINE
  8
0
  6
CONTINUOUS
 10
187.539993
 20
50.330315
 11
187.539993
 21
52.322502
  0
LINE
  8
0
  6
CONTINUOUS
 10
183.729904
 20
51.152092
 11
183.729904
 21
43.805901
  0
LINE
  8
0
  6
CONTINUOUS
 10
184.925293
 20
51.152092
 11
184.925293
 21
43.805901
  0
LINE
  8
0
  6
CONTINUOUS
 10
191.200607
 20
51.152092
 11
191.200607
 21
43.756088
  0
LINE
  8
0
  6
CONTINUOUS
 10
192.296295
 20
47.229969
 11
192.296295
 21
43.756088
  0
LINE
  8
0
  6
CONTINUOUS
 10
176.464996
 20
51.052483
 11
173.393097
 21
51.052483
  0
LINE
  8
0
  6
CONTINUOUS
 10
173.393097
 20
51.052483
 11
172.673294
 21
50.159988
  0
LINE
  8
0
  6
CONTINUOUS
 10
172.759903
 20
52.322502
 11
171.602493
 21
50.840508
  0
LINE
  8
0
  6
CONTINUOUS
 10
172.673294
 20
44.650921
 11
173.404602
 21
43.880611
  0
LINE
  8
0
  6
CONTINUOUS
 10
171.602493
 20
44.000858
 11
172.832306
 21
42.759998
  0
LINE
  8
0
  6
CONTINUOUS
 10
171.602493
 20
50.840508
 11
171.602493
 21
44.000858
  0
LINE
  8
0
  6
CONTINUOUS
 10
172.673294
 20
50.159988
 11
172.673294
 21
44.650921
  0
LINE
  8
0
  6
CONTINUOUS
 10
177.056107
 20
50.481041
 11
176.452896
 21
51.052483
  0
LINE
  8
0
  6
CONTINUOUS
 10
177.046494
 20
52.322502
 11
177.977493
 21
51.289360
  0
LINE
  8
0
  6
CONTINUOUS
 10
177.056107
 20
50.330315
 11
177.977493
 21
50.330315
  0
LINE
  8
0
  6
CONTINUOUS
 10
172.759903
 20
52.322502
 11
177.046494
 21
52.322502
  0
LINE
  8
0
  6
CONTINUOUS
 10
177.056107
 20
47.267319
 11
175.387695
 21
47.267319
  0
LINE
  8
0
  6
CONTINUOUS
 10
177.056107
 20
46.271229
 11
177.056107
 21
47.068111
  0
LINE
  8
0
  6
CONTINUOUS
 10
175.063904
 20
43.880611
 11
173.404602
 21
43.880611
  0
ARC
  8
0
  6
CONTINUOUS
 10
175.063904
 20
45.872791
 40
1.992187
 50
-89.999786
 51
0.000109
  0
LINE
  8
0
  6
CONTINUOUS
 10
177.056107
 20
43.522270
 11
177.056107
 21
42.759998
  0
LINE
  8
0
  6
CONTINUOUS
 10
177.977493
 20
51.289360
 11
177.977493
 21
50.330315
  0
LINE
  8
0
  6
CONTINUOUS
 10
177.056107
 20
47.267319
 11
177.056107
 21
45.872791
  0
LINE
  8
0
  6
CONTINUOUS
 10
175.387695
 20
48.313221
 11
175.387695
 21
47.267319
  0
LINE
  8
0
  6
CONTINUOUS
 10
177.056107
 20
42.759998
 11
177.977493
 21
42.759998
  0
LINE
  8
0
  6
CONTINUOUS
 10
177.056107
 20
43.522270
 11
176.147598
 21
42.759998
  0
LINE
  8
0
  6
CONTINUOUS
 10
184.925293
 20
43.805901
 11
185.323700
 21
43.805901
  0
LINE
  8
0
  6
CONTINUOUS
 10
183.256805
 20
43.805901
 11
183.256805
 21
42.759998
  0
LINE
  8
0
  6
CONTINUOUS
 10
185.323700
 20
43.805901
 11
185.323700
 21
42.759998
  0
LINE
  8
0
  6
CONTINUOUS
 10
186.875000
 20
50.330315
 11
187.539993
 21
50.330315
  0
LINE
  8
0
  6
CONTINUOUS
 10
181.164993
 20
50.330315
 11
181.872604
 21
50.330315
  0
LINE
  8
0
  6
CONTINUOUS
 10
181.164993
 20
52.322502
 11
187.539993
 21
52.322502
  0
LINE
  8
0
  6
CONTINUOUS
 10
183.256805
 20
42.759998
 11
185.323700
 21
42.759998
  0
LINE
  8
0
  6
CONTINUOUS
 10
183.256805
 20
43.805901
 11
183.729904
 21
43.805901
  0
ARC
  8
0
  6
CONTINUOUS
 10
194.550003
 20
49.770012
 40
2.552490
 50
-73.981873
 51
90.003510
  0
ARC
  8
0
  6
CONTINUOUS
 10
194.550003
 20
49.770012
 40
1.557193
 50
-82.585274
 51
62.411850
  0
LINE
  8
0
  6
CONTINUOUS
 10
190.727493
 20
52.322502
 11
194.550003
 21
52.322502
  0
LINE
  8
0
  6
CONTINUOUS
 10
190.727493
 20
52.322502
 11
190.727493
 21
51.152092
  0
LINE
  8
0
  6
CONTINUOUS
 10
192.296295
 20
51.152092
 11
192.296295
 21
48.225842
  0
LINE
  8
0
  6
CONTINUOUS
 10
195.254303
 20
47.316620
 11
196.834198
 21
43.756088
  0
LINE
  8
0
  6
CONTINUOUS
 10
194.336807
 20
47.229969
 11
195.831894
 21
43.756088
  0
LINE
  8
0
  6
CONTINUOUS
 10
190.727493
 20
43.756088
 11
191.200607
 21
43.756088
  0
LINE
  8
0
  6
CONTINUOUS
 10
192.296295
 20
43.756088
 11
192.732101
 21
43.756088
  0
LINE
  8
0
  6
CONTINUOUS
 10
192.732101
 20
42.759998
 11
190.727493
 21
42.759998
  0
LINE
  8
0
  6
CONTINUOUS
 10
195.633301
 20
43.756088
 11
195.831894
 21
43.756088
  0
LINE
  8
0
  6
CONTINUOUS
 10
196.834198
 20
43.756088
 11
197.102493
 21
43.756088
  0
LINE
  8
0
  6
CONTINUOUS
 10
195.633301
 20
42.759998
 11
197.102493
 21
42.759998
  0
LINE
  8
0
  6
CONTINUOUS
 10
197.102493
 20
43.756088
 11
197.102493
 21
42.759998
  0
LINE
  8
0
  6
CONTINUOUS
 10
195.633301
 20
43.756088
 11
195.633301
 21
42.759998
  0
LINE
  8
0
  6
CONTINUOUS
 10
192.732101
 20
43.756088
 11
192.732101
 21
42.759998
  0
LINE
  8
0
  6
CONTINUOUS
 10
190.727493
 20
43.756088
 11
190.727493
 21
42.759998
  0
LINE
  8
0
  6
CONTINUOUS
 10
182.214996
 20
51.152092
 11
181.872604
 21
50.330315
  0
LINE
  8
0
  6
CONTINUOUS
 10
186.586304
 20
51.152092
 11
186.875000
 21
50.330315
  0
LINE
  8
0
  6
CONTINUOUS
 10
184.925293
 20
51.152092
 11
186.586304
 21
51.152092
  0
LINE
  8
0
  6
CONTINUOUS
 10
183.729904
 20
51.152092
 11
182.214996
 21
51.152092
  0
LINE
  8
0
  6
CONTINUOUS
 10
190.727493
 20
51.152092
 11
191.200607
 21
51.152092
  0
LINE
  8
0
  6
CONTINUOUS
 10
192.296295
 20
51.152092
 11
195.271194
 21
51.150154
  0
LINE
  8
0
  6
CONTINUOUS
 10
177.056107
 20
50.481041
 11
177.056107
 21
50.330315
  0
LINE
  8
0
  6
CONTINUOUS
 10
172.832306
 20
42.759998
 11
176.147598
 21
42.759998
  0
LINE
  8
0
  6
CONTINUOUS
 10
192.296295
 20
48.225842
 11
194.751007
 21
48.225842
  0
LINE
  8
0
  6
CONTINUOUS
 10
192.296295
 20
47.229969
 11
194.336807
 21
47.229969
  0
LINE
  8
0
  6
CONTINUOUS
 10
175.387695
 20
48.313221
 11
177.977493
 21
48.313221
  0
LINE
  8
0
  6
CONTINUOUS
 10
189.852493
 20
82.760017
 11
189.852493
 21
88.760017
  0
LINE
  8
0
  6
CONTINUOUS
 10
195.852493
 20
82.760040
 11
195.852493
 21
88.760040
  0
LINE
  8
0
  6
CONTINUOUS
 10
195.852493
 20
82.760040
 11
189.852493
 21
82.760017
  0
LINE
  8
0
  6
CONTINUOUS
 10
195.852493
 20
88.760040
 11
189.852493
 21
88.760017
  0
ARC
  8
0
  6
CONTINUOUS
 10
184.352493
 20
85.760002
 40
9.000000
 50
19.471210
 51
340.528809
  0
LINE
  8
0
  6
CENTER
 10
374.352509
 20
3.973310
 11
374.352509
 21
132.716248
  0
LINE
  8
0
  6
CENTER
 10
319.102509
 20
60.060001
 11
430.589050
 21
60.060001
  0
LINE
  8
0
  6
CONTINUOUS
 10
432.352509
 20
17.760000
 11
432.352509
 21
10.760000
  0
LINE
  8
0
  6
CONTINUOUS
 10
316.352509
 20
17.760000
 11
316.352509
 21
10.760000
  0
LINE
  8
0
  6
CENTER
 10
291.102509
 20
85.760002
 11
455.602509
 21
85.760002
  0
LINE
  8
0
  6
CONTINUOUS
 10
316.352509
 20
10.760000
 11
432.352509
 21
10.760000
  0
LINE
  8
0
  6
CONTINUOUS
 10
414.352509
 20
19.760000
 11
430.352509
 21
19.760000
  0
LINE
  8
0
  6
CONTINUOUS
 10
337.352509
 20
22.760000
 11
337.352509
 21
121.148628
  0
LINE
  8
0
  6
CONTINUOUS
 10
411.352509
 20
22.760000
 11
411.352509
 21
121.148758
  0
LINE
  8
0
  6
CONTINUOUS
 10
416.352509
 20
63.259998
 11
416.352509
 21
108.260002
  0
LINE
  8
0
  6
CONTINUOUS
 10
415.352509
 20
109.260002
 11
413.352509
 21
109.260002
  0
LINE
  8
0
  6
CONTINUOUS
 10
415.352509
 20
62.259998
 11
413.352509
 21
62.259998
  0
LINE
  8
0
  6
CONTINUOUS
 10
374.352509
 20
123.760002
 11
409.387390
 21
123.148468
  0
LINE
  8
0
  6
CONTINUOUS
 10
339.317596
 20
123.148331
 11
374.352509
 21
123.760002
  0
ARC
  8
0
  6
CONTINUOUS
 10
413.352509
 20
111.260002
 40
2.000000
 50
180.000000
 51
270.000000
  0
ARC
  8
0
  6
CONTINUOUS
 10
409.352509
 20
121.148758
 40
2.000000
 50
0.000000
 51
89.000137
  0
ARC
  8
0
  6
CONTINUOUS
 10
339.352509
 20
121.148643
 40
2.000000
 50
91.000641
 51
180.000000
  0
ARC
  8
0
  6
CONTINUOUS
 10
413.352509
 20
60.260006
 40
2.000000
 50
90.000000
 51
180.000000
  0
ARC
  8
0
  6
CONTINUOUS
 10
415.352509
 20
108.259987
 40
1.000000
 50
0.000000
 51
90.000000
  0
ARC
  8
0
  6
CONTINUOUS
 10
415.352509
 20
63.259995
 40
1.000000
 50
-90.000000
 51
0.000000
  0
LINE
  8
0
  6
CONTINUOUS
 10
339.202515
 20
100.260002
 11
409.670685
 21
100.260002
  0
ARC
  8
0
  6
CONTINUOUS
 10
430.352509
 20
17.759991
 40
2.000000
 50
0.000000
 51
90.000000
  0
ARC
  8
0
  6
CONTINUOUS
 10
318.352509
 20
17.760010
 40
2.000000
 50
90.000000
 51
180.000000
  0
LINE
  8
0
  6
CENTER
 10
422.352509
 20
23.716249
 11
422.352509
 21
6.466250
  0
LINE
  8
0
  6
CENTER
 10
326.352509
 20
23.716249
 11
326.352509
 21
5.716250
  0
LINE
  8
0
  6
DASHED
 10
330.602509
 20
19.760000
 11
330.602509
 21
10.760000
  0
LINE
  8
0
  6
DASHED
 10
322.102509
 20
19.760000
 11
322.102509
 21
10.760000
  0
LINE
  8
0
  6
DASHED
 10
426.602509
 20
19.760000
 11
426.602509
 21
10.760000
  0
LINE
  8
0
  6
DASHED
 10
418.102509
 20
19.760000
 11
418.102509
 21
10.760000
  0
ARC
  8
0
  6
CONTINUOUS
 10
374.352509
 20
60.060001
 40
45.000000
 50
159.637695
 51
214.692093
  0
ARC
  8
0
  6
CONTINUOUS
 10
374.352509
 20
60.060001
 40
45.000000
 50
-34.692108
 51
20.437799
  0
LINE
  8
0
  6
CONTINUOUS
 10
332.352509
 20
63.259998
 11
332.352509
 21
108.260002
  0
LINE
  8
0
  6
CONTINUOUS
 10
333.352509
 20
109.260002
 11
335.352509
 21
109.260002
  0
LINE
  8
0
  6
CONTINUOUS
 10
333.352509
 20
62.259998
 11
335.352509
 21
62.259998
  0
ARC
  8
0
  6
CONTINUOUS
 10
335.352509
 20
111.260002
 40
2.000000
 50
-90.000000
 51
0.000000
  0
ARC
  8
0
  6
CONTINUOUS
 10
335.352509
 20
60.260006
 40
2.000000
 50
0.000000
 51
90.000000
  0
ARC
  8
0
  6
CONTINUOUS
 10
333.352509
 20
108.259987
 40
1.000000
 50
90.000000
 51
180.000000
  0
ARC
  8
0
  6
CONTINUOUS
 10
333.352509
 20
63.259995
 40
1.000000
 50
180.000000
 51
270.000000
  0
LINE
  8
0
  6
CONTINUOUS
 10
334.352509
 20
19.760000
 11
318.352509
 21
19.760000
  0
ARC
  8
0
  6
CONTINUOUS
 10
334.352509
 20
22.760000
 40
3.000000
 50
-90.000000
 51
0.000000
  0
ARC
  8
0
  6
CONTINUOUS
 10
414.352509
 20
22.760000
 40
3.000000
 50
180.000000
 51
270.000000
  0
LINE
  8
0
  6
CONTINUOUS
 10
421.352509
 20
33.959480
 11
421.352509
 21
76.760002
  0
LINE
  8
0
  6
CONTINUOUS
 10
327.352509
 20
33.959499
 11
327.352509
 21
76.760002
  0
LINE
  8
0
  6
CONTINUOUS
 10
329.402802
 20
29.009750
 11
337.021790
 21
21.390720
  0
LINE
  8
0
  6
CONTINUOUS
 10
419.302307
 20
29.009750
 11
411.683197
 21
21.390671
  0
ARC
  8
0
  6
CONTINUOUS
 10
334.352509
 20
33.959549
 40
7.000000
 50
180.000000
 51
225.000397
  0
ARC
  8
0
  6
CONTINUOUS
 10
414.352509
 20
33.959461
 40
7.000000
 50
-44.999569
 51
0.000000
  0
LINE
  8
0
  6
CONTINUOUS
 10
448.352509
 20
76.760002
 11
448.352509
 21
94.760002
  0
LINE
  8
0
  6
CONTINUOUS
 10
418.352509
 20
94.760002
 11
448.352509
 21
94.760002
  0
LINE
  8
0
  6
CONTINUOUS
 10
418.352509
 20
76.760002
 11
448.352509
 21
76.760002
  0
LINE
  8
0
  6
CONTINUOUS
 10
418.352509
 20
95.760002
 11
418.352509
 21
75.760002
  0
LINE
  8
0
  6
CONTINUOUS
 10
416.352509
 20
95.760002
 11
418.352509
 21
95.760002
  0
LINE
  8
0
  6
CONTINUOUS
 10
416.352509
 20
75.760002
 11
418.352509
 21
75.760002
  0
ARC
  8
0
  6
CONTINUOUS
 10
424.352509
 20
85.760002
 40
3.000000
 50
90.000000
 51
270.000000
  0
LINE
  8
0
  6
CONTINUOUS
 10
424.352509
 20
88.760002
 11
448.352509
 21
88.760002
  0
LINE
  8
0
  6
CONTINUOUS
 10
424.352509
 20
82.760002
 11
448.352509
 21
82.760002
  0
LINE
  8
0
  6
CONTINUOUS
 10
300.352509
 20
76.760002
 11
300.352509
 21
94.760002
  0
LINE
  8
0
  6
CONTINUOUS
 10
330.352509
 20
94.760002
 11
300.352509
 21
94.760002
  0
LINE
  8
0
  6
CONTINUOUS
 10
330.352509
 20
76.760002
 11
300.352509
 21
76.760002
  0
LINE
  8
0
  6
CONTINUOUS
 10
330.352509
 20
95.760002
 11
330.352509
 21
75.760002
  0
LINE
  8
0
  6
CONTINUOUS
 10
332.352509
 20
95.760002
 11
330.352509
 21
95.760002
  0
LINE
  8
0
  6
CONTINUOUS
 10
332.352509
 20
75.760002
 11
330.352509
 21
75.760002
  0
ARC
  8
0
  6
CONTINUOUS
 10
324.352509
 20
85.760002
 40
3.000000
 50
-90.000000
 51
90.000000
  0
LINE
  8
0
  6
CONTINUOUS
 10
324.352509
 20
88.760002
 11
300.352509
 21
88.760002
  0
LINE
  8
0
  6
CONTINUOUS
 10
324.352509
 20
82.760002
 11
300.352509
 21
82.760002
  0
LINE
  8
0
  6
CENTER
 10
184.352493
 20
368.406860
 11
184.352493
 21
207.236252
  0
LINE
  8
0
  6
CENTER
 10
222.352493
 20
344.038757
 11
222.352493
 21
325.276245
  0
LINE
  8
0
  6
CENTER
 10
-6.924062
 20
287.529388
 11
248.493744
 21
287.529388
  0
LINE
  8
0
  6
CONTINUOUS
 10
234.011612
 20
335.703888
 11
234.852493
 21
287.529388
  0
LINE
  8
0
  6
CONTINUOUS
 10
224.013138
 20
345.529388
 11
195.852493
 21
345.529388
  0
LINE
  8
0
  6
CONTINUOUS
 10
135.852493
 20
324.529388
 11
232.241272
 21
324.529388
  0
ARC
  8
0
  6
CONTINUOUS
 10
224.013138
 20
335.529388
 40
10.000000
 50
1.000000
 51
90.000000
  0
ARC
  8
0
  6
CONTINUOUS
 10
232.241272
 20
322.529388
 40
2.000000
 50
1.000000
 51
90.000000
  0
LINE
  8
0
  6
CENTER
 10
212.757187
 20
335.529388
 11
233.099686
 21
335.529388
  0
CIRCLE
  8
0
  6
CONTINUOUS
 10
222.352493
 20
335.529388
 40
4.250000
  0
LINE
  8
0
  6
CENTER
 10
146.352493
 20
344.236237
 11
146.352493
 21
325.276245
  0
LINE
  8
0
  6
CONTINUOUS
 10
134.693390
 20
335.703888
 11
134.507416
 21
325.049255
  0
ARC
  8
0
  6
CONTINUOUS
 10
144.691864
 20
335.529388
 40
10.000000
 50
90.000000
 51
179.000000
  0
ARC
  8
0
  6
CONTINUOUS
 10
136.463730
 20
322.529388
 40
2.000000
 50
90.000000
 51
179.000000
  0
LINE
  8
0
  6
CENTER
 10
155.679688
 20
335.529388
 11
136.127182
 21
335.529388
  0
CIRCLE
  8
0
  6
CONTINUOUS
 10
146.352493
 20
335.529388
 40
4.250000
  0
LINE
  8
0
  6
CONTINUOUS
 10
133.852493
 20
326.529388
 11
133.852493
 21
330.529388
  0
LINE
  8
0
  6
CONTINUOUS
 10
131.852493
 20
332.529388
 11
61.352501
 21
332.529388
  0
ARC
  8
0
  6
CONTINUOUS
 10
131.852493
 20
330.529388
 40
2.000000
 50
0.000000
 51
90.000000
  0
ARC
  8
0
  6
CONTINUOUS
 10
135.852493
 20
326.529388
 40
2.000000
 50
180.000000
 51
270.000000
  0
LINE
  8
0
  6
CONTINUOUS
 10
134.464035
 20
322.564270
 11
134.358704
 21
316.529388
  0
LINE
  8
0
  6
CONTINUOUS
 10
61.352501
 20
316.529388
 11
140.695053
 21
316.529388
  0
LINE
  8
0
  6
CONTINUOUS
 10
61.352501
 20
258.529388
 11
140.695053
 21
258.529388
  0
LINE
  8
0
  6
CONTINUOUS
 10
131.852493
 20
242.529373
 11
61.352501
 21
242.529373
  0
ARC
  8
0
  6
CONTINUOUS
 10
131.852493
 20
244.529373
 40
2.000000
 50
-90.000000
 51
0.000000
  0
LINE
  8
0
  6
CENTER
 10
222.352493
 20
230.673752
 11
222.352493
 21
249.732498
  0
LINE
  8
0
  6
CONTINUOUS
 10
234.011612
 20
239.354858
 11
234.852493
 21
287.529388
  0
LINE
  8
0
  6
CONTINUOUS
 10
224.013138
 20
229.529373
 11
195.852493
 21
229.529373
  0
LINE
  8
0
  6
CONTINUOUS
 10
135.852493
 20
250.529373
 11
232.241272
 21
250.529373
  0
ARC
  8
0
  6
CONTINUOUS
 10
224.013138
 20
239.529373
 40
10.000000
 50
-90.000000
 51
-1.000000
  0
ARC
  8
0
  6
CONTINUOUS
 10
232.241272
 20
252.529373
 40
2.000000
 50
-90.000000
 51
-1.000000
  0
LINE
  8
0
  6
CENTER
 10
213.250931
 20
239.529373
 11
233.297195
 21
239.529373
  0
CIRCLE
  8
0
  6
CONTINUOUS
 10
222.352493
 20
239.529373
 40
4.250000
  0
LINE
  8
0
  6
CENTER
 10
146.352493
 20
230.179993
 11
146.352493
 21
249.535004
  0
LINE
  8
0
  6
CONTINUOUS
 10
134.693390
 20
239.354858
 11
134.507416
 21
250.009491
  0
ARC
  8
0
  6
CONTINUOUS
 10
144.691864
 20
239.529373
 40
10.000000
 50
-179.000000
 51
-90.000000
  0
ARC
  8
0
  6
CONTINUOUS
 10
136.463730
 20
252.529373
 40
2.000000
 50
-179.000000
 51
-90.000000
  0
LINE
  8
0
  6
CENTER
 10
156.173431
 20
239.529373
 11
135.929688
 21
239.529373
  0
CIRCLE
  8
0
  6
CONTINUOUS
 10
146.352493
 20
239.529373
 40
4.250000
  0
LINE
  8
0
  6
CONTINUOUS
 10
133.852493
 20
248.529373
 11
133.852493
 21
244.529373
  0
ARC
  8
0
  6
CONTINUOUS
 10
135.852493
 20
248.529373
 40
2.000000
 50
-270.000000
 51
-180.000000
  0
LINE
  8
0
  6
CONTINUOUS
 10
134.464035
 20
252.494476
 11
134.358704
 21
258.529388
  0
LINE
  8
0
  6
CONTINUOUS
 10
167.352493
 20
319.529388
 11
167.352493
 21
255.529373
  0
LINE
  8
0
  6
CONTINUOUS
 10
201.352493
 20
319.529388
 11
201.352493
 21
255.529373
  0
LINE
  8
0
  6
CONTINUOUS
 10
140.695053
 20
314.529388
 11
140.695053
 21
260.529388
  0
LINE
  8
0
  6
CONTINUOUS
 10
206.852509
 20
329.529388
 11
161.852493
 21
329.529388
  0
LINE
  8
0
  6
CONTINUOUS
 10
160.852493
 20
328.529388
 11
160.852493
 21
326.529388
  0
LINE
  8
0
  6
CONTINUOUS
 10
207.852509
 20
328.529388
 11
207.852509
 21
326.529388
  0
ARC
  8
0
  6
CONTINUOUS
 10
158.852493
 20
326.529388
 40
2.000000
 50
-90.000000
 51
0.000000
  0
ARC
  8
0
  6
CONTINUOUS
 10
209.852493
 20
326.529388
 40
2.000000
 50
180.000000
 51
270.000000
  0
ARC
  8
0
  6
CONTINUOUS
 10
161.852509
 20
328.529388
 40
1.000000
 50
90.000000
 51
180.000000
  0
ARC
  8
0
  6
CONTINUOUS
 10
206.852509
 20
328.529388
 40
1.000000
 50
0.000000
 51
90.000000
  0
LINE
  8
0
  6
CONTINUOUS
 10
195.852493
 20
361.529388
 11
175.352493
 21
361.529388
  0
LINE
  8
0
  6
CONTINUOUS
 10
175.352493
 20
331.529388
 11
175.352493
 21
361.529388
  0
LINE
  8
0
  6
CONTINUOUS
 10
193.352493
 20
331.529388
 11
193.352493
 21
334.529388
  0
LINE
  8
0
  6
CONTINUOUS
 10
174.352493
 20
331.529388
 11
194.352493
 21
331.529388
  0
LINE
  8
0
  6
CONTINUOUS
 10
174.352493
 20
329.529388
 11
174.352493
 21
331.529388
  0
LINE
  8
0
  6
CONTINUOUS
 10
194.352493
 20
329.529388
 11
194.352493
 21
331.529388
  0
LINE
  8
0
  6
CONTINUOUS
 10
195.852493
 20
361.529388
 11
195.852493
 21
334.529388
  0
LINE
  8
0
  6
CONTINUOUS
 10
195.852493
 20
334.529388
 11
192.837494
 21
334.529388
  0
LINE
  8
0
  6
CONTINUOUS
 10
192.837494
 20
361.529388
 11
192.837494
 21
334.529388
  0
LINE
  8
0
  6
CONTINUOUS
 10
175.352493
 20
345.529388
 11
144.691864
 21
345.529388
  0
LINE
  8
0
  6
CONTINUOUS
 10
206.852509
 20
245.529373
 11
161.852493
 21
245.529373
  0
LINE
  8
0
  6
CONTINUOUS
 10
160.852493
 20
246.529373
 11
160.852493
 21
248.529373
  0
LINE
  8
0
  6
CONTINUOUS
 10
207.852509
 20
246.529373
 11
207.852509
 21
248.529373
  0
ARC
  8
0
  6
CONTINUOUS
 10
158.852493
 20
248.529373
 40
2.000000
 50
0.000000
 51
90.000000
  0
ARC
  8
0
  6
CONTINUOUS
 10
209.852493
 20
248.529373
 40
2.000000
 50
-270.000000
 51
-180.000000
  0
ARC
  8
0
  6
CONTINUOUS
 10
161.852509
 20
246.529373
 40
1.000000
 50
-180.000000
 51
-90.000000
  0
ARC
  8
0
  6
CONTINUOUS
 10
206.852509
 20
246.529373
 40
1.000000
 50
-90.000000
 51
0.000000
  0
LINE
  8
0
  6
CONTINUOUS
 10
195.852493
 20
213.529373
 11
175.352493
 21
213.529373
  0
LINE
  8
0
  6
CONTINUOUS
 10
175.352493
 20
243.529373
 11
175.352493
 21
213.529373
  0
LINE
  8
0
  6
CONTINUOUS
 10
193.352493
 20
243.529373
 11
193.352493
 21
240.529373
  0
LINE
  8
0
  6
CONTINUOUS
 10
174.352493
 20
243.529373
 11
194.352493
 21
243.529373
  0
LINE
  8
0
  6
CONTINUOUS
 10
174.352493
 20
245.529373
 11
174.352493
 21
243.529373
  0
LINE
  8
0
  6
CONTINUOUS
 10
194.352493
 20
245.529373
 11
194.352493
 21
243.529373
  0
LINE
  8
0
  6
CONTINUOUS
 10
195.852493
 20
213.529373
 11
195.852493
 21
240.529373
  0
LINE
  8
0
  6
CONTINUOUS
 10
195.852493
 20
240.529373
 11
192.837494
 21
240.529373
  0
LINE
  8
0
  6
CONTINUOUS
 10
192.837494
 20
213.529373
 11
192.837494
 21
240.529373
  0
LINE
  8
0
  6
CONTINUOUS
 10
175.352493
 20
229.529373
 11
144.691864
 21
229.529373
  0
LINE
  8
0
  6
CONTINUOUS
 10
51.852501
 20
332.529388
 11
61.352501
 21
332.529388
  0
LINE
  8
0
  6
CONTINUOUS
 10
61.352501
 20
316.529388
 11
51.852501
 21
316.529388
  0
LINE
  8
0
  6
CONTINUOUS
 10
51.852501
 20
242.529373
 11
61.352501
 21
242.529373
  0
LINE
  8
0
  6
CONTINUOUS
 10
61.352501
 20
242.529373
 11
61.352501
 21
280.663361
  0
LINE
  8
0
  6
CONTINUOUS
 10
61.352501
 20
258.529388
 11
51.852501
 21
258.529388
  0
LINE
  8
0
  6
CONTINUOUS
 10
54.852501
 20
281.529388
 11
54.852501
 21
293.529388
  0
LINE
  8
0
  6
CONTINUOUS
 10
61.852501
 20
281.529388
 11
61.852501
 21
293.529388
  0
LINE
  8
0
  6
CONTINUOUS
 10
55.852501
 20
294.529388
 11
60.852501
 21
294.529388
  0
LINE
  8
0
  6
CONTINUOUS
 10
60.852501
 20
280.529388
 11
55.852501
 21
280.529388
  0
ARC
  8
0
  6
CONTINUOUS
 10
60.852501
 20
293.529388
 40
1.000000
 50
0.000000
 51
90.000000
  0
ARC
  8
0
  6
CONTINUOUS
 10
55.852501
 20
293.529388
 40
1.000000
 50
90.000000
 51
180.000000
  0
ARC
  8
0
  6
CONTINUOUS
 10
55.852501
 20
281.529388
 40
1.000000
 50
180.000000
 51
270.000000
  0
ARC
  8
0
  6
CONTINUOUS
 10
60.852501
 20
281.529388
 40
1.000000
 50
-90.000000
 51
0.000000
  0
LINE
  8
0
  6
CONTINUOUS
 10
59.352501
 20
284.029388
 11
59.352501
 21
291.029388
  0
LINE
  8
0
  6
CONTINUOUS
 10
57.352501
 20
284.029388
 11
57.352501
 21
291.029388
  0
ARC
  8
0
  6
CONTINUOUS
 10
58.352501
 20
291.029388
 40
1.000000
 50
90.000000
 51
180.000000
  0
ARC
  8
0
  6
CONTINUOUS
 10
58.352501
 20
291.029388
 40
1.000000
 50
0.000000
 51
90.000000
  0
ARC
  8
0
  6
CONTINUOUS
 10
58.352501
 20
284.029388
 40
1.000000
 50
180.000000
 51
270.000000
  0
ARC
  8
0
  6
CONTINUOUS
 10
58.352501
 20
284.029388
 40
1.000000
 50
-90.000000
 51
0.000000
  0
LINE
  8
0
  6
CONTINUOUS
 10
61.352501
 20
294.395386
 11
61.352501
 21
332.529388
  0
LINE
  8
0
  6
CONTINUOUS
 10
51.852501
 20
334.529388
 11
51.852501
 21
240.529373
  0
LINE
  8
0
  6
CONTINUOUS
 10
51.852501
 20
316.529388
 11
7.877470
 21
316.529388
  0
LINE
  8
0
  6
CONTINUOUS
 10
51.852501
 20
258.529388
 11
7.877470
 21
258.529388
  0
LINE
  8
0
  6
CONTINUOUS
 10
9.352480
 20
334.529388
 11
51.852501
 21
334.529388
  0
LINE
  8
0
  6
CONTINUOUS
 10
9.352480
 20
240.529373
 11
51.852501
 21
240.529373
  0
ARC
  8
0
  6
CONTINUOUS
 10
9.352510
 20
329.529388
 40
5.000000
 50
90.000000
 51
180.000000
  0
ARC
  8
0
  6
CONTINUOUS
 10
9.352480
 20
245.529373
 40
5.000000
 50
180.000000
 51
270.000000
  0
LINE
  8
0
  6
CONTINUOUS
 10
4.352510
 20
329.529388
 11
4.352480
 21
245.529358
  0
ARC
  8
0
  6
CONTINUOUS
 10
51.852501
 20
248.259537
 40
4.500000
 50
0.000000
 51
90.000000
  0
ARC
  8
0
  6
CONTINUOUS
 10
51.852501
 20
248.259537
 40
3.000000
 50
0.000000
 51
90.000000
  0
ARC
  8
0
  6
CONTINUOUS
 10
51.852501
 20
248.259537
 40
1.500000
 50
0.000000
 51
90.000000
  0
LINE
  8
0
  6
CONTINUOUS
 10
53.352501
 20
248.259537
 11
53.352501
 21
243.243927
  0
LINE
  8
0
  6
CONTINUOUS
 10
54.852501
 20
248.259537
 11
54.852501
 21
243.759537
  0
LINE
  8
0
  6
CONTINUOUS
 10
56.352501
 20
248.259537
 11
56.352501
 21
243.759537
  0
LINE
  8
0
  6
CONTINUOUS
 10
53.352501
 20
243.259537
 11
54.852501
 21
243.759537
  0
LINE
  8
0
  6
CONTINUOUS
 10
54.852501
 20
244.259537
 11
56.352501
 21
243.759537
  0
ARC
  8
0
  6
CONTINUOUS
 10
51.852489
 20
88.589401
 40
4.500000
 50
0.000000
 51
90.000000
  0
ARC
  8
0
  6
CONTINUOUS
 10
51.852489
 20
88.589401
 40
3.000000
 50
0.000000
 51
90.000000
  0
ARC
  8
0
  6
CONTINUOUS
 10
51.852489
 20
88.589401
 40
1.500000
 50
0.000000
 51
90.000000
  0
LINE
  8
0
  6
CONTINUOUS
 10
53.352489
 20
88.589401
 11
53.352489
 21
83.573799
  0
LINE
  8
0
  6
CONTINUOUS
 10
54.852489
 20
88.589401
 11
54.852489
 21
84.089401
  0
LINE
  8
0
  6
CONTINUOUS
 10
56.352489
 20
88.589401
 11
56.352489
 21
84.089401
  0
LINE
  8
0
  6
CONTINUOUS
 10
53.352489
 20
83.589401
 11
54.852489
 21
84.089401
  0
LINE
  8
0
  6
CONTINUOUS
 10
54.852489
 20
84.589401
 11
56.352489
 21
84.089401
  0
TEXT
  8
0
 10
-7.000000
 20
3.000000
 40
4.000000
 41
1.000000
  1
HLMN-18T-160~240-S40
 50
0.000000
  0
ENDSEC
  0
EOF
