  0
SECTION
  2
HEADER
  9
$CLAYER
  8
1
  9
$LTSCALE
 40
3.0
  0
ENDSEC
  0
SECTION
  2
TABLES
  0
TABLE
  2
LTYPE
 70
     4
  0
LTYPE
  2
CONTINUOUS
  3
solid line
 70
    64
 72
    65
 73
     0
 40
0.0
  0
LTYPE
  2
DASHED
  3
__ __ __ __ __ __ __ __ __ __ __ __ __ __ __
 70
    64
 72
    65
 73
     2
 40
0.75
 49
0.5
 49
-0.25
  0
LTYPE
  2
CENTER
  3
____ _ ____ _ ____ _ ____ _ ____ _ ____ _ ____
 70
    64
 72
    65
 73
     4
 40
2.0
 49
1.25
 49
-0.25
 49
0.25
 49
-0.25
  0
LTYPE
  2
PHANTOM
  3
_____ _ _ _____ _ _ _____ _ _ _____ _ _ ____
 70
    64
 72
    65
 73
     6
 40
2.5
 49
1.25
 49
-0.25
 49
0.25
 49
-0.25
 49
0.25
 49
-0.25
  0
ENDTAB
  0
TABLE
  2
LAYER
 70
     1
  0
LAYER
  2
0
 70
    64
 62
     7
  6
CONTINUOUS
  0
ENDTAB
  0
TABLE
  2
STYLE
 70
     1
  0
STYLE
  2
STANDARD
 70
     0
 40
0.000000
 41
1.000000
 50
0.000000
 71
     0
 42
3.000000
  3
txt
  4
BIGFONT
  0
ENDTAB
  0
ENDSEC
  0
SECTION
  2
BLOCKS
  0
ENDSEC
  0
SECTION
  2
ENTITIES
  0
LINE
  8
0
  6
CONTINUOUS
 10
63.174992
 20
8.005000
 11
63.174992
 21
98.004997
  0
LINE
  8
0
  6
CENTER
 10
63.174992
 20
53.005001
 11
158.964493
 21
53.005001
  0
LINE
  8
0
  6
CONTINUOUS
 10
236.675003
 20
10.705000
 11
236.675003
 21
3.705000
  0
LINE
  8
0
  6
CONTINUOUS
 10
63.174992
 20
8.005000
 11
135.675003
 21
8.005000
  0
LINE
  8
0
  6
CONTINUOUS
 10
63.174992
 20
98.004997
 11
142.517502
 21
98.004997
  0
LINE
  8
0
  6
CENTER
 10
186.175003
 20
126.692497
 11
186.175003
 21
-3.514100
  0
LINE
  8
0
  6
CENTER
 10
150.662292
 20
78.705002
 11
225.078751
 21
78.705002
  0
LINE
  8
0
  6
CONTINUOUS
 10
135.675003
 20
3.705000
 11
236.675003
 21
3.705000
  0
LINE
  8
0
  6
CONTINUOUS
 10
170.753906
 20
116.705002
 11
201.596100
 21
116.705002
  0
LINE
  8
0
  6
CONTINUOUS
 10
137.675003
 20
12.705000
 11
234.675003
 21
12.705000
  0
LINE
  8
0
  6
CENTER
 10
224.175003
 20
18.192499
 11
224.175003
 21
-3.057500
  0
LINE
  8
0
  6
CENTER
 10
148.175003
 20
18.442499
 11
148.175003
 21
-3.557500
  0
LINE
  8
0
  6
CONTINUOUS
 10
234.546402
 20
94.698181
 11
204.467499
 21
115.798286
  0
LINE
  8
0
  6
CONTINUOUS
 10
137.803604
 20
94.698181
 11
167.882507
 21
115.798279
  0
ARC
  8
0
  6
CONTINUOUS
 10
201.596207
 20
111.704987
 40
5.000000
 50
54.950878
 51
90.000000
  0
ARC
  8
0
  6
CONTINUOUS
 10
170.753906
 20
111.705002
 40
5.000000
 50
90.000000
 51
125.049698
  0
ARC
  8
0
  6
CONTINUOUS
 10
140.675003
 20
90.604927
 40
5.000000
 50
125.049797
 51
180.000000
  0
ARC
  8
0
  6
CONTINUOUS
 10
231.675003
 20
90.604881
 40
5.000000
 50
0.000000
 51
54.950901
  0
LINE
  8
0
  6
CONTINUOUS
 10
236.675003
 20
10.705000
 11
236.675003
 21
90.604897
  0
ARC
  8
0
  6
CONTINUOUS
 10
234.675003
 20
10.704990
 40
2.000000
 50
0.000000
 51
90.000000
  0
LINE
  8
0
  6
CONTINUOUS
 10
135.675003
 20
90.604927
 11
135.675003
 21
90.604897
  0
ARC
  8
0
  6
CONTINUOUS
 10
137.675003
 20
10.705000
 40
2.000000
 50
90.000000
 51
180.000000
  0
LINE
  8
0
  6
DASHED
 10
228.425003
 20
12.705000
 11
228.425003
 21
3.705000
  0
LINE
  8
0
  6
DASHED
 10
219.925003
 20
12.705000
 11
219.925003
 21
3.705000
  0
LINE
  8
0
  6
DASHED
 10
152.425003
 20
12.705000
 11
152.425003
 21
3.705000
  0
LINE
  8
0
  6
DASHED
 10
143.925003
 20
12.705000
 11
143.925003
 21
3.705000
  0
CIRCLE
  8
0
  6
CONTINUOUS
 10
186.175003
 20
78.705002
 40
23.500000
  0
LINE
  8
0
  6
CONTINUOUS
 10
138.175003
 20
79.397186
 11
138.175003
 21
48.012486
  0
LINE
  8
0
  6
CONTINUOUS
 10
234.175003
 20
79.397362
 11
234.175003
 21
48.012650
  0
ARC
  8
0
  6
CONTINUOUS
 10
186.175003
 20
63.705002
 40
50.500000
 50
198.103806
 51
341.896210
  0
LINE
  8
0
  6
CONTINUOUS
 10
135.675003
 20
90.604912
 11
135.674896
 21
3.705000
  0
ARC
  8
0
  6
CONTINUOUS
 10
186.175003
 20
63.705002
 40
50.500000
 50
18.103790
 51
161.896194
  0
LINE
  8
0
  6
CONTINUOUS
 10
63.174992
 20
87.414299
 11
134.057907
 21
87.414299
  0
LINE
  8
0
  6
CONTINUOUS
 10
63.174992
 20
18.595699
 11
134.057907
 21
18.595699
  0
LINE
  8
0
  6
CONTINUOUS
 10
179.800003
 20
41.258221
 11
179.800003
 21
35.705002
  0
LINE
  8
0
  6
CONTINUOUS
 10
182.987503
 20
43.275314
 11
182.987503
 21
45.267502
  0
LINE
  8
0
  6
CONTINUOUS
 10
189.362503
 20
43.275314
 11
189.362503
 21
45.267502
  0
LINE
  8
0
  6
CONTINUOUS
 10
185.552399
 20
44.097092
 11
185.552399
 21
36.750900
  0
LINE
  8
0
  6
CONTINUOUS
 10
186.747803
 20
44.097092
 11
186.747803
 21
36.750900
  0
LINE
  8
0
  6
CONTINUOUS
 10
193.023102
 20
44.097092
 11
193.023102
 21
36.701092
  0
LINE
  8
0
  6
CONTINUOUS
 10
194.118805
 20
40.174969
 11
194.118805
 21
36.701092
  0
LINE
  8
0
  6
CONTINUOUS
 10
178.287506
 20
43.997482
 11
175.215607
 21
43.997482
  0
LINE
  8
0
  6
CONTINUOUS
 10
175.215607
 20
43.997482
 11
174.495804
 21
43.104988
  0
LINE
  8
0
  6
CONTINUOUS
 10
174.582397
 20
45.267502
 11
173.425003
 21
43.785507
  0
LINE
  8
0
  6
CONTINUOUS
 10
174.495804
 20
37.595921
 11
175.227097
 21
36.825611
  0
LINE
  8
0
  6
CONTINUOUS
 10
173.425003
 20
36.945862
 11
174.654800
 21
35.705002
  0
LINE
  8
0
  6
CONTINUOUS
 10
173.425003
 20
43.785507
 11
173.425003
 21
36.945862
  0
LINE
  8
0
  6
CONTINUOUS
 10
174.495804
 20
43.104988
 11
174.495804
 21
37.595921
  0
LINE
  8
0
  6
CONTINUOUS
 10
178.878601
 20
43.426041
 11
178.275406
 21
43.997482
  0
LINE
  8
0
  6
CONTINUOUS
 10
178.869003
 20
45.267502
 11
179.800003
 21
44.234360
  0
LINE
  8
0
  6
CONTINUOUS
 10
178.878601
 20
43.275314
 11
179.800003
 21
43.275314
  0
LINE
  8
0
  6
CONTINUOUS
 10
174.582397
 20
45.267502
 11
178.869003
 21
45.267502
  0
LINE
  8
0
  6
CONTINUOUS
 10
178.878601
 20
40.212318
 11
177.210205
 21
40.212318
  0
LINE
  8
0
  6
CONTINUOUS
 10
178.878601
 20
39.216228
 11
178.878601
 21
40.013111
  0
LINE
  8
0
  6
CONTINUOUS
 10
176.886398
 20
36.825611
 11
175.227097
 21
36.825611
  0
ARC
  8
0
  6
CONTINUOUS
 10
176.886398
 20
38.817791
 40
1.992187
 50
-89.999786
 51
0.000109
  0
LINE
  8
0
  6
CONTINUOUS
 10
178.878601
 20
36.467270
 11
178.878601
 21
35.705002
  0
LINE
  8
0
  6
CONTINUOUS
 10
179.800003
 20
44.234360
 11
179.800003
 21
43.275314
  0
LINE
  8
0
  6
CONTINUOUS
 10
178.878601
 20
40.212318
 11
178.878601
 21
38.817791
  0
LINE
  8
0
  6
CONTINUOUS
 10
177.210205
 20
41.258221
 11
177.210205
 21
40.212318
  0
LINE
  8
0
  6
CONTINUOUS
 10
178.878601
 20
35.705002
 11
179.800003
 21
35.705002
  0
LINE
  8
0
  6
CONTINUOUS
 10
178.878601
 20
36.467270
 11
177.970093
 21
35.705002
  0
LINE
  8
0
  6
CONTINUOUS
 10
186.747803
 20
36.750900
 11
187.146194
 21
36.750900
  0
LINE
  8
0
  6
CONTINUOUS
 10
185.079300
 20
36.750900
 11
185.079300
 21
35.705002
  0
LINE
  8
0
  6
CONTINUOUS
 10
187.146194
 20
36.750900
 11
187.146194
 21
35.705002
  0
LINE
  8
0
  6
CONTINUOUS
 10
188.697495
 20
43.275314
 11
189.362503
 21
43.275314
  0
LINE
  8
0
  6
CONTINUOUS
 10
182.987503
 20
43.275314
 11
183.695099
 21
43.275314
  0
LINE
  8
0
  6
CONTINUOUS
 10
182.987503
 20
45.267502
 11
189.362503
 21
45.267502
  0
LINE
  8
0
  6
CONTINUOUS
 10
185.079300
 20
35.705002
 11
187.146194
 21
35.705002
  0
LINE
  8
0
  6
CONTINUOUS
 10
185.079300
 20
36.750900
 11
185.552399
 21
36.750900
  0
ARC
  8
0
  6
CONTINUOUS
 10
196.372498
 20
42.715012
 40
2.552490
 50
-73.981873
 51
90.003510
  0
ARC
  8
0
  6
CONTINUOUS
 10
196.372498
 20
42.715012
 40
1.557193
 50
-82.585274
 51
62.411850
  0
LINE
  8
0
  6
CONTINUOUS
 10
192.550003
 20
45.267502
 11
196.372498
 21
45.267502
  0
LINE
  8
0
  6
CONTINUOUS
 10
192.550003
 20
45.267502
 11
192.550003
 21
44.097092
  0
LINE
  8
0
  6
CONTINUOUS
 10
194.118805
 20
44.097092
 11
194.118805
 21
41.170841
  0
LINE
  8
0
  6
CONTINUOUS
 10
197.076797
 20
40.261620
 11
198.656693
 21
36.701092
  0
LINE
  8
0
  6
CONTINUOUS
 10
196.159302
 20
40.174969
 11
197.654404
 21
36.701092
  0
LINE
  8
0
  6
CONTINUOUS
 10
192.550003
 20
36.701092
 11
193.023102
 21
36.701092
  0
LINE
  8
0
  6
CONTINUOUS
 10
194.118805
 20
36.701092
 11
194.554596
 21
36.701092
  0
LINE
  8
0
  6
CONTINUOUS
 10
194.554596
 20
35.705002
 11
192.550003
 21
35.705002
  0
LINE
  8
0
  6
CONTINUOUS
 10
197.455795
 20
36.701092
 11
197.654404
 21
36.701092
  0
LINE
  8
0
  6
CONTINUOUS
 10
198.656693
 20
36.701092
 11
198.925003
 21
36.701092
  0
LINE
  8
0
  6
CONTINUOUS
 10
197.455795
 20
35.705002
 11
198.925003
 21
35.705002
  0
LINE
  8
0
  6
CONTINUOUS
 10
198.925003
 20
36.701092
 11
198.925003
 21
35.705002
  0
LINE
  8
0
  6
CONTINUOUS
 10
197.455795
 20
36.701092
 11
197.455795
 21
35.705002
  0
LINE
  8
0
  6
CONTINUOUS
 10
194.554596
 20
36.701092
 11
194.554596
 21
35.705002
  0
LINE
  8
0
  6
CONTINUOUS
 10
192.550003
 20
36.701092
 11
192.550003
 21
35.705002
  0
LINE
  8
0
  6
CONTINUOUS
 10
184.037506
 20
44.097092
 11
183.695099
 21
43.275314
  0
LINE
  8
0
  6
CONTINUOUS
 10
188.408798
 20
44.097092
 11
188.697495
 21
43.275314
  0
LINE
  8
0
  6
CONTINUOUS
 10
186.747803
 20
44.097092
 11
188.408798
 21
44.097092
  0
LINE
  8
0
  6
CONTINUOUS
 10
185.552399
 20
44.097092
 11
184.037506
 21
44.097092
  0
LINE
  8
0
  6
CONTINUOUS
 10
192.550003
 20
44.097092
 11
193.023102
 21
44.097092
  0
LINE
  8
0
  6
CONTINUOUS
 10
194.118805
 20
44.097092
 11
197.093704
 21
44.095154
  0
LINE
  8
0
  6
CONTINUOUS
 10
178.878601
 20
43.426041
 11
178.878601
 21
43.275314
  0
LINE
  8
0
  6
CONTINUOUS
 10
174.654800
 20
35.705002
 11
177.970093
 21
35.705002
  0
LINE
  8
0
  6
CONTINUOUS
 10
194.118805
 20
41.170841
 11
196.573502
 21
41.170841
  0
LINE
  8
0
  6
CONTINUOUS
 10
194.118805
 20
40.174969
 11
196.159302
 21
40.174969
  0
LINE
  8
0
  6
CONTINUOUS
 10
177.210205
 20
41.258221
 11
179.800003
 21
41.258221
  0
LINE
  8
0
  6
CONTINUOUS
 10
191.675003
 20
75.705017
 11
191.675003
 21
81.705017
  0
LINE
  8
0
  6
CONTINUOUS
 10
197.675003
 20
75.705040
 11
197.675003
 21
81.705040
  0
LINE
  8
0
  6
CONTINUOUS
 10
197.675003
 20
75.705040
 11
191.675003
 21
75.705017
  0
LINE
  8
0
  6
CONTINUOUS
 10
197.675003
 20
81.705040
 11
191.675003
 21
81.705017
  0
ARC
  8
0
  6
CONTINUOUS
 10
186.175003
 20
78.705002
 40
9.000000
 50
19.471210
 51
340.528809
  0
LINE
  8
0
  6
CONTINUOUS
 10
53.674999
 20
98.004997
 11
63.174999
 21
98.004997
  0
LINE
  8
0
  6
CONTINUOUS
 10
63.174999
 20
87.414299
 11
53.674999
 21
87.414299
  0
LINE
  8
0
  6
CONTINUOUS
 10
53.674999
 20
8.005000
 11
63.174999
 21
8.005000
  0
LINE
  8
0
  6
CONTINUOUS
 10
63.174999
 20
18.595699
 11
53.674999
 21
18.595699
  0
LINE
  8
0
  6
CENTER
 10
-5.000000
 20
53.005001
 11
63.174999
 21
53.005001
  0
LINE
  8
0
  6
CONTINUOUS
 10
53.674999
 20
100.004997
 11
53.674999
 21
6.005000
  0
LINE
  8
0
  6
CONTINUOUS
 10
53.674999
 20
82.004997
 11
9.700000
 21
82.004997
  0
LINE
  8
0
  6
CONTINUOUS
 10
53.674999
 20
24.004999
 11
9.700002
 21
24.004999
  0
LINE
  8
0
  6
CONTINUOUS
 10
11.174998
 20
100.004997
 11
53.674999
 21
100.004997
  0
LINE
  8
0
  6
CONTINUOUS
 10
11.174999
 20
6.005000
 11
53.674999
 21
6.005000
  0
LINE
  8
0
  6
CONTINUOUS
 10
6.174998
 20
11.005000
 11
6.174998
 21
95.004997
  0
ARC
  8
0
  6
CONTINUOUS
 10
11.175023
 20
95.005020
 40
5.000000
 50
90.000000
 51
180.000000
  0
ARC
  8
0
  6
CONTINUOUS
 10
11.174998
 20
11.005000
 40
5.000000
 50
180.000000
 51
270.000000
  0
LINE
  8
0
  6
CENTER
 10
386.174988
 20
-3.081690
 11
386.174988
 21
157.462494
  0
LINE
  8
0
  6
CENTER
 10
330.924988
 20
53.005001
 11
438.174988
 21
53.005001
  0
LINE
  8
0
  6
CONTINUOUS
 10
444.174988
 20
10.705000
 11
444.174988
 21
3.705000
  0
LINE
  8
0
  6
CONTINUOUS
 10
328.174988
 20
10.705000
 11
328.174988
 21
3.705000
  0
LINE
  8
0
  6
CENTER
 10
302.924988
 20
78.705002
 11
467.424988
 21
78.705002
  0
LINE
  8
0
  6
CONTINUOUS
 10
328.174988
 20
3.705000
 11
444.174988
 21
3.705000
  0
LINE
  8
0
  6
CONTINUOUS
 10
426.174988
 20
12.705000
 11
442.174988
 21
12.705000
  0
LINE
  8
0
  6
CONTINUOUS
 10
349.174988
 20
15.705000
 11
349.174988
 21
114.093628
  0
LINE
  8
0
  6
CONTINUOUS
 10
423.174988
 20
15.705000
 11
423.174988
 21
114.093758
  0
LINE
  8
0
  6
CONTINUOUS
 10
428.174988
 20
56.204998
 11
428.174988
 21
101.205002
  0
LINE
  8
0
  6
CONTINUOUS
 10
427.174988
 20
102.205002
 11
425.174988
 21
102.205002
  0
LINE
  8
0
  6
CONTINUOUS
 10
427.174988
 20
55.204998
 11
425.174988
 21
55.204998
  0
LINE
  8
0
  6
CONTINUOUS
 10
386.174988
 20
116.705002
 11
421.209900
 21
116.093468
  0
LINE
  8
0
  6
CONTINUOUS
 10
351.140106
 20
116.093330
 11
386.174988
 21
116.705002
  0
ARC
  8
0
  6
CONTINUOUS
 10
425.174988
 20
104.205002
 40
2.000000
 50
180.000000
 51
270.000000
  0
ARC
  8
0
  6
CONTINUOUS
 10
421.174988
 20
114.093758
 40
2.000000
 50
0.000000
 51
89.000137
  0
ARC
  8
0
  6
CONTINUOUS
 10
351.174988
 20
114.093643
 40
2.000000
 50
91.000641
 51
180.000000
  0
ARC
  8
0
  6
CONTINUOUS
 10
425.174988
 20
53.205006
 40
2.000000
 50
90.000000
 51
180.000000
  0
ARC
  8
0
  6
CONTINUOUS
 10
427.174988
 20
101.204987
 40
1.000000
 50
0.000000
 51
90.000000
  0
ARC
  8
0
  6
CONTINUOUS
 10
427.174988
 20
56.204994
 40
1.000000
 50
-90.000000
 51
0.000000
  0
LINE
  8
0
  6
CONTINUOUS
 10
351.024994
 20
93.205002
 11
421.493195
 21
93.205002
  0
ARC
  8
0
  6
CONTINUOUS
 10
442.174988
 20
10.704990
 40
2.000000
 50
0.000000
 51
90.000000
  0
ARC
  8
0
  6
CONTINUOUS
 10
330.174988
 20
10.705010
 40
2.000000
 50
90.000000
 51
180.000000
  0
LINE
  8
0
  6
CENTER
 10
434.174988
 20
16.661249
 11
434.174988
 21
-0.588750
  0
LINE
  8
0
  6
CENTER
 10
338.174988
 20
16.661249
 11
338.174988
 21
-1.338750
  0
LINE
  8
0
  6
DASHED
 10
342.424988
 20
12.705000
 11
342.424988
 21
3.705000
  0
LINE
  8
0
  6
DASHED
 10
333.924988
 20
12.705000
 11
333.924988
 21
3.705000
  0
LINE
  8
0
  6
DASHED
 10
438.424988
 20
12.705000
 11
438.424988
 21
3.705000
  0
LINE
  8
0
  6
DASHED
 10
429.924988
 20
12.705000
 11
429.924988
 21
3.705000
  0
ARC
  8
0
  6
CONTINUOUS
 10
386.174988
 20
53.005001
 40
45.000000
 50
159.637695
 51
214.692093
  0
ARC
  8
0
  6
CONTINUOUS
 10
386.174988
 20
53.005001
 40
45.000000
 50
-34.692108
 51
20.437799
  0
LINE
  8
0
  6
CONTINUOUS
 10
344.174988
 20
56.204998
 11
344.174988
 21
101.205002
  0
LINE
  8
0
  6
CONTINUOUS
 10
345.174988
 20
102.205002
 11
347.174988
 21
102.205002
  0
LINE
  8
0
  6
CONTINUOUS
 10
345.174988
 20
55.204998
 11
347.174988
 21
55.204998
  0
ARC
  8
0
  6
CONTINUOUS
 10
347.174988
 20
104.205002
 40
2.000000
 50
-90.000000
 51
0.000000
  0
ARC
  8
0
  6
CONTINUOUS
 10
347.174988
 20
53.205006
 40
2.000000
 50
0.000000
 51
90.000000
  0
ARC
  8
0
  6
CONTINUOUS
 10
345.174988
 20
101.204987
 40
1.000000
 50
90.000000
 51
180.000000
  0
ARC
  8
0
  6
CONTINUOUS
 10
345.174988
 20
56.204994
 40
1.000000
 50
180.000000
 51
270.000000
  0
LINE
  8
0
  6
CONTINUOUS
 10
346.174988
 20
12.705000
 11
330.174988
 21
12.705000
  0
ARC
  8
0
  6
CONTINUOUS
 10
346.174988
 20
15.705000
 40
3.000000
 50
-90.000000
 51
0.000000
  0
ARC
  8
0
  6
CONTINUOUS
 10
426.174988
 20
15.705000
 40
3.000000
 50
180.000000
 51
270.000000
  0
LINE
  8
0
  6
CONTINUOUS
 10
433.174988
 20
26.904480
 11
433.174988
 21
69.705002
  0
LINE
  8
0
  6
CONTINUOUS
 10
339.174988
 20
26.904499
 11
339.174988
 21
69.705002
  0
LINE
  8
0
  6
CONTINUOUS
 10
341.225311
 20
21.954750
 11
348.844299
 21
14.335720
  0
LINE
  8
0
  6
CONTINUOUS
 10
431.124786
 20
21.954750
 11
423.505707
 21
14.335670
  0
ARC
  8
0
  6
CONTINUOUS
 10
346.174988
 20
26.904551
 40
7.000000
 50
180.000000
 51
225.000397
  0
ARC
  8
0
  6
CONTINUOUS
 10
426.174988
 20
26.904461
 40
7.000000
 50
-44.999569
 51
0.000000
  0
LINE
  8
0
  6
CONTINUOUS
 10
460.174988
 20
69.705002
 11
460.174988
 21
87.705002
  0
LINE
  8
0
  6
CONTINUOUS
 10
430.174988
 20
87.705002
 11
460.174988
 21
87.705002
  0
LINE
  8
0
  6
CONTINUOUS
 10
430.174988
 20
69.705002
 11
460.174988
 21
69.705002
  0
LINE
  8
0
  6
CONTINUOUS
 10
430.174988
 20
88.705002
 11
430.174988
 21
68.705002
  0
LINE
  8
0
  6
CONTINUOUS
 10
428.174988
 20
88.705002
 11
430.174988
 21
88.705002
  0
LINE
  8
0
  6
CONTINUOUS
 10
428.174988
 20
68.705002
 11
430.174988
 21
68.705002
  0
ARC
  8
0
  6
CONTINUOUS
 10
436.174988
 20
78.705002
 40
3.000000
 50
90.000000
 51
270.000000
  0
LINE
  8
0
  6
CONTINUOUS
 10
436.174988
 20
81.705002
 11
460.174988
 21
81.705002
  0
LINE
  8
0
  6
CONTINUOUS
 10
436.174988
 20
75.705002
 11
460.174988
 21
75.705002
  0
LINE
  8
0
  6
CONTINUOUS
 10
312.174988
 20
69.705002
 11
312.174988
 21
87.705002
  0
LINE
  8
0
  6
CONTINUOUS
 10
342.174988
 20
87.705002
 11
312.174988
 21
87.705002
  0
LINE
  8
0
  6
CONTINUOUS
 10
342.174988
 20
69.705002
 11
312.174988
 21
69.705002
  0
LINE
  8
0
  6
CONTINUOUS
 10
342.174988
 20
88.705002
 11
342.174988
 21
68.705002
  0
LINE
  8
0
  6
CONTINUOUS
 10
344.174988
 20
88.705002
 11
342.174988
 21
88.705002
  0
LINE
  8
0
  6
CONTINUOUS
 10
344.174988
 20
68.705002
 11
342.174988
 21
68.705002
  0
ARC
  8
0
  6
CONTINUOUS
 10
336.174988
 20
78.705002
 40
3.000000
 50
-90.000000
 51
90.000000
  0
LINE
  8
0
  6
CONTINUOUS
 10
336.174988
 20
81.705002
 11
312.174988
 21
81.705002
  0
LINE
  8
0
  6
CONTINUOUS
 10
336.174988
 20
75.705002
 11
312.174988
 21
75.705002
  0
LINE
  8
0
  6
CONTINUOUS
 10
55.674980
 20
99.505013
 11
114.175003
 21
99.504997
  0
LINE
  8
0
  6
CONTINUOUS
 10
55.674980
 20
99.504997
 11
55.674980
 21
98.004997
  0
LINE
  8
0
  6
CONTINUOUS
 10
101.674980
 20
99.504997
 11
101.674980
 21
98.004997
  0
LINE
  8
0
  6
CONTINUOUS
 10
54.174980
 20
148.505005
 11
54.174980
 21
101.505013
  0
LINE
  8
0
  6
CONTINUOUS
 10
116.175003
 20
148.505020
 11
116.175003
 21
101.504997
  0
LINE
  8
0
  6
CONTINUOUS
 10
116.175003
 20
101.504997
 11
114.175003
 21
99.504997
  0
LINE
  8
0
  6
CONTINUOUS
 10
54.174980
 20
101.505013
 11
56.174980
 21
99.505013
  0
LINE
  8
0
  6
CONTINUOUS
 10
54.174980
 20
101.505013
 11
116.175003
 21
101.504997
  0
LINE
  8
0
  6
CONTINUOUS
 10
54.174980
 20
111.505013
 11
116.175003
 21
111.505013
  0
LINE
  8
0
  6
CENTER
 10
85.174980
 20
157.153748
 11
85.174980
 21
94.910980
  0
LINE
  8
0
  6
CONTINUOUS
 10
54.174980
 20
112.505013
 11
116.175003
 21
112.505013
  0
LINE
  8
0
  6
CONTINUOUS
 10
55.174980
 20
149.505005
 11
115.175003
 21
149.505020
  0
LINE
  8
0
  6
CONTINUOUS
 10
115.175003
 20
149.505020
 11
116.175003
 21
148.505020
  0
LINE
  8
0
  6
CONTINUOUS
 10
54.174980
 20
148.505005
 11
55.174980
 21
149.505005
  0
LINE
  8
0
  6
CONTINUOUS
 10
54.174980
 20
148.505005
 11
116.175003
 21
148.505020
  0
LINE
  8
0
  6
CENTER
 10
51.549980
 20
132.505020
 11
57.299980
 21
132.505020
  0
LINE
  8
0
  6
CONTINUOUS
 10
53.049980
 20
143.005020
 11
56.174980
 21
143.005020
  0
LINE
  8
0
  6
CONTINUOUS
 10
53.049980
 20
122.005013
 11
56.174980
 21
122.005013
  0
LINE
  8
0
  6
CONTINUOUS
 10
417.174988
 20
148.505005
 11
417.174988
 21
116.163902
  0
LINE
  8
0
  6
CONTINUOUS
 10
355.174988
 20
148.505005
 11
355.174988
 21
116.163780
  0
LINE
  8
0
  6
CONTINUOUS
 10
356.174988
 20
149.505005
 11
416.174988
 21
149.505005
  0
LINE
  8
0
  6
CONTINUOUS
 10
416.174988
 20
149.505005
 11
417.174988
 21
148.505005
  0
LINE
  8
0
  6
CONTINUOUS
 10
356.174988
 20
149.505005
 11
355.174988
 21
148.505005
  0
LINE
  8
0
  6
CONTINUOUS
 10
355.174988
 20
148.505005
 11
417.174988
 21
148.505005
  0
LINE
  8
0
  6
CENTER
 10
186.175003
 20
365.045624
 11
186.175003
 21
203.875000
  0
LINE
  8
0
  6
CENTER
 10
224.175003
 20
340.677490
 11
224.175003
 21
321.915009
  0
LINE
  8
0
  6
CENTER
 10
-5.101562
 20
284.168121
 11
250.316254
 21
284.168121
  0
LINE
  8
0
  6
CONTINUOUS
 10
235.834106
 20
332.342651
 11
236.675003
 21
284.168121
  0
LINE
  8
0
  6
CONTINUOUS
 10
225.835632
 20
342.168121
 11
197.675003
 21
342.168121
  0
LINE
  8
0
  6
CONTINUOUS
 10
137.675003
 20
321.168121
 11
234.063766
 21
321.168121
  0
ARC
  8
0
  6
CONTINUOUS
 10
225.835632
 20
332.168121
 40
10.000000
 50
1.000000
 51
90.000000
  0
ARC
  8
0
  6
CONTINUOUS
 10
234.063766
 20
319.168121
 40
2.000000
 50
1.000000
 51
90.000000
  0
LINE
  8
0
  6
CENTER
 10
214.579681
 20
332.168121
 11
234.922195
 21
332.168121
  0
CIRCLE
  8
0
  6
CONTINUOUS
 10
224.175003
 20
332.168121
 40
4.250000
  0
LINE
  8
0
  6
CENTER
 10
148.175003
 20
340.875000
 11
148.175003
 21
321.915009
  0
LINE
  8
0
  6
CONTINUOUS
 10
136.515884
 20
332.342651
 11
136.329910
 21
321.688019
  0
ARC
  8
0
  6
CONTINUOUS
 10
146.514359
 20
332.168121
 40
10.000000
 50
90.000000
 51
179.000000
  0
ARC
  8
0
  6
CONTINUOUS
 10
138.286240
 20
319.168121
 40
2.000000
 50
90.000000
 51
179.000000
  0
LINE
  8
0
  6
CENTER
 10
157.502182
 20
332.168121
 11
137.949692
 21
332.168121
  0
CIRCLE
  8
0
  6
CONTINUOUS
 10
148.175003
 20
332.168121
 40
4.250000
  0
LINE
  8
0
  6
CONTINUOUS
 10
135.675003
 20
323.168121
 11
135.675003
 21
327.168121
  0
LINE
  8
0
  6
CONTINUOUS
 10
133.675003
 20
329.168121
 11
63.174999
 21
329.168121
  0
ARC
  8
0
  6
CONTINUOUS
 10
133.675003
 20
327.168121
 40
2.000000
 50
0.000000
 51
90.000000
  0
ARC
  8
0
  6
CONTINUOUS
 10
137.675003
 20
323.168121
 40
2.000000
 50
180.000000
 51
270.000000
  0
LINE
  8
0
  6
CONTINUOUS
 10
136.286530
 20
319.203033
 11
136.181198
 21
313.168121
  0
LINE
  8
0
  6
CONTINUOUS
 10
116.577171
 20
313.168121
 11
142.517548
 21
313.168121
  0
LINE
  8
0
  6
CONTINUOUS
 10
116.577171
 20
255.168121
 11
142.517548
 21
255.168121
  0
LINE
  8
0
  6
CONTINUOUS
 10
133.675003
 20
239.168121
 11
63.174999
 21
239.168121
  0
ARC
  8
0
  6
CONTINUOUS
 10
133.675003
 20
241.168121
 40
2.000000
 50
-90.000000
 51
0.000000
  0
LINE
  8
0
  6
CENTER
 10
224.175003
 20
227.312500
 11
224.175003
 21
246.371246
  0
LINE
  8
0
  6
CONTINUOUS
 10
235.834106
 20
235.993607
 11
236.675003
 21
284.168121
  0
LINE
  8
0
  6
CONTINUOUS
 10
225.835632
 20
226.168121
 11
197.675003
 21
226.168121
  0
LINE
  8
0
  6
CONTINUOUS
 10
137.675003
 20
247.168121
 11
234.063766
 21
247.168121
  0
ARC
  8
0
  6
CONTINUOUS
 10
225.835632
 20
236.168121
 40
10.000000
 50
-90.000000
 51
-1.000000
  0
ARC
  8
0
  6
CONTINUOUS
 10
234.063766
 20
249.168121
 40
2.000000
 50
-90.000000
 51
-1.000000
  0
LINE
  8
0
  6
CENTER
 10
215.073441
 20
236.168121
 11
235.119690
 21
236.168121
  0
CIRCLE
  8
0
  6
CONTINUOUS
 10
224.175003
 20
236.168121
 40
4.250000
  0
LINE
  8
0
  6
CENTER
 10
148.175003
 20
226.818756
 11
148.175003
 21
246.173752
  0
LINE
  8
0
  6
CONTINUOUS
 10
136.515884
 20
235.993607
 11
136.329910
 21
246.648239
  0
ARC
  8
0
  6
CONTINUOUS
 10
146.514359
 20
236.168121
 40
10.000000
 50
-179.000000
 51
-90.000000
  0
ARC
  8
0
  6
CONTINUOUS
 10
138.286240
 20
249.168121
 40
2.000000
 50
-179.000000
 51
-90.000000
  0
LINE
  8
0
  6
CENTER
 10
157.995941
 20
236.168121
 11
137.752182
 21
236.168121
  0
CIRCLE
  8
0
  6
CONTINUOUS
 10
148.175003
 20
236.168121
 40
4.250000
  0
LINE
  8
0
  6
CONTINUOUS
 10
135.675003
 20
245.168121
 11
135.675003
 21
241.168121
  0
ARC
  8
0
  6
CONTINUOUS
 10
137.675003
 20
245.168121
 40
2.000000
 50
-270.000000
 51
-180.000000
  0
LINE
  8
0
  6
CONTINUOUS
 10
136.286530
 20
249.133224
 11
136.181198
 21
255.168121
  0
LINE
  8
0
  6
CONTINUOUS
 10
169.175003
 20
316.168121
 11
169.175003
 21
252.168121
  0
LINE
  8
0
  6
CONTINUOUS
 10
203.175003
 20
316.168121
 11
203.175003
 21
252.168121
  0
LINE
  8
0
  6
CONTINUOUS
 10
142.517548
 20
311.168121
 11
142.517548
 21
257.168121
  0
LINE
  8
0
  6
CONTINUOUS
 10
208.675003
 20
326.168121
 11
163.675003
 21
326.168121
  0
LINE
  8
0
  6
CONTINUOUS
 10
162.675003
 20
325.168121
 11
162.675003
 21
323.168121
  0
LINE
  8
0
  6
CONTINUOUS
 10
209.675003
 20
325.168121
 11
209.675003
 21
323.168121
  0
ARC
  8
0
  6
CONTINUOUS
 10
160.675003
 20
323.168121
 40
2.000000
 50
-90.000000
 51
0.000000
  0
ARC
  8
0
  6
CONTINUOUS
 10
211.674988
 20
323.168121
 40
2.000000
 50
180.000000
 51
270.000000
  0
ARC
  8
0
  6
CONTINUOUS
 10
163.675003
 20
325.168121
 40
1.000000
 50
90.000000
 51
180.000000
  0
ARC
  8
0
  6
CONTINUOUS
 10
208.675003
 20
325.168121
 40
1.000000
 50
0.000000
 51
90.000000
  0
LINE
  8
0
  6
CONTINUOUS
 10
197.675003
 20
358.168121
 11
177.175003
 21
358.168121
  0
LINE
  8
0
  6
CONTINUOUS
 10
177.175003
 20
328.168121
 11
177.175003
 21
358.168121
  0
LINE
  8
0
  6
CONTINUOUS
 10
195.175003
 20
328.168121
 11
195.175003
 21
331.168121
  0
LINE
  8
0
  6
CONTINUOUS
 10
176.175003
 20
328.168121
 11
196.175003
 21
328.168121
  0
LINE
  8
0
  6
CONTINUOUS
 10
176.175003
 20
326.168121
 11
176.175003
 21
328.168121
  0
LINE
  8
0
  6
CONTINUOUS
 10
196.175003
 20
326.168121
 11
196.175003
 21
328.168121
  0
LINE
  8
0
  6
CONTINUOUS
 10
197.675003
 20
358.168121
 11
197.675003
 21
331.168121
  0
LINE
  8
0
  6
CONTINUOUS
 10
197.675003
 20
331.168121
 11
194.660004
 21
331.168121
  0
LINE
  8
0
  6
CONTINUOUS
 10
194.660004
 20
358.168121
 11
194.660004
 21
331.168121
  0
LINE
  8
0
  6
CONTINUOUS
 10
177.175003
 20
342.168121
 11
146.514359
 21
342.168121
  0
LINE
  8
0
  6
CONTINUOUS
 10
208.675003
 20
242.168121
 11
163.675003
 21
242.168121
  0
LINE
  8
0
  6
CONTINUOUS
 10
162.675003
 20
243.168121
 11
162.675003
 21
245.168121
  0
LINE
  8
0
  6
CONTINUOUS
 10
209.675003
 20
243.168121
 11
209.675003
 21
245.168121
  0
ARC
  8
0
  6
CONTINUOUS
 10
160.675003
 20
245.168121
 40
2.000000
 50
0.000000
 51
90.000000
  0
ARC
  8
0
  6
CONTINUOUS
 10
211.674988
 20
245.168121
 40
2.000000
 50
-270.000000
 51
-180.000000
  0
ARC
  8
0
  6
CONTINUOUS
 10
163.675003
 20
243.168121
 40
1.000000
 50
-180.000000
 51
-90.000000
  0
ARC
  8
0
  6
CONTINUOUS
 10
208.675003
 20
243.168121
 40
1.000000
 50
-90.000000
 51
0.000000
  0
LINE
  8
0
  6
CONTINUOUS
 10
197.675003
 20
210.168121
 11
177.175003
 21
210.168121
  0
LINE
  8
0
  6
CONTINUOUS
 10
177.175003
 20
240.168121
 11
177.175003
 21
210.168121
  0
LINE
  8
0
  6
CONTINUOUS
 10
195.175003
 20
240.168121
 11
195.175003
 21
237.168121
  0
LINE
  8
0
  6
CONTINUOUS
 10
176.175003
 20
240.168121
 11
196.175003
 21
240.168121
  0
LINE
  8
0
  6
CONTINUOUS
 10
176.175003
 20
242.168121
 11
176.175003
 21
240.168121
  0
LINE
  8
0
  6
CONTINUOUS
 10
196.175003
 20
242.168121
 11
196.175003
 21
240.168121
  0
LINE
  8
0
  6
CONTINUOUS
 10
197.675003
 20
210.168121
 11
197.675003
 21
237.168121
  0
LINE
  8
0
  6
CONTINUOUS
 10
197.675003
 20
237.168121
 11
194.660004
 21
237.168121
  0
LINE
  8
0
  6
CONTINUOUS
 10
194.660004
 20
210.168121
 11
194.660004
 21
237.168121
  0
LINE
  8
0
  6
CONTINUOUS
 10
177.175003
 20
226.168121
 11
146.514359
 21
226.168121
  0
LINE
  8
0
  6
CONTINUOUS
 10
53.674999
 20
329.168121
 11
63.174999
 21
329.168121
  0
LINE
  8
0
  6
CONTINUOUS
 10
54.577168
 20
313.168121
 11
53.674999
 21
313.168121
  0
LINE
  8
0
  6
CONTINUOUS
 10
53.674999
 20
239.168121
 11
63.174999
 21
239.168121
  0
LINE
  8
0
  6
CONTINUOUS
 10
63.174999
 20
239.168121
 11
63.174999
 21
253.168121
  0
LINE
  8
0
  6
CONTINUOUS
 10
54.577168
 20
255.168121
 11
53.674999
 21
255.168121
  0
LINE
  8
0
  6
CONTINUOUS
 10
63.174999
 20
315.168121
 11
63.174999
 21
329.168121
  0
LINE
  8
0
  6
CONTINUOUS
 10
53.674999
 20
331.168121
 11
53.674999
 21
237.168121
  0
LINE
  8
0
  6
CONTINUOUS
 10
53.674999
 20
313.168121
 11
9.699970
 21
313.168121
  0
LINE
  8
0
  6
CONTINUOUS
 10
53.674999
 20
255.168121
 11
9.699970
 21
255.168121
  0
LINE
  8
0
  6
CONTINUOUS
 10
11.174980
 20
331.168121
 11
53.674999
 21
331.168121
  0
LINE
  8
0
  6
CONTINUOUS
 10
11.174980
 20
237.168121
 11
53.674999
 21
237.168121
  0
ARC
  8
0
  6
CONTINUOUS
 10
11.175010
 20
326.168121
 40
5.000000
 50
90.000000
 51
180.000000
  0
ARC
  8
0
  6
CONTINUOUS
 10
11.174980
 20
242.168121
 40
5.000000
 50
180.000000
 51
270.000000
  0
LINE
  8
0
  6
CONTINUOUS
 10
6.175010
 20
326.168121
 11
6.175010
 21
242.168121
  0
LINE
  8
0
  6
CONTINUOUS
 10
116.577171
 20
255.168121
 11
116.577171
 21
313.168121
  0
LINE
  8
0
  6
CONTINUOUS
 10
54.577168
 20
313.168121
 11
54.577168
 21
255.168121
  0
LINE
  8
0
  6
CENTER
 10
85.577171
 20
247.921875
 11
85.577171
 21
320.614685
  0
LINE
  8
0
  6
CONTINUOUS
 10
114.577171
 20
253.168121
 11
56.577168
 21
253.168121
  0
LINE
  8
0
  6
CONTINUOUS
 10
114.577171
 20
315.168121
 11
56.577168
 21
315.168121
  0
LINE
  8
0
  6
CONTINUOUS
 10
56.577168
 20
253.168121
 11
54.577168
 21
255.168121
  0
LINE
  8
0
  6
CONTINUOUS
 10
54.577168
 20
313.168121
 11
56.577168
 21
315.168121
  0
LINE
  8
0
  6
CONTINUOUS
 10
116.577171
 20
313.168121
 11
114.577171
 21
315.168121
  0
LINE
  8
0
  6
CONTINUOUS
 10
116.577171
 20
255.168121
 11
114.577171
 21
253.168121
  0
LINE
  8
0
  6
CONTINUOUS
 10
62.577168
 20
258.168121
 11
62.577168
 21
253.168121
  0
LINE
  8
0
  6
CONTINUOUS
 10
59.577168
 20
261.168121
 11
54.577168
 21
261.168121
  0
CIRCLE
  8
0
  6
CONTINUOUS
 10
58.577168
 20
257.168121
 40
2.250000
  0
ARC
  8
0
  6
CONTINUOUS
 10
59.577168
 20
258.168121
 40
3.000000
 50
0.000000
 51
90.000000
  0
LINE
  8
0
  6
CONTINUOUS
 10
55.577168
 20
262.168121
 11
55.577168
 21
306.168121
  0
LINE
  8
0
  6
CONTINUOUS
 10
59.577168
 20
262.168121
 11
55.577168
 21
262.168121
  0
ARC
  8
0
  6
CONTINUOUS
 10
59.577168
 20
258.168121
 40
4.000000
 50
0.000000
 51
90.000000
  0
LINE
  8
0
  6
CONTINUOUS
 10
63.577168
 20
254.168121
 11
63.577168
 21
258.168121
  0
LINE
  8
0
  6
CONTINUOUS
 10
55.577168
 20
262.168121
 11
54.577168
 21
261.168121
  0
LINE
  8
0
  6
CONTINUOUS
 10
107.577171
 20
254.168121
 11
63.577168
 21
254.168121
  0
LINE
  8
0
  6
CONTINUOUS
 10
63.577168
 20
254.168121
 11
62.577168
 21
253.168121
  0
LINE
  8
0
  6
CONTINUOUS
 10
111.577171
 20
261.168121
 11
116.577171
 21
261.168121
  0
LINE
  8
0
  6
CONTINUOUS
 10
108.577171
 20
258.168121
 11
108.577171
 21
253.168121
  0
CIRCLE
  8
0
  6
CONTINUOUS
 10
112.577171
 20
257.168121
 40
2.250000
  0
ARC
  8
0
  6
CONTINUOUS
 10
111.577171
 20
258.168121
 40
3.000000
 50
90.000000
 51
180.000000
  0
LINE
  8
0
  6
CONTINUOUS
 10
107.577171
 20
258.168121
 11
107.577171
 21
254.168121
  0
ARC
  8
0
  6
CONTINUOUS
 10
111.577171
 20
258.168121
 40
4.000000
 50
90.000000
 51
180.000000
  0
LINE
  8
0
  6
CONTINUOUS
 10
115.577171
 20
262.168121
 11
111.577171
 21
262.168121
  0
LINE
  8
0
  6
CONTINUOUS
 10
107.577171
 20
254.168121
 11
108.577171
 21
253.168121
  0
LINE
  8
0
  6
CONTINUOUS
 10
115.577171
 20
262.168121
 11
116.577171
 21
261.168121
  0
LINE
  8
0
  6
CONTINUOUS
 10
108.577171
 20
310.168121
 11
108.577171
 21
315.168121
  0
LINE
  8
0
  6
CONTINUOUS
 10
111.577171
 20
307.168121
 11
116.577171
 21
307.168121
  0
CIRCLE
  8
0
  6
CONTINUOUS
 10
112.577171
 20
311.168121
 40
2.250000
  0
ARC
  8
0
  6
CONTINUOUS
 10
111.577171
 20
310.168121
 40
3.000000
 50
180.000000
 51
270.000000
  0
LINE
  8
0
  6
CONTINUOUS
 10
111.577171
 20
306.168121
 11
115.577171
 21
306.168121
  0
ARC
  8
0
  6
CONTINUOUS
 10
111.577171
 20
310.168121
 40
4.000000
 50
180.000000
 51
270.000000
  0
LINE
  8
0
  6
CONTINUOUS
 10
107.577171
 20
314.168121
 11
107.577171
 21
310.168121
  0
LINE
  8
0
  6
CONTINUOUS
 10
115.577171
 20
306.168121
 11
116.577171
 21
307.168121
  0
LINE
  8
0
  6
CONTINUOUS
 10
107.577171
 20
314.168121
 11
108.577171
 21
315.168121
  0
LINE
  8
0
  6
CONTINUOUS
 10
59.577168
 20
307.168121
 11
54.577168
 21
307.168121
  0
LINE
  8
0
  6
CONTINUOUS
 10
62.577168
 20
310.168121
 11
62.577168
 21
315.168121
  0
CIRCLE
  8
0
  6
CONTINUOUS
 10
58.577168
 20
311.168121
 40
2.250000
  0
ARC
  8
0
  6
CONTINUOUS
 10
59.577168
 20
310.168121
 40
3.000000
 50
-90.000000
 51
0.000000
  0
LINE
  8
0
  6
CONTINUOUS
 10
63.577168
 20
310.168121
 11
63.577168
 21
314.168121
  0
ARC
  8
0
  6
CONTINUOUS
 10
59.577168
 20
310.168121
 40
4.000000
 50
-90.000000
 51
0.000000
  0
LINE
  8
0
  6
CONTINUOUS
 10
55.577168
 20
306.168121
 11
59.577168
 21
306.168121
  0
LINE
  8
0
  6
CONTINUOUS
 10
63.577168
 20
314.168121
 11
62.577168
 21
315.168121
  0
LINE
  8
0
  6
CONTINUOUS
 10
55.577168
 20
306.168121
 11
54.577168
 21
307.168121
  0
LINE
  8
0
  6
CONTINUOUS
 10
107.577171
 20
314.168121
 11
63.577168
 21
314.168121
  0
LINE
  8
0
  6
CONTINUOUS
 10
115.577171
 20
262.168121
 11
115.577171
 21
306.168121
  0
TEXT
  8
0
 10
-5.000000
 20
-3.000000
 40
4.000000
 41
1.000000
  1
HLMN-18T-10~240-S90WC
 50
0.000000
  0
ENDSEC
  0
EOF
