  0
SECTION
  2
HEADER
  9
$ACADVER
  1
AC1014
  9
$ACADMAINTVER
 70
     9
  9
$DWGCODEPAGE
  3
ANSI_932
  9
$INSBASE
 10
0.0
 20
0.0
 30
0.0
  9
$EXTMIN
 10
45.13863856768558
 20
44.31449150412913
 30
0.0
  9
$EXTMAX
 10
513.5002633904353
 20
422.7235990190479
 30
0.0
  9
$LIMMIN
 10
0.0
 20
0.0
  9
$LIMMAX
 10
297.0
 20
210.0
  9
$ORTHOMODE
 70
     1
  9
$REGENMODE
 70
     1
  9
$FILLMODE
 70
     1
  9
$QTEXTMODE
 70
     0
  9
$MIRRTEXT
 70
     0
  9
$DRAGMODE
 70
     2
  9
$LTSCALE
 40
2.0
  9
$OSMODE
 70
    37
  9
$ATTMODE
 70
     1
  9
$TEXTSIZE
 40
2.0
  9
$TRACEWID
 40
1.0
  9
$TEXTSTYLE
  7
STANDARD
  9
$CLAYER
  8
0
  9
$CELTYPE
  6
BYLAYER
  9
$CECOLOR
 62
   256
  9
$CELTSCALE
 40
1.0
  9
$DELOBJ
 70
     1
  9
$DISPSILH
 70
     0
  9
$DIMSCALE
 40
2.0
  9
$DIMASZ
 40
1.8
  9
$DIMEXO
 40
0.625
  9
$DIMDLI
 40
3.75
  9
$DIMRND
 40
0.0
  9
$DIMDLE
 40
0.0
  9
$DIMEXE
 40
0.8
  9
$DIMTP
 40
0.0
  9
$DIMTM
 40
0.0
  9
$DIMTXT
 40
1.8
  9
$DIMCEN
 40
2.5
  9
$DIMTSZ
 40
0.0
  9
$DIMTOL
 70
     0
  9
$DIMLIM
 70
     0
  9
$DIMTIH
 70
     0
  9
$DIMTOH
 70
     0
  9
$DIMSE1
 70
     0
  9
$DIMSE2
 70
     0
  9
$DIMTAD
 70
     1
  9
$DIMZIN
 70
     8
  9
$DIMBLK
  1

  9
$DIMASO
 70
     1
  9
$DIMSHO
 70
     1
  9
$DIMPOST
  1

  9
$DIMAPOST
  1

  9
$DIMALT
 70
     0
  9
$DIMALTD
 70
     4
  9
$DIMALTF
 40
0.0394
  9
$DIMLFAC
 40
1.0
  9
$DIMTOFL
 70
     1
  9
$DIMTVP
 40
0.0
  9
$DIMTIX
 70
     0
  9
$DIMSOXD
 70
     0
  9
$DIMSAH
 70
     0
  9
$DIMBLK1
  1

  9
$DIMBLK2
  1

  9
$DIMSTYLE
  2
STANDARD
  9
$DIMCLRD
 70
     0
  9
$DIMCLRE
 70
     0
  9
$DIMCLRT
 70
     0
  9
$DIMTFAC
 40
1.0
  9
$DIMGAP
 40
0.75
  9
$DIMJUST
 70
     0
  9
$DIMSD1
 70
     0
  9
$DIMSD2
 70
     0
  9
$DIMTOLJ
 70
     1
  9
$DIMTZIN
 70
     0
  9
$DIMALTZ
 70
     0
  9
$DIMALTTZ
 70
     0
  9
$DIMFIT
 70
     3
  9
$DIMUPT
 70
     0
  9
$DIMUNIT
 70
     8
  9
$DIMDEC
 70
     2
  9
$DIMTDEC
 70
     2
  9
$DIMALTU
 70
     8
  9
$DIMALTTD
 70
     4
  9
$DIMTXSTY
  7
STANDARD
  9
$DIMAUNIT
 70
     0
  9
$LUNITS
 70
     2
  9
$LUPREC
 70
     3
  9
$SKETCHINC
 40
1.0
  9
$FILLETRAD
 40
10.0
  9
$AUNITS
 70
     0
  9
$AUPREC
 70
     2
  9
$MENU
  1
.
  9
$ELEVATION
 40
0.0
  9
$PELEVATION
 40
0.0
  9
$THICKNESS
 40
0.0
  9
$LIMCHECK
 70
     0
  9
$BLIPMODE
 70
     0
  9
$CHAMFERA
 40
0.0
  9
$CHAMFERB
 40
0.0
  9
$CHAMFERC
 40
20.0
  9
$CHAMFERD
 40
0.0
  9
$SKPOLY
 70
     0
  9
$TDCREATE
 40
2453753.554171180
  9
$TDUPDATE
 40
2453832.467744317
  9
$TDINDWG
 40
0.5557839583
  9
$TDUSRTIMER
 40
0.5557837847
  9
$USRTIMER
 70
     1
  9
$ANGBASE
 50
0.0
  9
$ANGDIR
 70
     0
  9
$PDMODE
 70
     0
  9
$PDSIZE
 40
-10.0
  9
$PLINEWID
 40
0.0
  9
$COORDS
 70
     0
  9
$SPLFRAME
 70
     0
  9
$SPLINETYPE
 70
     6
  9
$SPLINESEGS
 70
     8
  9
$ATTDIA
 70
     0
  9
$ATTREQ
 70
     1
  9
$HANDLING
 70
-16383
  9
$HANDSEED
  5
202A
  9
$SURFTAB1
 70
     6
  9
$SURFTAB2
 70
     6
  9
$SURFTYPE
 70
     6
  9
$SURFU
 70
     6
  9
$SURFV
 70
     6
  9
$UCSNAME
  2

  9
$UCSORG
 10
0.0
 20
0.0
 30
0.0
  9
$UCSXDIR
 10
1.0
 20
0.0
 30
0.0
  9
$UCSYDIR
 10
0.0
 20
1.0
 30
0.0
  9
$PUCSNAME
  2

  9
$PUCSORG
 10
0.0
 20
0.0
 30
0.0
  9
$PUCSXDIR
 10
1.0
 20
0.0
 30
0.0
  9
$PUCSYDIR
 10
0.0
 20
1.0
 30
0.0
  9
$USERI1
 70
     0
  9
$USERI2
 70
     0
  9
$USERI3
 70
     0
  9
$USERI4
 70
     0
  9
$USERI5
 70
     0
  9
$USERR1
 40
0.0
  9
$USERR2
 40
0.0
  9
$USERR3
 40
0.0
  9
$USERR4
 40
0.0
  9
$USERR5
 40
0.0
  9
$WORLDVIEW
 70
     1
  9
$SHADEDGE
 70
     3
  9
$SHADEDIF
 70
    70
  9
$TILEMODE
 70
     1
  9
$MAXACTVP
 70
    48
  9
$PINSBASE
 10
0.0
 20
0.0
 30
0.0
  9
$PLIMCHECK
 70
     0
  9
$PEXTMIN
 10
0.0
 20
0.0
 30
0.0
  9
$PEXTMAX
 10
0.0
 20
0.0
 30
0.0
  9
$PLIMMIN
 10
0.0
 20
0.0
  9
$PLIMMAX
 10
12.0
 20
9.0
  9
$UNITMODE
 70
     0
  9
$VISRETAIN
 70
     1
  9
$PLINEGEN
 70
     0
  9
$PSLTSCALE
 70
     1
  9
$TREEDEPTH
 70
  3020
  9
$PICKSTYLE
 70
     1
  9
$CMLSTYLE
  2
STANDARD
  9
$CMLJUST
 70
     0
  9
$CMLSCALE
 40
1.0
  9
$PROXYGRAPHICS
 70
     1
  9
$MEASUREMENT
 70
     0
  0
ENDSEC
  0
SECTION
  2
CLASSES
  0
CLASS
  1
DICTIONARYVAR
  2
AcDbDictionaryVar
  3
AutoCAD 2000
 90
        0
280
     0
281
     0
  0
CLASS
  1
ACDBDICTIONARYWDFLT
  2
AcDbDictionaryWithDefault
  3
AutoCAD 2000
 90
        0
280
     0
281
     0
  0
CLASS
  1
ACDBPLACEHOLDER
  2
AcDbPlaceHolder
  3
AutoCAD 2000
 90
        0
280
     0
281
     0
  0
CLASS
  1
LAYOUT
  2
AcDbLayout
  3
AutoCAD 2000
 90
        0
280
     0
281
     0
  0
CLASS
  1
LONG_TRANSACTION
  2
AcDbLongTransaction
  3
AutoCAD 2000
 90
        0
280
     0
281
     0
  0
CLASS
  1
LWPOLYLINE
  2
AcDbPolyline
  3
AutoCAD 2000
 90
        0
280
     0
281
     1
  0
CLASS
  1
HATCH
  2
AcDbHatch
  3
AutoCAD 2000
 90
        0
280
     0
281
     1
  0
CLASS
  1
XRECORD
  2
AcDbXrecord
  3
AutoCAD 2000
 90
        0
280
     0
281
     0
  0
ENDSEC
  0
SECTION
  2
TABLES
  0
TABLE
  2
VPORT
  5
6E
330
0
100
AcDbSymbolTable
 70
     2
  0
VPORT
  5
2004
330
6E
100
AcDbSymbolTableRecord
100
AcDbViewportTableRecord
  2
*ACTIVE
 70
     0
 10
0.0
 20
0.0
 11
1.0
 21
1.0
 12
282.0230288409101
 22
221.8434571283616
 13
0.0
 23
0.0
 14
10.0
 24
10.0
 15
10.0
 25
10.0
 16
0.0
 26
0.0
 36
1.0
 17
0.0
 27
0.0
 37
0.0
 40
404.9168874267596
 41
1.566970091027308
 42
50.0
 43
0.0
 44
0.0
 50
0.0
 51
0.0
 71
     0
 72
   100
 73
     1
 74
     3
 75
     0
 76
     0
 77
     0
 78
     0
  0
ENDTAB
  0
TABLE
  2
LTYPE
  5
69
330
0
100
AcDbSymbolTable
 70
     4
  0
LTYPE
  5
6A
330
69
100
AcDbSymbolTableRecord
100
AcDbLinetypeTableRecord
  2
BYBLOCK
 70
     0
  3

 72
    65
 73
     0
 40
0.0
  0
LTYPE
  5
6B
330
69
100
AcDbSymbolTableRecord
100
AcDbLinetypeTableRecord
  2
BYLAYER
 70
     0
  3

 72
    65
 73
     0
 40
0.0
  0
LTYPE
  5
8
330
69
100
AcDbSymbolTableRecord
100
AcDbLinetypeTableRecord
  2
CONTINUOUS
 70
     0
  3
Solid line
 72
    65
 73
     0
 40
0.0
  0
LTYPE
  5
27C
330
69
100
AcDbSymbolTableRecord
100
AcDbLinetypeTableRecord
  2
SEKKEI_A2_
 70
     0
  3
center(A2)  ____ _ ____ _ ____ _ ____ _ ____ _ 
 72
    65
 73
     4
 40
14.28749999999999
 49
9.525
 74
     0
 49
-1.587499999999999
 74
     0
 49
1.587499999999999
 74
     0
 49
-1.587499999999999
 74
     0
  0
LTYPE
  5
2B4
330
69
100
AcDbSymbolTableRecord
100
AcDbLinetypeTableRecord
  2
HIDDEN2
 70
     0
  3
Hidden (.5x) _ _ _ _ _ _ _ _ _ _ _ _ _ _ _ _ _
 72
    65
 73
     2
 40
4.762499999999999
 49
3.174999999999999
 74
     0
 49
-1.587499999999999
 74
     0
  0
LTYPE
  5
48F
330
69
100
AcDbSymbolTableRecord
100
AcDbLinetypeTableRecord
  2
SEKKEI_H
 70
     0
  3
Hidden-S _ _ _ _ _ _ _ _ _ _ _ _ _ _ _ _ _
 72
    65
 73
     2
 40
2.381249999999999
 49
1.587499999999999
 74
     0
 49
-0.79375
 74
     0
  0
ENDTAB
  0
TABLE
  2
LAYER
  5
66
330
0
100
AcDbSymbolTable
 70
     9
  0
LAYER
  5
5E
330
66
100
AcDbSymbolTableRecord
100
AcDbLayerTableRecord
  2
0
 70
     0
 62
     7
  6
CONTINUOUS
  0
LAYER
  5
3E
330
66
100
AcDbSymbolTableRecord
100
AcDbLayerTableRecord
  2
CENTER
 70
     0
 62
     3
  6
SEKKEI_A2_
  0
LAYER
  5
2B5
330
66
100
AcDbSymbolTableRecord
100
AcDbLayerTableRecord
  2
HIDS
 70
     0
 62
     1
  6
HIDDEN2
  0
LAYER
  5
2BA
330
66
100
AcDbSymbolTableRecord
100
AcDbLayerTableRecord
  2
HOJO
 70
     0
 62
     4
  6
CONTINUOUS
  0
LAYER
  5
3FA
330
66
100
AcDbSymbolTableRecord
100
AcDbLayerTableRecord
  2
TITLE
 70
     0
 62
     4
  6
CONTINUOUS
  0
ENDTAB
  0
TABLE
  2
STYLE
  5
67
330
0
100
AcDbSymbolTable
 70
     1
  0
STYLE
  5
16
330
67
100
AcDbSymbolTableRecord
100
AcDbTextStyleTableRecord
  2
STANDARD
 70
     0
 40
0.0
 41
1.0
 50
0.0
 71
     0
 42
2.0
  3
simplex.shx
  4
extfont.shx
  0
ENDTAB
  0
TABLE
  2
VIEW
  5
6C
330
0
100
AcDbSymbolTable
 70
     0
  0
ENDTAB
  0
TABLE
  2
UCS
  5
6D
330
0
100
AcDbSymbolTable
 70
     0
  0
ENDTAB
  0
TABLE
  2
APPID
  5
70
330
0
100
AcDbSymbolTable
 70
     1
  0
APPID
  5
71
330
70
100
AcDbSymbolTableRecord
100
AcDbRegAppTableRecord
  2
ACAD
 70
     0
  0
ENDTAB
  0
TABLE
  2
DIMSTYLE
  5
72
330
0
100
AcDbSymbolTable
 70
     1
  0
DIMSTYLE
105
73
330
72
100
AcDbSymbolTableRecord
100
AcDbDimStyleTableRecord
  2
STANDARD
 70
     0
  3

  4

  5

  6

  7

 40
2.0
 41
1.8
 42
0.625
 43
3.75
 44
0.8
 45
0.0
 46
0.0
 47
0.0
 48
0.0
140
1.8
141
2.5
142
0.0
143
0.0394
144
1.0
145
0.0
146
1.0
147
0.75
 71
     0
 72
     0
 73
     0
 74
     0
 75
     0
 76
     0
 77
     1
 78
     8
170
     0
171
     4
172
     1
173
     0
174
     0
175
     0
176
     0
177
     0
178
     0
270
     8
271
     2
272
     2
273
     8
274
     4
340
16
275
     0
280
     0
281
     0
282
     0
283
     1
284
     0
285
     0
286
     0
287
     3
288
     0
  0
ENDTAB
  0
TABLE
  2
BLOCK_RECORD
  5
1
330
0
100
AcDbSymbolTable
 70
    63
  0
BLOCK_RECORD
  5
2
102
{ACAD_XDICTIONARY
360
2026
102
}
330
1
100
AcDbSymbolTableRecord
100
AcDbBlockTableRecord
  2
*MODEL_SPACE
  0
BLOCK_RECORD
  5
1FFF
102
{ACAD_XDICTIONARY
360
2028
102
}
330
1
100
AcDbSymbolTableRecord
100
AcDbBlockTableRecord
  2
*PAPER_SPACE
  0
ENDTAB
  0
ENDSEC
  0
SECTION
  2
BLOCKS
  0
BLOCK
  5
5D
330
2
100
AcDbEntity
  8
0
100
AcDbBlockBegin
  2
*MODEL_SPACE
 70
     0
 10
0.0
 20
0.0
 30
0.0
  3
*MODEL_SPACE
  1

  0
ENDBLK
  5
5F
330
2
100
AcDbEntity
  8
0
100
AcDbBlockEnd
  0
BLOCK
  5
2001
330
1FFF
100
AcDbEntity
 67
     1
  8
0
100
AcDbBlockBegin
  2
*PAPER_SPACE
 70
     0
 10
0.0
 20
0.0
 30
0.0
  3
*PAPER_SPACE
  1

  0
ENDBLK
  5
2002
330
1FFF
100
AcDbEntity
 67
     1
  8
0
100
AcDbBlockEnd
  0
ENDSEC
  0
SECTION
  2
ENTITIES
  0
CIRCLE
  5
634
330
2
100
AcDbEntity
  8
0
100
AcDbCircle
 10
270.1386365676802
 20
293.7235840190479
 30
0.0
 40
4.25
  0
LINE
  5
636
330
2
100
AcDbEntity
  8
0
100
AcDbLine
 10
183.6386365676802
 20
304.7235840190479
 30
0.0
 11
280.0274155676802
 21
304.7235840190479
 31
0.0
  0
LINE
  5
637
330
2
100
AcDbEntity
  8
0
100
AcDbLine
 10
271.7992815676802
 20
283.7235840190479
 30
0.0
 11
243.6386365676802
 21
283.7235840190479
 31
0.0
  0
CIRCLE
  5
638
330
2
100
AcDbEntity
  8
0
100
AcDbCircle
 10
270.1386365676802
 20
389.723599019048
 30
0.0
 40
4.25
  0
LINE
  5
639
330
2
100
AcDbEntity
  8
CENTER
100
AcDbLine
 10
261.6292675676802
 20
389.723599019048
 30
0.0
 11
278.6480055676802
 21
389.723599019048
 31
0.0
  0
LINE
  5
63A
330
2
100
AcDbEntity
  8
0
100
AcDbLine
 10
183.6386365676802
 20
378.7235990190479
 30
0.0
 11
280.0274155676802
 21
378.7235990190479
 31
0.0
  0
LINE
  5
63B
330
2
100
AcDbEntity
  8
0
100
AcDbLine
 10
271.7992815676802
 20
399.7235990190479
 30
0.0
 11
243.6386365676802
 21
399.7235990190479
 31
0.0
  0
LINE
  5
63C
330
2
100
AcDbEntity
  8
CENTER
100
AcDbLine
 10
45.13863856768558
 20
341.723599019048
 30
0.0
 11
289.6386365676802
 21
341.7235990190479
 31
0.0
  0
ARC
  5
63D
330
2
100
AcDbEntity
  8
0
100
AcDbCircle
 10
232.1386365676802
 20
111.3144935041291
 30
0.0
 40
50.5
100
AcDbArc
 50
18.10379000000003
 51
161.8961939999998
  0
ARC
  5
63E
330
2
100
AcDbEntity
  8
0
100
AcDbCircle
 10
232.1386365676802
 20
111.3144935041291
 30
0.0
 40
50.5
100
AcDbArc
 50
198.1038060000001
 51
341.8962099999999
  0
LINE
  5
63F
330
2
100
AcDbEntity
  8
0
100
AcDbLine
 10
280.5100505676802
 20
142.3076725041291
 30
0.0
 11
250.4311475676802
 21
163.4077785041291
 31
0.0
  0
LINE
  5
640
330
2
100
AcDbEntity
  8
0
100
AcDbLine
 10
183.6386365676802
 20
60.31449150412914
 30
0.0
 11
280.6386365676802
 21
60.31449150412914
 31
0.0
  0
LINE
  5
641
330
2
100
AcDbEntity
  8
0
100
AcDbLine
 10
181.6386365676802
 20
51.31449150412914
 30
0.0
 11
282.6386365676802
 21
51.31449150412914
 31
0.0
  0
LINE
  5
642
330
2
100
AcDbEntity
  8
0
100
AcDbLine
 10
109.1386325676802
 20
66.20519150412914
 30
0.0
 11
180.0215405676802
 21
66.20519150412914
 31
0.0
  0
LINE
  5
643
330
2
100
AcDbEntity
  8
0
100
AcDbLine
 10
109.1386325676802
 20
135.0237905041291
 30
0.0
 11
180.0215405676802
 21
135.0237905041291
 31
0.0
  0
LINE
  5
644
330
2
100
AcDbEntity
  8
0
100
AcDbLine
 10
109.1386325676802
 20
145.6144895041291
 30
0.0
 11
188.4811505676802
 21
145.6144895041291
 31
0.0
  0
LINE
  5
645
330
2
100
AcDbEntity
  8
0
100
AcDbLine
 10
109.1386325676802
 20
55.61449150412915
 30
0.0
 11
181.6386365676802
 21
55.61449150412915
 31
0.0
  0
LINE
  5
646
330
2
100
AcDbEntity
  8
CENTER
100
AcDbLine
 10
45.13864406768016
 20
100.6144925041291
 30
0.0
 11
204.9281415676802
 21
100.6144925041291
 31
0.0
  0
LINE
  5
647
330
2
100
AcDbEntity
  8
0
100
AcDbLine
 10
109.1386325676802
 20
55.61449150412915
 30
0.0
 11
109.1386325676802
 21
145.6144895041291
 31
0.0
  0
LINE
  5
648
330
2
100
AcDbEntity
  8
0
100
AcDbLine
 10
52.1386565676803
 20
142.6145045041291
 30
0.0
 11
52.13863156768025
 21
58.61448150412915
 31
0.0
  0
LINE
  5
649
330
2
100
AcDbEntity
  8
0
100
AcDbLine
 10
99.63863256768025
 20
147.6144895041291
 30
0.0
 11
99.63863256768025
 21
53.61449150412915
 31
0.0
  0
ARC
  5
64A
330
2
100
AcDbEntity
  8
0
100
AcDbCircle
 10
57.13863056768025
 20
58.61449050412915
 30
0.0
 40
5.0
100
AcDbArc
 50
180.0
 51
270.0
  0
LINE
  5
64C
330
2
100
AcDbEntity
  8
0
100
AcDbLine
 10
57.13863156768025
 20
53.61449150412915
 30
0.0
 11
99.63863256768025
 21
53.61449150412915
 31
0.0
  0
LINE
  5
64D
330
2
100
AcDbEntity
  8
0
100
AcDbLine
 10
99.63863256768025
 20
71.61449050412915
 30
0.0
 11
55.66363256768022
 21
71.61449050412915
 31
0.0
  0
LINE
  5
64E
330
2
100
AcDbEntity
  8
0
100
AcDbLine
 10
109.1386325676802
 20
66.20519150412914
 30
0.0
 11
99.63863256768025
 21
66.20519150412914
 31
0.0
  0
LINE
  5
64F
330
2
100
AcDbEntity
  8
0
100
AcDbLine
 10
99.63863256768025
 20
55.61449150412915
 30
0.0
 11
109.1386325676802
 21
55.61449150412915
 31
0.0
  0
ARC
  5
650
330
2
100
AcDbEntity
  8
0
100
AcDbCircle
 10
57.1386565676803
 20
142.6145195041291
 30
0.0
 40
5.0
100
AcDbArc
 50
90.0
 51
180.0
  0
LINE
  5
651
330
2
100
AcDbEntity
  8
0
100
AcDbLine
 10
57.13863156768025
 20
147.6144895041291
 30
0.0
 11
99.63863256768025
 21
147.6144895041291
 31
0.0
  0
LINE
  5
652
330
2
100
AcDbEntity
  8
0
100
AcDbLine
 10
99.63863256768025
 20
129.6144895041291
 30
0.0
 11
55.66363356768022
 21
129.6144895041291
 31
0.0
  0
LINE
  5
653
330
2
100
AcDbEntity
  8
0
100
AcDbLine
 10
109.1386325676802
 20
135.0237905041291
 30
0.0
 11
99.63863256768025
 21
135.0237905041291
 31
0.0
  0
ARC
  5
654
330
2
100
AcDbEntity
  8
0
100
AcDbCircle
 10
99.63863256768025
 20
129.1438925041291
 30
0.0
 40
1.5
100
AcDbArc
 50
0.0
 51
90.0
  0
ARC
  5
655
330
2
100
AcDbEntity
  8
0
100
AcDbCircle
 10
99.63863256768025
 20
129.1438925041291
 30
0.0
 40
3.0
100
AcDbArc
 50
0.0
 51
90.0
  0
ARC
  5
656
330
2
100
AcDbEntity
  8
0
100
AcDbCircle
 10
99.63863256768025
 20
129.1438925041291
 30
0.0
 40
4.5
100
AcDbArc
 50
0.0
 51
90.0
  0
LINE
  5
657
330
2
100
AcDbEntity
  8
HOJO
100
AcDbLine
 10
102.6386325676802
 20
125.1438925041291
 30
0.0
 11
104.1386325676802
 21
124.6438925041291
 31
0.0
  0
LINE
  5
658
330
2
100
AcDbEntity
  8
HOJO
100
AcDbLine
 10
101.1386325676802
 20
124.1438925041291
 30
0.0
 11
102.6386325676802
 21
124.6438925041291
 31
0.0
  0
LINE
  5
659
330
2
100
AcDbEntity
  8
0
100
AcDbLine
 10
104.1386325676802
 20
129.1438925041291
 30
0.0
 11
104.1386325676802
 21
124.6438925041291
 31
0.0
  0
LINE
  5
65A
330
2
100
AcDbEntity
  8
0
100
AcDbLine
 10
102.6386325676802
 20
129.1438925041291
 30
0.0
 11
102.6386325676802
 21
124.6438925041291
 31
0.0
  0
LINE
  5
65B
330
2
100
AcDbEntity
  8
0
100
AcDbLine
 10
101.1386325676802
 20
129.1438925041291
 30
0.0
 11
101.1386325676802
 21
124.1282905041291
 31
0.0
  0
LINE
  5
65D
330
2
100
AcDbEntity
  8
0
100
AcDbLine
 10
99.63863256768025
 20
145.6144895041291
 30
0.0
 11
109.1386325676802
 21
145.6144895041291
 31
0.0
  0
LINE
  5
667
330
2
100
AcDbEntity
  8
0
100
AcDbLine
 10
181.6386365676802
 20
138.2144035041291
 30
0.0
 11
181.6385455676802
 21
51.31449150412914
 31
0.0
  0
LINE
  5
668
330
2
100
AcDbEntity
  8
0
100
AcDbLine
 10
184.1386365676802
 20
127.0066785041291
 30
0.0
 11
184.1386365676802
 21
95.62197750412915
 31
0.0
  0
CIRCLE
  5
669
330
2
100
AcDbEntity
  8
0
100
AcDbCircle
 10
232.1386365676802
 20
126.3144935041291
 30
0.0
 40
23.5
  0
LINE
  5
66A
330
2
100
AcDbEntity
  8
CENTER
100
AcDbLine
 10
232.1386365676801
 20
171.3144935041291
 30
0.0
 11
232.1386365676803
 21
44.31449150412913
 31
0.0
  0
LINE
  5
66B
330
2
100
AcDbEntity
  8
HIDS
  6
SEKKEI_H
100
AcDbLine
 10
189.8886365676802
 20
60.31449150412914
 30
0.0
 11
189.8886365676802
 21
51.31449150412914
 31
0.0
  0
LINE
  5
66C
330
2
100
AcDbEntity
  8
HIDS
  6
SEKKEI_H
100
AcDbLine
 10
198.3886365676802
 20
60.31449150412914
 30
0.0
 11
198.3886365676802
 21
51.31449150412914
 31
0.0
  0
LINE
  5
66D
330
2
100
AcDbEntity
  8
CENTER
100
AcDbLine
 10
194.1386365676802
 20
63.81449150412914
 30
0.0
 11
194.1386365676802
 21
47.81449150412913
 31
0.0
  0
ARC
  5
66E
330
2
100
AcDbEntity
  8
0
100
AcDbCircle
 10
183.6386365676802
 20
58.31449150412914
 30
0.0
 40
2.0
100
AcDbArc
 50
90.0
 51
180.0
  0
LINE
  5
66F
330
2
100
AcDbEntity
  8
HIDS
  6
SEKKEI_H
100
AcDbLine
 10
265.8886365676802
 20
60.31449150412914
 30
0.0
 11
265.8886365676802
 21
51.31449150412914
 31
0.0
  0
LINE
  5
670
330
2
100
AcDbEntity
  8
CENTER
100
AcDbLine
 10
270.1386365676802
 20
63.81449150412914
 30
0.0
 11
270.1386365676802
 21
47.81449150412913
 31
0.0
  0
LINE
  5
671
330
2
100
AcDbEntity
  8
0
100
AcDbLine
 10
223.1738385676802
 20
88.86771250412914
 30
0.0
 11
223.1738385676802
 21
87.82181050412914
 31
0.0
  0
LINE
  5
672
330
2
100
AcDbEntity
  8
0
100
AcDbLine
 10
220.4594375676802
 20
90.71447950412915
 30
0.0
 11
220.4594375676802
 21
85.20541250412916
 31
0.0
  0
LINE
  5
673
330
2
100
AcDbEntity
  8
0
100
AcDbLine
 10
219.3886365676802
 20
91.39499950412915
 30
0.0
 11
219.3886365676802
 21
84.55534950412914
 31
0.0
  0
LINE
  5
674
330
2
100
AcDbEntity
  8
0
100
AcDbLine
 10
225.7636365676802
 20
88.86771250412914
 30
0.0
 11
225.7636365676802
 21
83.31448950412914
 31
0.0
  0
LINE
  5
675
330
2
100
AcDbEntity
  8
0
100
AcDbLine
 10
220.6184495676802
 20
83.31448950412914
 30
0.0
 11
223.9337415676802
 21
83.31448950412914
 31
0.0
  0
LINE
  5
676
330
2
100
AcDbEntity
  8
0
100
AcDbLine
 10
222.8500475676802
 20
84.43510250412913
 30
0.0
 11
221.1907455676802
 21
84.43510250412913
 31
0.0
  0
LINE
  5
677
330
2
100
AcDbEntity
  8
0
100
AcDbLine
 10
219.3886365676802
 20
84.55534950412914
 30
0.0
 11
220.6184495676802
 21
83.31448950412914
 31
0.0
  0
LINE
  5
678
330
2
100
AcDbEntity
  8
0
100
AcDbLine
 10
220.4594375676802
 20
85.20541250412916
 30
0.0
 11
221.1907455676802
 21
84.43510250412913
 31
0.0
  0
LINE
  5
679
330
2
100
AcDbEntity
  8
0
100
AcDbLine
 10
224.8422505676802
 20
84.07676150412914
 30
0.0
 11
223.9337415676802
 21
83.31448950412914
 31
0.0
  0
LINE
  5
67A
330
2
100
AcDbEntity
  8
0
100
AcDbLine
 10
224.8422505676802
 20
83.31448950412914
 30
0.0
 11
225.7636365676802
 21
83.31448950412914
 31
0.0
  0
LINE
  5
67B
330
2
100
AcDbEntity
  8
0
100
AcDbLine
 10
224.8422505676802
 20
87.82181050412914
 30
0.0
 11
224.8422505676802
 21
86.42728250412915
 31
0.0
  0
LINE
  5
67C
330
2
100
AcDbEntity
  8
0
100
AcDbLine
 10
224.8422505676802
 20
84.07676150412914
 30
0.0
 11
224.8422505676802
 21
83.31448950412914
 31
0.0
  0
ARC
  5
67D
330
2
100
AcDbEntity
  8
0
100
AcDbCircle
 10
222.8500475676802
 20
86.42728250412915
 30
0.0
 40
1.992186999999999
100
AcDbArc
 50
270.0002139999998
 51
0.0001089999998967
  0
LINE
  5
67E
330
2
100
AcDbEntity
  8
0
100
AcDbLine
 10
224.8422505676802
 20
86.82572050412915
 30
0.0
 11
224.8422505676802
 21
87.62260250412913
 31
0.0
  0
LINE
  5
67F
330
2
100
AcDbEntity
  8
0
100
AcDbLine
 10
224.8422505676802
 20
87.82181050412914
 30
0.0
 11
223.1738385676802
 21
87.82181050412914
 31
0.0
  0
LINE
  5
680
330
2
100
AcDbEntity
  8
0
100
AcDbLine
 10
220.5460465676802
 20
92.87699350412912
 30
0.0
 11
224.8326375676802
 21
92.87699350412912
 31
0.0
  0
LINE
  5
681
330
2
100
AcDbEntity
  8
0
100
AcDbLine
 10
224.2511395676802
 20
91.60697450412914
 30
0.0
 11
221.1792405676802
 21
91.60697450412914
 31
0.0
  0
LINE
  5
682
330
2
100
AcDbEntity
  8
0
100
AcDbLine
 10
220.5460465676802
 20
92.87699350412912
 30
0.0
 11
219.3886365676802
 21
91.39499950412915
 31
0.0
  0
LINE
  5
683
330
2
100
AcDbEntity
  8
0
100
AcDbLine
 10
221.1792405676802
 20
91.60697450412914
 30
0.0
 11
220.4594375676802
 21
90.71447950412915
 31
0.0
  0
LINE
  5
684
330
2
100
AcDbEntity
  8
0
100
AcDbLine
 10
223.1738385676802
 20
88.86771250412914
 30
0.0
 11
225.7636365676802
 21
88.86771250412914
 31
0.0
  0
LINE
  5
685
330
2
100
AcDbEntity
  8
0
100
AcDbLine
 10
224.8422505676802
 20
91.03553250412915
 30
0.0
 11
224.8422505676802
 21
90.88480650412913
 31
0.0
  0
LINE
  5
686
330
2
100
AcDbEntity
  8
0
100
AcDbLine
 10
225.7636365676802
 20
91.84385150412913
 30
0.0
 11
225.7636365676802
 21
90.88480650412913
 31
0.0
  0
LINE
  5
687
330
2
100
AcDbEntity
  8
0
100
AcDbLine
 10
224.8422505676802
 20
90.88480650412913
 30
0.0
 11
225.7636365676802
 21
90.88480650412913
 31
0.0
  0
LINE
  5
688
330
2
100
AcDbEntity
  8
0
100
AcDbLine
 10
224.8326375676802
 20
92.87699350412912
 30
0.0
 11
225.7636365676802
 21
91.84385150412913
 31
0.0
  0
LINE
  5
689
330
2
100
AcDbEntity
  8
0
100
AcDbLine
 10
224.8422505676802
 20
91.03553250412915
 30
0.0
 11
224.2390395676802
 21
91.60697450412914
 31
0.0
  0
LINE
  5
68A
330
2
100
AcDbEntity
  8
0
100
AcDbLine
 10
232.7114365676802
 20
91.70658350412912
 30
0.0
 11
232.7114365676802
 21
84.36039250412916
 31
0.0
  0
LINE
  5
68B
330
2
100
AcDbEntity
  8
0
100
AcDbLine
 10
231.5160475676802
 20
91.70658350412912
 30
0.0
 11
231.5160475676802
 21
84.36039250412916
 31
0.0
  0
LINE
  5
68C
330
2
100
AcDbEntity
  8
0
100
AcDbLine
 10
231.0429485676802
 20
84.36039250412916
 30
0.0
 11
231.5160475676802
 21
84.36039250412916
 31
0.0
  0
LINE
  5
68D
330
2
100
AcDbEntity
  8
0
100
AcDbLine
 10
231.0429485676802
 20
83.31448950412914
 30
0.0
 11
233.1098435676802
 21
83.31448950412914
 31
0.0
  0
LINE
  5
68E
330
2
100
AcDbEntity
  8
0
100
AcDbLine
 10
233.1098435676802
 20
84.36039250412916
 30
0.0
 11
233.1098435676802
 21
83.31448950412914
 31
0.0
  0
LINE
  5
68F
330
2
100
AcDbEntity
  8
0
100
AcDbLine
 10
231.0429485676802
 20
84.36039250412916
 30
0.0
 11
231.0429485676802
 21
83.31448950412914
 31
0.0
  0
LINE
  5
690
330
2
100
AcDbEntity
  8
0
100
AcDbLine
 10
232.7114365676802
 20
84.36039250412916
 30
0.0
 11
233.1098435676802
 21
84.36039250412916
 31
0.0
  0
LINE
  5
691
330
2
100
AcDbEntity
  8
0
100
AcDbLine
 10
231.5160475676802
 20
91.70658350412912
 30
0.0
 11
230.0011395676802
 21
91.70658350412912
 31
0.0
  0
LINE
  5
692
330
2
100
AcDbEntity
  8
0
100
AcDbLine
 10
228.9511365676802
 20
92.87699350412912
 30
0.0
 11
235.3261365676802
 21
92.87699350412912
 31
0.0
  0
LINE
  5
693
330
2
100
AcDbEntity
  8
0
100
AcDbLine
 10
230.0011395676802
 20
91.70658350412912
 30
0.0
 11
229.6587475676802
 21
90.88480650412913
 31
0.0
  0
LINE
  5
694
330
2
100
AcDbEntity
  8
0
100
AcDbLine
 10
228.9511365676802
 20
90.88480650412913
 30
0.0
 11
229.6587475676802
 21
90.88480650412913
 31
0.0
  0
LINE
  5
695
330
2
100
AcDbEntity
  8
0
100
AcDbLine
 10
228.9511365676802
 20
90.88480650412913
 30
0.0
 11
228.9511365676802
 21
92.87699350412912
 31
0.0
  0
LINE
  5
696
330
2
100
AcDbEntity
  8
0
100
AcDbLine
 10
232.7114365676802
 20
91.70658350412912
 30
0.0
 11
234.3724475676803
 21
91.70658350412912
 31
0.0
  0
LINE
  5
697
330
2
100
AcDbEntity
  8
0
100
AcDbLine
 10
234.3724475676803
 20
91.70658350412912
 30
0.0
 11
234.6611435676802
 21
90.88480650412913
 31
0.0
  0
LINE
  5
698
330
2
100
AcDbEntity
  8
0
100
AcDbLine
 10
234.6611435676802
 20
90.88480650412913
 30
0.0
 11
235.3261365676802
 21
90.88480650412913
 31
0.0
  0
LINE
  5
699
330
2
100
AcDbEntity
  8
0
100
AcDbLine
 10
235.3261365676802
 20
90.88480650412913
 30
0.0
 11
235.3261365676802
 21
92.87699350412912
 31
0.0
  0
LINE
  5
69A
330
2
100
AcDbEntity
  8
0
100
AcDbLine
 10
243.4194445676802
 20
83.31448950412914
 30
0.0
 11
244.8886365676802
 21
83.31448950412914
 31
0.0
  0
LINE
  5
69B
330
2
100
AcDbEntity
  8
0
100
AcDbLine
 10
243.0404465676802
 20
87.87111150412915
 30
0.0
 11
244.6203415676802
 21
84.31057950412915
 31
0.0
  0
ARC
  5
69C
330
2
100
AcDbEntity
  8
0
100
AcDbCircle
 10
242.3361465676802
 20
90.32450350412915
 30
0.0
 40
2.55249
100
AcDbArc
 50
286.0181269999995
 51
90.00350999999964
  0
LINE
  5
69D
330
2
100
AcDbEntity
  8
0
100
AcDbLine
 10
238.9867505676802
 20
91.70658350412912
 30
0.0
 11
238.9867505676802
 21
84.31057950412915
 31
0.0
  0
LINE
  5
69E
330
2
100
AcDbEntity
  8
0
100
AcDbLine
 10
240.5182445676802
 20
83.31448950412914
 30
0.0
 11
238.5136365676802
 21
83.31448950412914
 31
0.0
  0
LINE
  5
69F
330
2
100
AcDbEntity
  8
0
100
AcDbLine
 10
238.5136365676802
 20
84.31057950412915
 30
0.0
 11
238.5136365676802
 21
83.31448950412914
 31
0.0
  0
LINE
  5
6A0
330
2
100
AcDbEntity
  8
0
100
AcDbLine
 10
238.5136365676802
 20
84.31057950412915
 30
0.0
 11
238.9867505676802
 21
84.31057950412915
 31
0.0
  0
LINE
  5
6A1
330
2
100
AcDbEntity
  8
0
100
AcDbLine
 10
240.0824385676802
 20
87.78446050412913
 30
0.0
 11
242.1229505676802
 21
87.78446050412913
 31
0.0
  0
LINE
  5
6A2
330
2
100
AcDbEntity
  8
0
100
AcDbLine
 10
240.5182445676802
 20
84.31057950412915
 30
0.0
 11
240.5182445676802
 21
83.31448950412914
 31
0.0
  0
LINE
  5
6A3
330
2
100
AcDbEntity
  8
0
100
AcDbLine
 10
243.4194445676802
 20
84.31057950412915
 30
0.0
 11
243.4194445676802
 21
83.31448950412914
 31
0.0
  0
LINE
  5
6A4
330
2
100
AcDbEntity
  8
0
100
AcDbLine
 10
243.4194445676802
 20
84.31057950412915
 30
0.0
 11
243.6180375676802
 21
84.31057950412915
 31
0.0
  0
LINE
  5
6A5
330
2
100
AcDbEntity
  8
0
100
AcDbLine
 10
240.0824385676802
 20
84.31057950412915
 30
0.0
 11
240.5182445676802
 21
84.31057950412915
 31
0.0
  0
LINE
  5
6A6
330
2
100
AcDbEntity
  8
0
100
AcDbLine
 10
242.1229505676802
 20
87.78446050412913
 30
0.0
 11
243.6180375676802
 21
84.31057950412915
 31
0.0
  0
LINE
  5
6A7
330
2
100
AcDbEntity
  8
0
100
AcDbLine
 10
240.0824385676802
 20
87.78446050412913
 30
0.0
 11
240.0824385676802
 21
84.31057950412915
 31
0.0
  0
LINE
  5
6A8
330
2
100
AcDbEntity
  8
0
100
AcDbLine
 10
238.5136365676802
 20
92.87699350412912
 30
0.0
 11
242.3361465676802
 21
92.87699350412912
 31
0.0
  0
LINE
  5
6A9
330
2
100
AcDbEntity
  8
0
100
AcDbLine
 10
238.5136365676802
 20
91.70658350412912
 30
0.0
 11
238.9867505676802
 21
91.70658350412912
 31
0.0
  0
LINE
  5
6AA
330
2
100
AcDbEntity
  8
0
100
AcDbLine
 10
238.5136365676802
 20
92.87699350412912
 30
0.0
 11
238.5136365676802
 21
91.70658350412912
 31
0.0
  0
LINE
  5
6AB
330
2
100
AcDbEntity
  8
0
100
AcDbLine
 10
240.0824385676802
 20
88.78033350412914
 30
0.0
 11
242.5371505676802
 21
88.78033350412914
 31
0.0
  0
LINE
  5
6AC
330
2
100
AcDbEntity
  8
0
100
AcDbLine
 10
240.0824385676802
 20
91.70658350412912
 30
0.0
 11
243.0573375676802
 21
91.70464550412914
 31
0.0
  0
LINE
  5
6AD
330
2
100
AcDbEntity
  8
0
100
AcDbLine
 10
240.0824385676802
 20
91.70658350412912
 30
0.0
 11
240.0824385676802
 21
88.78033350412914
 31
0.0
  0
ARC
  5
6AE
330
2
100
AcDbEntity
  8
0
100
AcDbCircle
 10
242.3361465676802
 20
90.32450350412915
 30
0.0
 40
1.557193
100
AcDbArc
 50
277.4147260000004
 51
62.41184999999949
  0
LINE
  5
6AF
330
2
100
AcDbEntity
  8
0
100
AcDbLine
 10
244.8886365676802
 20
84.31057950412915
 30
0.0
 11
244.8886365676802
 21
83.31448950412914
 31
0.0
  0
LINE
  5
6B0
330
2
100
AcDbEntity
  8
0
100
AcDbLine
 10
244.6203415676802
 20
84.31057950412915
 30
0.0
 11
244.8886365676802
 21
84.31057950412915
 31
0.0
  0
LINE
  5
6B1
330
2
100
AcDbEntity
  8
0
100
AcDbLine
 10
183.7672375676802
 20
142.3076725041291
 30
0.0
 11
213.8461415676802
 21
163.4077705041291
 31
0.0
  0
LINE
  5
6B2
330
2
100
AcDbEntity
  8
CENTER
100
AcDbLine
 10
201.6386365676802
 20
126.3144935041291
 30
0.0
 11
262.6386365676802
 21
126.3144935041291
 31
0.0
  0
ARC
  5
6B3
330
2
100
AcDbEntity
  8
0
100
AcDbCircle
 10
186.6386365676802
 20
138.2144185041291
 30
0.0
 40
5.0
100
AcDbArc
 50
125.0497970000001
 51
180.0
  0
LINE
  5
6B4
330
2
100
AcDbEntity
  8
0
100
AcDbLine
 10
181.6386365676802
 20
138.2144185041291
 30
0.0
 11
181.6386365676802
 21
138.2143885041291
 31
0.0
  0
ARC
  5
6B5
330
2
100
AcDbEntity
  8
0
100
AcDbCircle
 10
232.1386365676802
 20
126.3144935041291
 30
0.0
 40
9.0
100
AcDbArc
 50
19.47121000000005
 51
340.5288089999999
  0
LINE
  5
6B6
330
2
100
AcDbEntity
  8
0
100
AcDbLine
 10
216.7175395676802
 20
164.3144935041291
 30
0.0
 11
247.5597485676802
 21
164.3144935041291
 31
0.0
  0
ARC
  5
6B7
330
2
100
AcDbEntity
  8
0
100
AcDbCircle
 10
216.7175395676802
 20
159.3144935041291
 30
0.0
 40
5.0
100
AcDbArc
 50
90.0
 51
125.0496979999994
  0
LINE
  5
6B8
330
2
100
AcDbEntity
  8
0
100
AcDbLine
 10
243.6386365676802
 20
123.3145315041291
 30
0.0
 11
243.6386365676802
 21
129.3145315041291
 31
0.0
  0
LINE
  5
6B9
330
2
100
AcDbEntity
  8
0
100
AcDbLine
 10
237.6386365676802
 20
123.3145085041291
 30
0.0
 11
237.6386365676802
 21
129.3145085041291
 31
0.0
  0
LINE
  5
6BA
330
2
100
AcDbEntity
  8
0
100
AcDbLine
 10
243.6386365676802
 20
123.3145315041291
 30
0.0
 11
237.6386365676802
 21
123.3145085041291
 31
0.0
  0
LINE
  5
6BB
330
2
100
AcDbEntity
  8
0
100
AcDbLine
 10
243.6386365676802
 20
129.3145315041291
 30
0.0
 11
237.6386365676802
 21
129.3145085041291
 31
0.0
  0
ARC
  5
6BC
330
2
100
AcDbEntity
  8
0
100
AcDbCircle
 10
247.5598405676802
 20
159.3144785041291
 30
0.0
 40
5.0
100
AcDbArc
 50
54.95087799999998
 51
90.0
  0
LINE
  5
6BD
330
2
100
AcDbEntity
  8
0
100
AcDbLine
 10
179.6386365676802
 20
296.7235840190479
 30
0.0
 11
109.1386445676803
 21
296.7235840190479
 31
0.0
  0
LINE
  5
6BE
330
2
100
AcDbEntity
  8
0
100
AcDbLine
 10
109.1386445676803
 20
312.723599019048
 30
0.0
 11
188.4811965676803
 21
312.723599019048
 31
0.0
  0
LINE
  5
6BF
330
2
100
AcDbEntity
  8
0
100
AcDbLine
 10
109.1386445676803
 20
370.7235990190479
 30
0.0
 11
188.4811965676803
 21
370.7235990190479
 31
0.0
  0
LINE
  5
6C0
330
2
100
AcDbEntity
  8
0
100
AcDbLine
 10
179.6386365676802
 20
386.7235990190479
 30
0.0
 11
109.1386445676803
 21
386.7235990190479
 31
0.0
  0
LINE
  5
6C1
330
2
100
AcDbEntity
  8
0
100
AcDbLine
 10
52.13865356768019
 20
383.723599019048
 30
0.0
 11
52.13862356768027
 21
299.723569019048
 31
0.0
  0
LINE
  5
6C2
330
2
100
AcDbEntity
  8
0
100
AcDbLine
 10
99.63864456768034
 20
388.7235990190479
 30
0.0
 11
99.63864456768035
 21
349.2235990190479
 31
0.0
  0
LINE
  5
6C3
330
2
100
AcDbEntity
  8
0
100
AcDbLine
 10
109.1386445676803
 20
366.7235990190479
 30
0.0
 11
109.1386445676803
 21
386.7235990190479
 31
0.0
  0
ARC
  5
6C4
330
2
100
AcDbEntity
  8
0
100
AcDbCircle
 10
57.13862356768027
 20
299.7235840190479
 30
0.0
 40
5.0
100
AcDbArc
 50
180.0
 51
270.0
  0
LINE
  5
6C5
330
2
100
AcDbEntity
  8
0
100
AcDbLine
 10
57.13862356768027
 20
294.7235840190479
 30
0.0
 11
99.63864456768034
 21
294.7235840190479
 31
0.0
  0
LINE
  5
6C6
330
2
100
AcDbEntity
  8
0
100
AcDbLine
 10
99.63864456768034
 20
312.723599019048
 30
0.0
 11
55.66361356768027
 21
312.723599019048
 31
0.0
  0
LINE
  5
6C7
330
2
100
AcDbEntity
  8
0
100
AcDbLine
 10
109.1386445676803
 20
296.7235840190479
 30
0.0
 11
109.1386445676803
 21
316.7235990190479
 31
0.0
  0
LINE
  5
6C8
330
2
100
AcDbEntity
  8
0
100
AcDbLine
 10
109.1386445676803
 20
312.723599019048
 30
0.0
 11
99.63864456768034
 21
312.723599019048
 31
0.0
  0
LINE
  5
6C9
330
2
100
AcDbEntity
  8
0
100
AcDbLine
 10
99.63864456768034
 20
296.7235840190479
 30
0.0
 11
109.1386445676803
 21
296.7235840190479
 31
0.0
  0
ARC
  5
6CA
330
2
100
AcDbEntity
  8
0
100
AcDbCircle
 10
99.63864456768034
 20
302.453748019048
 30
0.0
 40
1.5
100
AcDbArc
 50
0.0
 51
90.0
  0
ARC
  5
6CB
330
2
100
AcDbEntity
  8
0
100
AcDbCircle
 10
99.63864456768034
 20
302.453748019048
 30
0.0
 40
3.0
100
AcDbArc
 50
0.0
 51
90.0
  0
ARC
  5
6CC
330
2
100
AcDbEntity
  8
0
100
AcDbCircle
 10
99.63864456768034
 20
302.453748019048
 30
0.0
 40
4.5
100
AcDbArc
 50
0.0
 51
90.0
  0
LINE
  5
6CD
330
2
100
AcDbEntity
  8
HOJO
100
AcDbLine
 10
102.6386445676803
 20
298.453748019048
 30
0.0
 11
104.1386445676803
 21
297.953748019048
 31
0.0
  0
LINE
  5
6CE
330
2
100
AcDbEntity
  8
HOJO
100
AcDbLine
 10
101.1386445676803
 20
297.453748019048
 30
0.0
 11
102.6386445676803
 21
297.953748019048
 31
0.0
  0
LINE
  5
6CF
330
2
100
AcDbEntity
  8
0
100
AcDbLine
 10
104.1386445676803
 20
302.453748019048
 30
0.0
 11
104.1386445676803
 21
297.953748019048
 31
0.0
  0
LINE
  5
6D0
330
2
100
AcDbEntity
  8
0
100
AcDbLine
 10
102.6386445676803
 20
302.453748019048
 30
0.0
 11
102.6386445676803
 21
297.953748019048
 31
0.0
  0
LINE
  5
6D1
330
2
100
AcDbEntity
  8
0
100
AcDbLine
 10
101.1386445676803
 20
302.453748019048
 30
0.0
 11
101.1386445676803
 21
297.4381380190479
 31
0.0
  0
ARC
  5
6E0
330
2
100
AcDbEntity
  8
0
100
AcDbCircle
 10
57.13865356768019
 20
383.723599019048
 30
0.0
 40
5.0
100
AcDbArc
 50
90.0
 51
180.0
  0
LINE
  5
6E1
330
2
100
AcDbEntity
  8
0
100
AcDbLine
 10
57.13862356768027
 20
388.7235990190479
 30
0.0
 11
99.63864456768034
 21
388.7235990190479
 31
0.0
  0
LINE
  5
6E2
330
2
100
AcDbEntity
  8
0
100
AcDbLine
 10
99.63864456768034
 20
370.7235990190479
 30
0.0
 11
55.66361356768027
 21
370.7235990190479
 31
0.0
  0
LINE
  5
6E3
330
2
100
AcDbEntity
  8
0
100
AcDbLine
 10
109.1386445676803
 20
370.7235990190479
 30
0.0
 11
99.63864456768034
 21
370.7235990190479
 31
0.0
  0
LINE
  5
6E4
330
2
100
AcDbEntity
  8
0
100
AcDbLine
 10
99.63864456768034
 20
386.7235990190479
 30
0.0
 11
109.1386445676803
 21
386.7235990190479
 31
0.0
  0
LINE
  5
6E5
330
2
100
AcDbEntity
  8
0
100
AcDbLine
 10
188.4811965676803
 20
368.723599019048
 30
0.0
 11
188.4811965676803
 21
314.723599019048
 31
0.0
  0
LINE
  5
6E6
330
2
100
AcDbEntity
  8
0
100
AcDbLine
 10
249.1386365676802
 20
373.7235990190479
 30
0.0
 11
249.1386365676802
 21
309.7235840190479
 31
0.0
  0
LINE
  5
6E7
330
2
100
AcDbEntity
  8
0
100
AcDbLine
 10
215.1386365676802
 20
373.7235990190479
 30
0.0
 11
215.1386365676802
 21
309.7235840190479
 31
0.0
  0
LINE
  5
6E8
330
2
100
AcDbEntity
  8
CENTER
100
AcDbLine
 10
232.1386365676801
 20
422.7235990190479
 30
0.0
 11
232.1386365676802
 21
260.7235840190479
 31
0.0
  0
LINE
  5
6E9
330
2
100
AcDbEntity
  8
0
100
AcDbLine
 10
223.1386365676802
 20
283.7235840190479
 30
0.0
 11
192.4780075676802
 21
283.7235840190479
 31
0.0
  0
CIRCLE
  5
6EB
330
2
100
AcDbEntity
  8
0
100
AcDbCircle
 10
194.1386365676802
 20
293.7235840190479
 30
0.0
 40
4.25
  0
LINE
  5
6EC
330
2
100
AcDbEntity
  8
0
100
AcDbLine
 10
182.4795335676802
 20
293.549069019048
 30
0.0
 11
182.2935595676802
 21
304.203702019048
 31
0.0
  0
ARC
  5
6EE
330
2
100
AcDbEntity
  8
0
100
AcDbCircle
 10
192.4780075676802
 20
293.7235840190479
 30
0.0
 40
10.0
100
AcDbArc
 50
181.0000000000001
 51
270.0
  0
ARC
  5
6EF
330
2
100
AcDbEntity
  8
0
100
AcDbCircle
 10
183.6386365676802
 20
302.7235840190479
 30
0.0
 40
2.0
100
AcDbArc
 50
90.0
 51
180.0
  0
ARC
  5
6F0
330
2
100
AcDbEntity
  8
0
100
AcDbCircle
 10
179.6386365676802
 20
298.7235840190479
 30
0.0
 40
2.0
100
AcDbArc
 50
270.0
 51
0.0
  0
LINE
  5
6F1
330
2
100
AcDbEntity
  8
0
100
AcDbLine
 10
182.2501785676802
 20
306.6886870190479
 30
0.0
 11
182.1448475676802
 21
312.723599019048
 31
0.0
  0
LINE
  5
6F2
330
2
100
AcDbEntity
  8
0
100
AcDbLine
 10
181.6386365676802
 20
302.7235840190479
 30
0.0
 11
181.6386365676802
 21
298.7235840190479
 31
0.0
  0
ARC
  5
6F3
330
2
100
AcDbEntity
  8
0
100
AcDbCircle
 10
184.2498735676802
 20
306.7235840190479
 30
0.0
 40
2.0
100
AcDbArc
 50
181.0000000000001
 51
270.0
  0
LINE
  5
6F4
330
2
100
AcDbEntity
  8
0
100
AcDbLine
 10
241.1386365676802
 20
297.7235840190479
 30
0.0
 11
241.1386365676802
 21
294.7235840190479
 31
0.0
  0
LINE
  5
6F5
330
2
100
AcDbEntity
  8
0
100
AcDbLine
 10
223.1386365676802
 20
297.7235840190479
 30
0.0
 11
223.1386365676802
 21
267.7235840190479
 31
0.0
  0
LINE
  5
6F7
330
2
100
AcDbEntity
  8
0
100
AcDbLine
 10
243.6386365676802
 20
267.7235840190479
 30
0.0
 11
223.1386365676802
 21
267.7235840190479
 31
0.0
  0
LINE
  5
6F8
330
2
100
AcDbEntity
  8
0
100
AcDbLine
 10
240.6236375676802
 20
267.7235840190479
 30
0.0
 11
240.6236375676802
 21
294.7235840190479
 31
0.0
  0
LINE
  5
6F9
330
2
100
AcDbEntity
  8
0
100
AcDbLine
 10
243.6386365676802
 20
267.7235840190479
 30
0.0
 11
243.6386365676802
 21
294.7235840190479
 31
0.0
  0
LINE
  5
6FA
330
2
100
AcDbEntity
  8
0
100
AcDbLine
 10
243.6386365676802
 20
294.7235840190479
 30
0.0
 11
240.6236375676802
 21
294.7235840190479
 31
0.0
  0
LINE
  5
6FB
330
2
100
AcDbEntity
  8
0
100
AcDbLine
 10
222.1386365676802
 20
297.7235840190479
 30
0.0
 11
242.1386365676802
 21
297.7235840190479
 31
0.0
  0
LINE
  5
6FC
330
2
100
AcDbEntity
  8
0
100
AcDbLine
 10
254.6386525676802
 20
299.7235840190479
 30
0.0
 11
209.6386365676802
 21
299.7235840190479
 31
0.0
  0
ARC
  5
6FD
330
2
100
AcDbEntity
  8
0
100
AcDbCircle
 10
206.6386365676802
 20
302.7235840190479
 30
0.0
 40
2.0
100
AcDbArc
 50
0.0
 51
90.0
  0
ARC
  5
6FE
330
2
100
AcDbEntity
  8
0
100
AcDbCircle
 10
209.6386525676802
 20
300.7235840190479
 30
0.0
 40
1.0
100
AcDbArc
 50
180.0
 51
270.0
  0
LINE
  5
6FF
330
2
100
AcDbEntity
  8
0
100
AcDbLine
 10
208.6386365676802
 20
300.7235840190479
 30
0.0
 11
208.6386365676802
 21
302.7235840190479
 31
0.0
  0
LINE
  5
700
330
2
100
AcDbEntity
  8
0
100
AcDbLine
 10
222.1386365676802
 20
299.7235840190479
 30
0.0
 11
222.1386365676802
 21
297.7235840190479
 31
0.0
  0
LINE
  5
701
330
2
100
AcDbEntity
  8
0
100
AcDbLine
 10
242.1386365676802
 20
299.7235840190479
 30
0.0
 11
242.1386365676802
 21
297.7235840190479
 31
0.0
  0
ARC
  5
702
330
2
100
AcDbEntity
  8
0
100
AcDbCircle
 10
257.6386365676802
 20
302.7235840190479
 30
0.0
 40
2.0
100
AcDbArc
 50
90.0
 51
180.0
  0
ARC
  5
703
330
2
100
AcDbEntity
  8
0
100
AcDbCircle
 10
254.6386525676802
 20
300.7235840190479
 30
0.0
 40
1.0
100
AcDbArc
 50
270.0
 51
0.0
  0
LINE
  5
704
330
2
100
AcDbEntity
  8
0
100
AcDbLine
 10
255.6386525676802
 20
300.7235840190479
 30
0.0
 11
255.6386525676802
 21
302.7235840190479
 31
0.0
  0
LINE
  5
705
330
2
100
AcDbEntity
  8
0
100
AcDbLine
 10
223.1386365676802
 20
399.7235990190479
 30
0.0
 11
192.4780075676802
 21
399.7235990190479
 31
0.0
  0
LINE
  5
707
330
2
100
AcDbEntity
  8
0
100
AcDbLine
 10
181.6386365676802
 20
380.7235990190479
 30
0.0
 11
181.6386365676802
 21
384.7235990190479
 31
0.0
  0
LINE
  5
708
330
2
100
AcDbEntity
  8
0
100
AcDbLine
 10
182.4795335676802
 20
389.898099019048
 30
0.0
 11
182.2935595676802
 21
379.2434660190479
 31
0.0
  0
ARC
  5
70A
330
2
100
AcDbEntity
  8
0
100
AcDbCircle
 10
183.6386365676802
 20
380.7235990190479
 30
0.0
 40
2.0
100
AcDbArc
 50
180.0
 51
270.0
  0
LINE
  5
70B
330
2
100
AcDbEntity
  8
0
100
AcDbLine
 10
182.2501785676802
 20
376.758481019048
 30
0.0
 11
182.1448475676802
 21
370.7235990190479
 31
0.0
  0
ARC
  5
70C
330
2
100
AcDbEntity
  8
0
100
AcDbCircle
 10
184.2498735676802
 20
376.7235990190479
 30
0.0
 40
2.0
100
AcDbArc
 50
90.0
 51
178.9999999999998
  0
ARC
  5
70D
330
2
100
AcDbEntity
  8
0
100
AcDbCircle
 10
179.6386365676802
 20
384.7235990190479
 30
0.0
 40
2.0
100
AcDbArc
 50
0.0
 51
90.0
  0
ARC
  5
70E
330
2
100
AcDbEntity
  8
0
100
AcDbCircle
 10
192.4780075676802
 20
389.723599019048
 30
0.0
 40
10.0
100
AcDbArc
 50
90.0
 51
178.9999999999998
  0
CIRCLE
  5
70F
330
2
100
AcDbEntity
  8
0
100
AcDbCircle
 10
194.1386365676802
 20
389.723599019048
 30
0.0
 40
4.25
  0
LINE
  5
710
330
2
100
AcDbEntity
  8
0
100
AcDbLine
 10
240.6236375676802
 20
415.7235990190479
 30
0.0
 11
240.6236375676802
 21
388.7235990190479
 31
0.0
  0
LINE
  5
711
330
2
100
AcDbEntity
  8
0
100
AcDbLine
 10
243.6386365676802
 20
415.7235990190479
 30
0.0
 11
243.6386365676802
 21
388.7235990190479
 31
0.0
  0
LINE
  5
712
330
2
100
AcDbEntity
  8
0
100
AcDbLine
 10
223.1386365676802
 20
385.723599019048
 30
0.0
 11
223.1386365676802
 21
415.7235990190479
 31
0.0
  0
LINE
  5
713
330
2
100
AcDbEntity
  8
0
100
AcDbLine
 10
222.1386365676802
 20
385.723599019048
 30
0.0
 11
242.1386365676802
 21
385.723599019048
 31
0.0
  0
LINE
  5
714
330
2
100
AcDbEntity
  8
0
100
AcDbLine
 10
254.6386525676802
 20
383.723599019048
 30
0.0
 11
209.6386365676802
 21
383.723599019048
 31
0.0
  0
LINE
  5
715
330
2
100
AcDbEntity
  8
0
100
AcDbLine
 10
208.6386365676802
 20
382.7235990190479
 30
0.0
 11
208.6386365676802
 21
380.7235990190479
 31
0.0
  0
ARC
  5
716
330
2
100
AcDbEntity
  8
0
100
AcDbCircle
 10
206.6386365676802
 20
380.7235990190479
 30
0.0
 40
2.0
100
AcDbArc
 50
270.0
 51
0.0
  0
ARC
  5
717
330
2
100
AcDbEntity
  8
0
100
AcDbCircle
 10
209.6386525676802
 20
382.7235990190479
 30
0.0
 40
1.0
100
AcDbArc
 50
90.0
 51
180.0
  0
LINE
  5
718
330
2
100
AcDbEntity
  8
0
100
AcDbLine
 10
222.1386365676802
 20
383.723599019048
 30
0.0
 11
222.1386365676802
 21
385.723599019048
 31
0.0
  0
LINE
  5
719
330
2
100
AcDbEntity
  8
0
100
AcDbLine
 10
255.6386525676802
 20
382.7235990190479
 30
0.0
 11
255.6386525676802
 21
380.7235990190479
 31
0.0
  0
LINE
  5
71A
330
2
100
AcDbEntity
  8
CENTER
100
AcDbLine
 10
270.1386365676802
 20
398.2329680190479
 30
0.0
 11
270.1386365676802
 21
381.214230019048
 31
0.0
  0
ARC
  5
71B
330
2
100
AcDbEntity
  8
0
100
AcDbCircle
 10
257.6386365676802
 20
380.7235990190479
 30
0.0
 40
2.0
100
AcDbArc
 50
180.0
 51
270.0
  0
LINE
  5
71C
330
2
100
AcDbEntity
  8
0
100
AcDbLine
 10
243.6386365676802
 20
388.7235990190479
 30
0.0
 11
240.6236375676802
 21
388.7235990190479
 31
0.0
  0
LINE
  5
71D
330
2
100
AcDbEntity
  8
0
100
AcDbLine
 10
242.1386365676802
 20
383.723599019048
 30
0.0
 11
242.1386365676802
 21
385.723599019048
 31
0.0
  0
LINE
  5
71E
330
2
100
AcDbEntity
  8
0
100
AcDbLine
 10
241.1386365676802
 20
385.723599019048
 30
0.0
 11
241.1386365676802
 21
388.7235990190479
 31
0.0
  0
ARC
  5
71F
330
2
100
AcDbEntity
  8
0
100
AcDbCircle
 10
254.6386525676802
 20
382.7235990190479
 30
0.0
 40
1.0
100
AcDbArc
 50
0.0
 51
90.0
  0
LINE
  5
720
330
2
100
AcDbEntity
  8
0
100
AcDbLine
 10
243.6386365676802
 20
415.7235990190479
 30
0.0
 11
223.1386365676802
 21
415.7235990190479
 31
0.0
  0
LINE
  5
721
330
2
100
AcDbEntity
  8
0
100
AcDbLine
 10
397.350269390435
 20
140.8144935041291
 30
0.0
 11
467.8184393904351
 21
140.8144935041291
 31
0.0
  0
LINE
  5
722
330
2
100
AcDbEntity
  8
0
100
AcDbLine
 10
397.465350390435
 20
163.7028225041291
 30
0.0
 11
432.500263390435
 21
164.3144935041291
 31
0.0
  0
LINE
  5
723
330
2
100
AcDbEntity
  8
0
100
AcDbLine
 10
374.500263390435
 20
51.31449150412915
 30
0.0
 11
490.5002633904351
 21
51.31449150412915
 31
0.0
  0
LINE
  5
724
330
2
100
AcDbEntity
  8
CENTER
100
AcDbLine
 10
351.500263390435
 20
126.3144935041291
 30
0.0
 11
513.5002633904353
 21
126.3144935041291
 31
0.0
  0
LINE
  5
725
330
2
100
AcDbEntity
  8
CENTER
100
AcDbLine
 10
378.5002633904351
 20
100.6144925041291
 30
0.0
 11
486.5002633904351
 21
100.6144925041291
 31
0.0
  0
LINE
  5
726
330
2
100
AcDbEntity
  8
0
100
AcDbLine
 10
385.500263390435
 20
74.51399050412915
 30
0.0
 11
385.500263390435
 21
117.3144935041291
 31
0.0
  0
LINE
  5
727
330
2
100
AcDbEntity
  8
0
100
AcDbLine
 10
390.500263390435
 20
103.8144895041291
 30
0.0
 11
390.500263390435
 21
148.8144935041291
 31
0.0
  0
ARC
  5
728
330
2
100
AcDbEntity
  8
0
100
AcDbCircle
 10
432.500263390435
 20
100.6144925041291
 30
0.0
 40
45.0
100
AcDbArc
 50
159.6376949999996
 51
214.6920929999997
  0
LINE
  5
729
330
2
100
AcDbEntity
  8
0
100
AcDbLine
 10
395.500263390435
 20
63.31449150412915
 30
0.0
 11
395.500263390435
 21
161.7031195041291
 31
0.0
  0
LINE
  5
72A
330
2
100
AcDbEntity
  8
0
100
AcDbLine
 10
280.1386365676802
 20
127.0068535041291
 30
0.0
 11
280.1386365676802
 21
95.62214150412916
 31
0.0
  0
LINE
  5
72B
330
2
100
AcDbEntity
  8
0
100
AcDbLine
 10
282.6386365676802
 20
58.31449150412914
 30
0.0
 11
282.6386365676802
 21
138.2143885041291
 31
0.0
  0
LINE
  5
72C
330
2
100
AcDbEntity
  8
HIDS
  6
SEKKEI_H
100
AcDbLine
 10
274.3886365676802
 20
60.31449150412914
 30
0.0
 11
274.3886365676802
 21
51.31449150412914
 31
0.0
  0
LINE
  5
72D
330
2
100
AcDbEntity
  8
0
100
AcDbLine
 10
282.6386365676802
 20
58.31449150412914
 30
0.0
 11
282.6386365676802
 21
51.31449150412914
 31
0.0
  0
ARC
  5
72E
330
2
100
AcDbEntity
  8
0
100
AcDbCircle
 10
280.6386365676802
 20
58.31448250412916
 30
0.0
 40
2.0
100
AcDbArc
 50
0.0
 51
90.0
  0
LINE
  5
72F
330
2
100
AcDbEntity
  8
HIDS
  6
SEKKEI_H
100
AcDbLine
 10
380.250263390435
 20
60.31449150412915
 30
0.0
 11
380.250263390435
 21
51.31449150412915
 31
0.0
  0
LINE
  5
730
330
2
100
AcDbEntity
  8
HIDS
  6
SEKKEI_H
100
AcDbLine
 10
388.750263390435
 20
60.31449150412915
 30
0.0
 11
388.750263390435
 21
51.31449150412915
 31
0.0
  0
LINE
  5
731
330
2
100
AcDbEntity
  8
CENTER
100
AcDbLine
 10
384.500263390435
 20
63.81449150412915
 30
0.0
 11
384.500263390435
 21
47.81449150412915
 31
0.0
  0
LINE
  5
732
330
2
100
AcDbEntity
  8
0
100
AcDbLine
 10
374.500263390435
 20
58.31449150412915
 30
0.0
 11
374.500263390435
 21
51.31449150412915
 31
0.0
  0
LINE
  5
733
330
2
100
AcDbEntity
  8
0
100
AcDbLine
 10
387.550556390435
 20
69.56424150412916
 30
0.0
 11
395.169544390435
 21
61.94521150412914
 31
0.0
  0
LINE
  5
734
330
2
100
AcDbEntity
  8
0
100
AcDbLine
 10
392.500263390435
 20
60.31449150412915
 30
0.0
 11
376.500263390435
 21
60.31449150412915
 31
0.0
  0
ARC
  5
735
330
2
100
AcDbEntity
  8
0
100
AcDbCircle
 10
391.500263390435
 20
103.8144865041291
 30
0.0
 40
1.0
100
AcDbArc
 50
180.0
 51
270.0
  0
ARC
  5
736
330
2
100
AcDbEntity
  8
0
100
AcDbCircle
 10
376.500263390435
 20
58.31450150412912
 30
0.0
 40
2.0
100
AcDbArc
 50
90.0
 51
180.0
  0
ARC
  5
737
330
2
100
AcDbEntity
  8
0
100
AcDbCircle
 10
392.500263390435
 20
74.51404050412914
 30
0.0
 40
7.0
100
AcDbArc
 50
180.0
 51
225.0003970000001
  0
ARC
  5
738
330
2
100
AcDbEntity
  8
0
100
AcDbCircle
 10
392.500263390435
 20
63.31449150412915
 30
0.0
 40
3.0
100
AcDbArc
 50
270.0
 51
0.0
  0
ARC
  5
739
330
2
100
AcDbEntity
  8
0
100
AcDbCircle
 10
393.500263390435
 20
100.8144975041291
 30
0.0
 40
2.0
100
AcDbArc
 50
0.0
 51
90.0
  0
LINE
  5
73A
330
2
100
AcDbEntity
  8
0
100
AcDbLine
 10
391.500263390435
 20
102.8144895041291
 30
0.0
 11
393.500263390435
 21
102.8144895041291
 31
0.0
  0
ARC
  5
73B
330
2
100
AcDbEntity
  8
0
100
AcDbCircle
 10
277.6386365676802
 20
138.2143735041291
 30
0.0
 40
5.0
100
AcDbArc
 50
0.0
 51
54.95090099999998
  0
ARC
  5
73C
330
2
100
AcDbEntity
  8
0
100
AcDbCircle
 10
391.500263390435
 20
148.8144785041291
 30
0.0
 40
1.0
100
AcDbArc
 50
90.0
 51
180.0
  0
LINE
  5
73D
330
2
100
AcDbEntity
  8
0
100
AcDbLine
 10
382.500263390435
 20
123.3144935041291
 30
0.0
 11
358.500263390435
 21
123.3144935041291
 31
0.0
  0
LINE
  5
73E
330
2
100
AcDbEntity
  8
0
100
AcDbLine
 10
382.500263390435
 20
129.3144935041291
 30
0.0
 11
358.500263390435
 21
129.3144935041291
 31
0.0
  0
LINE
  5
73F
330
2
100
AcDbEntity
  8
0
100
AcDbLine
 10
388.500263390435
 20
117.3144935041291
 30
0.0
 11
358.500263390435
 21
117.3144935041291
 31
0.0
  0
LINE
  5
740
330
2
100
AcDbEntity
  8
0
100
AcDbLine
 10
388.500263390435
 20
135.3144935041291
 30
0.0
 11
358.500263390435
 21
135.3144935041291
 31
0.0
  0
LINE
  5
741
330
2
100
AcDbEntity
  8
0
100
AcDbLine
 10
358.500263390435
 20
117.3144935041291
 30
0.0
 11
358.500263390435
 21
135.3144935041291
 31
0.0
  0
ARC
  5
742
330
2
100
AcDbEntity
  8
0
100
AcDbCircle
 10
382.500263390435
 20
126.3144935041291
 30
0.0
 40
3.0
100
AcDbArc
 50
270.0
 51
90.0
  0
LINE
  5
743
330
2
100
AcDbEntity
  8
0
100
AcDbLine
 10
388.500263390435
 20
136.3144935041291
 30
0.0
 11
388.500263390435
 21
116.3144935041291
 31
0.0
  0
LINE
  5
744
330
2
100
AcDbEntity
  8
0
100
AcDbLine
 10
390.500263390435
 20
116.3144935041291
 30
0.0
 11
388.500263390435
 21
116.3144935041291
 31
0.0
  0
LINE
  5
745
330
2
100
AcDbEntity
  8
0
100
AcDbLine
 10
390.500263390435
 20
136.3144935041291
 30
0.0
 11
388.500263390435
 21
136.3144935041291
 31
0.0
  0
ARC
  5
746
330
2
100
AcDbEntity
  8
0
100
AcDbCircle
 10
393.500263390435
 20
151.8144935041291
 30
0.0
 40
2.0
100
AcDbArc
 50
270.0
 51
0.0
  0
LINE
  5
747
330
2
100
AcDbEntity
  8
0
100
AcDbLine
 10
391.500263390435
 20
149.8144935041291
 30
0.0
 11
393.500263390435
 21
149.8144935041291
 31
0.0
  0
ARC
  5
748
330
2
100
AcDbEntity
  8
0
100
AcDbCircle
 10
397.500263390435
 20
161.7031345041291
 30
0.0
 40
2.0
100
AcDbArc
 50
91.00064099999967
 51
180.0
  0
LINE
  5
749
330
2
100
AcDbEntity
  8
0
100
AcDbLine
 10
479.5002633904351
 20
74.51397150412915
 30
0.0
 11
479.5002633904351
 21
117.3144935041291
 31
0.0
  0
ARC
  5
74A
330
2
100
AcDbEntity
  8
0
100
AcDbCircle
 10
432.500263390435
 20
100.6144925041291
 30
0.0
 40
45.0
100
AcDbArc
 50
325.3078919999996
 51
20.43779900000008
  0
LINE
  5
74B
330
2
100
AcDbEntity
  8
0
100
AcDbLine
 10
474.5002633904351
 20
103.8144895041291
 30
0.0
 11
474.5002633904351
 21
148.8144935041291
 31
0.0
  0
LINE
  5
74C
330
2
100
AcDbEntity
  8
0
100
AcDbLine
 10
469.500263390435
 20
63.31449150412915
 30
0.0
 11
469.500263390435
 21
161.7032495041291
 31
0.0
  0
LINE
  5
74D
330
2
100
AcDbEntity
  8
CENTER
100
AcDbLine
 10
432.500263390435
 20
44.31449150412915
 30
0.0
 11
432.500263390435
 21
183.5019875041291
 31
0.0
  0
LINE
  5
74E
330
2
100
AcDbEntity
  8
HIDS
  6
SEKKEI_H
100
AcDbLine
 10
476.2502633904351
 20
60.31449150412915
 30
0.0
 11
476.2502633904351
 21
51.31449150412915
 31
0.0
  0
LINE
  5
74F
330
2
100
AcDbEntity
  8
HIDS
  6
SEKKEI_H
100
AcDbLine
 10
484.7502633904351
 20
60.31449150412915
 30
0.0
 11
484.7502633904351
 21
51.31449150412915
 31
0.0
  0
LINE
  5
750
330
2
100
AcDbEntity
  8
CENTER
100
AcDbLine
 10
480.5002633904351
 20
63.81449150412915
 30
0.0
 11
480.5002633904351
 21
47.81449150412915
 31
0.0
  0
LINE
  5
751
330
2
100
AcDbEntity
  8
0
100
AcDbLine
 10
490.5002633904351
 20
58.31449150412915
 30
0.0
 11
490.5002633904351
 21
51.31449150412915
 31
0.0
  0
LINE
  5
752
330
2
100
AcDbEntity
  8
0
100
AcDbLine
 10
472.5002633904351
 20
60.31449150412915
 30
0.0
 11
488.5002633904351
 21
60.31449150412915
 31
0.0
  0
LINE
  5
753
330
2
100
AcDbEntity
  8
0
100
AcDbLine
 10
477.450061390435
 20
69.56424150412916
 30
0.0
 11
469.8309513904351
 21
61.94516250412916
 31
0.0
  0
ARC
  5
754
330
2
100
AcDbEntity
  8
0
100
AcDbCircle
 10
472.5002633904351
 20
63.31449150412915
 30
0.0
 40
3.0
100
AcDbArc
 50
180.0
 51
270.0
  0
ARC
  5
755
330
2
100
AcDbEntity
  8
0
100
AcDbCircle
 10
472.5002633904351
 20
74.51395250412914
 30
0.0
 40
7.0
100
AcDbArc
 50
315.0004309999997
 51
0.0
  0
ARC
  5
756
330
2
100
AcDbEntity
  8
0
100
AcDbCircle
 10
488.5002633904351
 20
58.31448250412917
 30
0.0
 40
2.0
100
AcDbArc
 50
0.0
 51
90.0
  0
LINE
  5
757
330
2
100
AcDbEntity
  8
0
100
AcDbLine
 10
473.500263390435
 20
102.8144895041291
 30
0.0
 11
471.5002633904351
 21
102.8144895041291
 31
0.0
  0
ARC
  5
758
330
2
100
AcDbEntity
  8
0
100
AcDbCircle
 10
471.5002633904351
 20
100.8144975041291
 30
0.0
 40
2.0
100
AcDbArc
 50
90.0
 51
180.0
  0
ARC
  5
759
330
2
100
AcDbEntity
  8
0
100
AcDbCircle
 10
473.500263390435
 20
103.8144865041291
 30
0.0
 40
1.0
100
AcDbArc
 50
270.0
 51
0.0
  0
LINE
  5
75A
330
2
100
AcDbEntity
  8
0
100
AcDbLine
 10
482.5002633904351
 20
123.3144935041291
 30
0.0
 11
506.5002633904351
 21
123.3144935041291
 31
0.0
  0
LINE
  5
75B
330
2
100
AcDbEntity
  8
0
100
AcDbLine
 10
482.5002633904351
 20
129.3144935041291
 30
0.0
 11
506.5002633904351
 21
129.3144935041291
 31
0.0
  0
LINE
  5
75C
330
2
100
AcDbEntity
  8
0
100
AcDbLine
 10
476.5002633904351
 20
117.3144935041291
 30
0.0
 11
506.5002633904351
 21
117.3144935041291
 31
0.0
  0
LINE
  5
75D
330
2
100
AcDbEntity
  8
0
100
AcDbLine
 10
476.5002633904351
 20
135.3144935041291
 30
0.0
 11
506.5002633904351
 21
135.3144935041291
 31
0.0
  0
LINE
  5
75E
330
2
100
AcDbEntity
  8
0
100
AcDbLine
 10
432.500263390435
 20
164.3144935041291
 30
0.0
 11
467.535144390435
 21
163.7029595041291
 31
0.0
  0
ARC
  5
75F
330
2
100
AcDbEntity
  8
0
100
AcDbCircle
 10
482.5002633904351
 20
126.3144935041291
 30
0.0
 40
3.0
100
AcDbArc
 50
90.0
 51
270.0
  0
LINE
  5
760
330
2
100
AcDbEntity
  8
0
100
AcDbLine
 10
476.5002633904351
 20
136.3144935041291
 30
0.0
 11
476.5002633904351
 21
116.3144935041291
 31
0.0
  0
LINE
  5
761
330
2
100
AcDbEntity
  8
0
100
AcDbLine
 10
474.5002633904351
 20
116.3144935041291
 30
0.0
 11
476.5002633904351
 21
116.3144935041291
 31
0.0
  0
LINE
  5
762
330
2
100
AcDbEntity
  8
0
100
AcDbLine
 10
474.5002633904351
 20
136.3144935041291
 30
0.0
 11
476.5002633904351
 21
136.3144935041291
 31
0.0
  0
LINE
  5
763
330
2
100
AcDbEntity
  8
0
100
AcDbLine
 10
473.500263390435
 20
149.8144935041291
 30
0.0
 11
471.5002633904351
 21
149.8144935041291
 31
0.0
  0
ARC
  5
764
330
2
100
AcDbEntity
  8
0
100
AcDbCircle
 10
471.5002633904351
 20
151.8144935041291
 30
0.0
 40
2.0
100
AcDbArc
 50
180.0
 51
270.0
  0
ARC
  5
765
330
2
100
AcDbEntity
  8
0
100
AcDbCircle
 10
473.500263390435
 20
148.8144785041291
 30
0.0
 40
1.0
100
AcDbArc
 50
0.0
 51
90.0
  0
ARC
  5
766
330
2
100
AcDbEntity
  8
0
100
AcDbCircle
 10
467.5002633904351
 20
161.7032495041291
 30
0.0
 40
2.0
100
AcDbArc
 50
0.0
 51
89.00013700000007
  0
LINE
  5
767
330
2
100
AcDbEntity
  8
0
100
AcDbLine
 10
506.5002633904351
 20
117.3144935041291
 30
0.0
 11
506.5002633904351
 21
135.3144935041291
 31
0.0
  0
LINE
  5
768
330
2
100
AcDbEntity
  8
0
100
AcDbLine
 10
281.7977555676802
 20
389.898099019048
 30
0.0
 11
282.6386365676802
 21
341.723599019048
 31
0.0
  0
LINE
  5
769
330
2
100
AcDbEntity
  8
0
100
AcDbLine
 10
281.7977555676802
 20
293.549069019048
 30
0.0
 11
282.6386365676802
 21
341.723599019048
 31
0.0
  0
ARC
  5
76A
330
2
100
AcDbEntity
  8
0
100
AcDbCircle
 10
271.7992815676802
 20
293.7235840190479
 30
0.0
 40
10.0
100
AcDbArc
 50
270.0
 51
358.9999999999998
  0
ARC
  5
76B
330
2
100
AcDbEntity
  8
0
100
AcDbCircle
 10
280.0274155676802
 20
306.7235840190479
 30
0.0
 40
2.0
100
AcDbArc
 50
270.0
 51
358.9999999999998
  0
ARC
  5
76D
330
2
100
AcDbEntity
  8
0
100
AcDbCircle
 10
280.0274155676802
 20
376.7235990190479
 30
0.0
 40
2.0
100
AcDbArc
 50
1.000000000000147
 51
90.0
  0
ARC
  5
76E
330
2
100
AcDbEntity
  8
0
100
AcDbCircle
 10
271.7992815676802
 20
389.723599019048
 30
0.0
 40
10.0
100
AcDbArc
 50
1.000000000000147
 51
90.0
  0
LINE
  5
820
330
2
100
AcDbEntity
  8
CENTER
100
AcDbLine
 10
185.6292675676802
 20
389.723599019048
 30
0.0
 11
202.6480055676802
 21
389.723599019048
 31
0.0
  0
LINE
  5
821
330
2
100
AcDbEntity
  8
CENTER
100
AcDbLine
 10
194.1386365676802
 20
398.2329680190479
 30
0.0
 11
194.1386365676802
 21
381.214230019048
 31
0.0
  0
LINE
  5
822
330
2
100
AcDbEntity
  8
CENTER
100
AcDbLine
 10
261.6292675676802
 20
293.7235840190479
 30
0.0
 11
278.6480055676802
 21
293.7235840190479
 31
0.0
  0
LINE
  5
823
330
2
100
AcDbEntity
  8
CENTER
100
AcDbLine
 10
270.1386365676802
 20
302.2329530190479
 30
0.0
 11
270.1386365676802
 21
285.2142150190479
 31
0.0
  0
LINE
  5
824
330
2
100
AcDbEntity
  8
CENTER
100
AcDbLine
 10
185.6292675676802
 20
293.7235840190479
 30
0.0
 11
202.6480055676802
 21
293.7235840190479
 31
0.0
  0
LINE
  5
825
330
2
100
AcDbEntity
  8
CENTER
100
AcDbLine
 10
194.1386365676802
 20
302.2329530190479
 30
0.0
 11
194.1386365676802
 21
285.2142150190479
 31
0.0
  0
TEXT
  5
83B
330
2
100
AcDbEntity
  8
TITLE
100
AcDbText
 10
319.464678896617
 20
334.3703931360965
 30
0.0
 40
5.0
  1
HLMN-18T-10~240-T60WT
 41
0.8
100
AcDbText
  0
TEXT
  5
83C
330
2
100
AcDbEntity
  8
TITLE
100
AcDbText
 10
319.464678896617
 20
350.3703931360965
 30
0.0
 40
5.0
  1
HLMN-18T-160~240-T40WT
 41
0.8
100
AcDbText
  0
TEXT
  5
83D
330
2
100
AcDbEntity
  8
TITLE
100
AcDbText
 10
319.464678896617
 20
318.3703931360965
 30
0.0
 40
5.0
  1
HLMN-18T-10~240-T90WT
 41
0.8
100
AcDbText
  0
TEXT
  5
83E
330
2
100
AcDbEntity
  8
TITLE
100
AcDbText
 10
319.464678896617
 20
326.3703931360965
 30
0.0
 40
5.0
  1
HLMN-18T-10~240-T90T
 41
0.8
100
AcDbText
  0
TEXT
  5
83F
330
2
100
AcDbEntity
  8
TITLE
100
AcDbText
 10
319.464678896617
 20
358.3703931360965
 30
0.0
 40
5.0
  1
HLMN-18T-160~240-T40T
 41
0.8
100
AcDbText
  0
TEXT
  5
840
330
2
100
AcDbEntity
  8
TITLE
100
AcDbText
 10
319.464678896617
 20
342.3703931360965
 30
0.0
 40
5.0
  1
HLMN-18T-80~240-T60T
 41
0.8
100
AcDbText
  0
TEXT
  5
841
330
2
100
AcDbEntity
  8
TITLE
100
AcDbText
 10
417.1558280561037
 20
318.3703931360965
 30
0.0
 40
5.0
  1
HLMN-18T-10~240-S90WT
 41
0.8
100
AcDbText
  0
TEXT
  5
842
330
2
100
AcDbEntity
  8
TITLE
100
AcDbText
 10
417.1558280561037
 20
358.3703931360965
 30
0.0
 40
5.0
  1
HLMN-18T-160~240-S40T
 41
0.8
100
AcDbText
  0
TEXT
  5
843
330
2
100
AcDbEntity
  8
TITLE
100
AcDbText
 10
417.1558280561037
 20
350.3703931360965
 30
0.0
 40
5.0
  1
HLMN-18T-160~240-S40WT
 41
0.8
100
AcDbText
  0
TEXT
  5
844
330
2
100
AcDbEntity
  8
TITLE
100
AcDbText
 10
417.1558280561037
 20
342.3703931360965
 30
0.0
 40
5.0
  1
HLMN-18T-10~240-S60T
 41
0.8
100
AcDbText
  0
TEXT
  5
845
330
2
100
AcDbEntity
  8
TITLE
100
AcDbText
 10
417.1558280561037
 20
334.3703931360965
 30
0.0
 40
5.0
  1
HLMN-18T-10~240-S60WT
 41
0.8
100
AcDbText
  0
TEXT
  5
846
330
2
100
AcDbEntity
  8
TITLE
100
AcDbText
 10
417.1558280561037
 20
326.3703931360965
 30
0.0
 40
5.0
  1
HLMN-18T-10~240-S90T
 41
0.8
100
AcDbText
  0
LINE
  5
1E05
330
2
100
AcDbEntity
  8
0
100
AcDbLine
 10
150.1386325676802
 20
177.1144875041291
 30
0.0
 11
150.1386325676802
 21
149.1144895041291
 31
0.0
  0
LINE
  5
1E06
330
2
100
AcDbEntity
  8
CENTER
100
AcDbLine
 10
125.1386325676802
 20
142.4207885041291
 30
0.0
 11
125.1386325676802
 21
183.5019875041291
 31
0.0
  0
LINE
  5
1E07
330
2
100
AcDbEntity
  8
0
100
AcDbLine
 10
100.1386255676802
 20
177.1144875041291
 30
0.0
 11
100.1386255676802
 21
149.1144895041291
 31
0.0
  0
LINE
  5
1E08
330
2
100
AcDbEntity
  8
0
100
AcDbLine
 10
101.6386255676802
 20
147.1144895041291
 30
0.0
 11
148.1386325676802
 21
147.1144895041291
 31
0.0
  0
LINE
  5
1E09
330
2
100
AcDbEntity
  8
0
100
AcDbLine
 10
100.1386255676802
 20
149.1144895041291
 30
0.0
 11
150.1386325676802
 21
149.1144895041291
 31
0.0
  0
LINE
  5
1E0B
330
2
100
AcDbEntity
  8
0
100
AcDbLine
 10
100.1386255676802
 20
149.1144895041291
 30
0.0
 11
102.1386255676802
 21
147.1144895041291
 31
0.0
  0
LINE
  5
1E0C
330
2
100
AcDbEntity
  8
0
100
AcDbLine
 10
101.6386255676802
 20
147.1144895041291
 30
0.0
 11
101.6386255676802
 21
145.6144895041291
 31
0.0
  0
LINE
  5
1E0E
330
2
100
AcDbEntity
  8
0
100
AcDbLine
 10
148.1386325676802
 20
147.1144895041291
 30
0.0
 11
150.1386325676802
 21
149.1144895041291
 31
0.0
  0
LINE
  5
1E0F
330
2
100
AcDbEntity
  8
0
100
AcDbLine
 10
147.6386325676802
 20
147.1144895041291
 30
0.0
 11
147.6386325676802
 21
145.6144895041291
 31
0.0
  0
LINE
  5
1E10
330
2
100
AcDbEntity
  8
0
100
AcDbLine
 10
107.6386259962512
 20
177.614487504129
 30
0.0
 11
106.5836099573004
 21
177.614487504129
 31
0.0
  0
LINE
  5
1E11
330
2
100
AcDbEntity
  8
0
100
AcDbLine
 10
107.6386259962512
 20
175.614487504129
 30
0.0
 11
100.1386259962512
 21
175.6144875041291
 31
0.0
  0
ARC
  5
1E12
330
2
100
AcDbEntity
  8
0
100
AcDbCircle
 10
105.7456433212731
 20
176.6206002283754
 30
0.0
 40
1.3
100
AcDbArc
 50
5.000000000000026
 51
74.11914999172243
  0
LINE
  5
1E14
330
2
100
AcDbEntity
  8
0
100
AcDbLine
 10
104.9765413837058
 20
178.1144875041291
 30
0.0
 11
149.1386325676802
 21
178.1144875041291
 31
0.0
  0
LINE
  5
1E15
330
2
100
AcDbEntity
  8
0
100
AcDbLine
 10
98.13862556768027
 20
159.1144895041291
 30
0.0
 11
150.1386325676802
 21
159.1144895041291
 31
0.0
  0
LINE
  5
1E16
330
2
100
AcDbEntity
  8
CENTER
100
AcDbLine
 10
92.19487656768023
 20
168.6144875041291
 30
0.0
 11
154.0909355314183
 21
168.6144875041291
 31
0.0
  0
LINE
  5
1E17
330
2
100
AcDbEntity
  8
0
100
AcDbLine
 10
98.13864056768023
 20
175.1144875041291
 30
0.0
 11
98.13862556768027
 21
159.1144895041291
 31
0.0
  0
LINE
  5
1E18
330
2
100
AcDbEntity
  8
0
100
AcDbLine
 10
94.63864056768022
 20
172.6144875041291
 30
0.0
 11
94.63864056768022
 21
164.6144875041291
 31
0.0
  0
LINE
  5
1E19
330
2
100
AcDbEntity
  8
0
100
AcDbLine
 10
94.63862556768026
 20
164.6144875041291
 30
0.0
 11
98.13862556768027
 21
163.1144875041291
 31
0.0
  0
LINE
  5
1E1A
330
2
100
AcDbEntity
  8
0
100
AcDbLine
 10
94.63864056768022
 20
172.6144875041291
 30
0.0
 11
98.13864056768023
 21
174.1144875041291
 31
0.0
  0
LINE
  5
1E1B
330
2
100
AcDbEntity
  8
0
100
AcDbLine
 10
99.13862556768027
 20
176.1144875041291
 30
0.0
 11
100.1386255676802
 21
176.1144875041291
 31
0.0
  0
ARC
  5
1E1C
330
2
100
AcDbEntity
  8
0
100
AcDbCircle
 10
99.13864056768023
 20
175.1144875041291
 30
0.0
 40
1.0
100
AcDbArc
 50
90.0
 51
180.0
  0
ARC
  5
1E1D
330
2
100
AcDbEntity
  8
0
100
AcDbCircle
 10
103.6386325676803
 20
169.214487504129
 30
0.0
 40
9.0
100
AcDbArc
 50
74.11914999172243
 51
105.8808500082775
  0
LINE
  5
1E1E
330
2
100
AcDbEntity
  8
0
100
AcDbLine
 10
101.6088927445163
 20
177.7669290415066
 30
0.0
 11
101.5886325676802
 21
177.9779057869682
 31
0.0
  0
LINE
  5
1E1F
330
2
100
AcDbEntity
  8
0
100
AcDbLine
 10
101.1386255676802
 20
178.1144875041291
 30
0.0
 11
102.3007237516549
 21
178.1144875041291
 31
0.0
  0
LINE
  5
1E20
330
2
100
AcDbEntity
  8
0
100
AcDbLine
 10
105.6683723908444
 20
177.7669290415066
 30
0.0
 11
105.6886325676804
 21
177.9779057869682
 31
0.0
  0
LINE
  5
1E21
330
2
100
AcDbEntity
  8
0
100
AcDbLine
 10
100.1386325676803
 20
175.6144875041291
 30
0.0
 11
100.2365687065681
 21
176.7339026939473
 31
0.0
  0
LINE
  5
1E22
330
2
100
AcDbEntity
  8
0
100
AcDbLine
 10
103.9261325681353
 20
176.697487504129
 30
0.0
 11
103.3511325672253
 21
176.697487504129
 31
0.0
  0
SPLINE
  5
1E23
330
2
100
AcDbEntity
  8
0
100
AcDbSpline
210
0.0
220
0.0
230
1.0
 70
     8
 71
     3
 72
    11
 73
     7
 74
     0
 42
0.0000000001
 43
0.0000000001
 40
0.0
 40
0.0
 40
0.0
 40
0.0
 40
0.4601364636755307
 40
1.04988694485363
 40
1.713742833862792
 40
2.320347933405154
 40
2.320347933405154
 40
2.320347933405154
 40
2.320347933405179
 10
103.3511325672253
 20
176.697487504129
 30
0.0
 10
103.3287149101174
 20
176.8525109438089
 30
0.0
 10
103.2775648548841
 20
177.2062257617265
 30
0.0
 10
102.8416796933505
 20
177.6309534333281
 30
0.0
 10
102.2366289783432
 20
177.850140613294
 30
0.0
 10
101.8114443541672
 20
177.7811493136833
 30
0.0
 10
101.6088927445163
 20
177.7669290415066
 30
0.0
  0
ARC
  5
1E24
330
2
100
AcDbEntity
  8
0
100
AcDbCircle
 10
101.5316218140873
 20
176.6206002283754
 30
0.0
 40
1.3
100
AcDbArc
 50
105.8808500082775
 51
174.9999999999999
  0
LINE
  5
1E25
330
2
100
AcDbEntity
  8
0
100
AcDbLine
 10
101.1386259962512
 20
178.114487504129
 30
0.0
 11
100.1386255676802
 21
177.1144875041291
 31
0.0
  0
LINE
  5
1E26
330
2
100
AcDbEntity
  8
0
100
AcDbLine
 10
100.1386255676802
 20
177.1144875041291
 30
0.0
 11
101.1386255676802
 21
178.1144875041291
 31
0.0
  0
SPLINE
  5
1E27
330
2
100
AcDbEntity
  8
0
100
AcDbSpline
210
0.0
220
0.0
230
1.0
 70
     8
 71
     3
 72
    11
 73
     7
 74
     0
 42
0.0000000001
 43
0.0000000001
 40
0.0
 40
0.0
 40
0.0
 40
0.0
 40
0.4601364636755307
 40
1.04988694485363
 40
1.713742833862792
 40
2.320347933405154
 40
2.320347933405154
 40
2.320347933405154
 40
2.320347933405179
 10
103.9261325681353
 20
176.697487504129
 30
0.0
 10
103.9485502252432
 20
176.8525109438089
 30
0.0
 10
103.9997002804765
 20
177.2062257617265
 30
0.0
 10
104.4355854420101
 20
177.6309534333281
 30
0.0
 10
105.0406361570175
 20
177.850140613294
 30
0.0
 10
105.4658207811934
 20
177.7811493136833
 30
0.0
 10
105.6683723908444
 20
177.7669290415066
 30
0.0
  0
LINE
  5
1E28
330
2
100
AcDbEntity
  8
0
100
AcDbLine
 10
107.6386259962512
 20
177.1144875041291
 30
0.0
 11
150.1386395676803
 21
177.1144875041291
 31
0.0
  0
LINE
  5
1E29
330
2
100
AcDbEntity
  8
0
100
AcDbLine
 10
107.1386325676802
 20
175.6144875041291
 30
0.0
 11
107.0406964287924
 21
176.7339026939473
 31
0.0
  0
LINE
  5
1E2A
330
2
100
AcDbEntity
  8
0
100
AcDbLine
 10
107.6386259962512
 20
175.614487504129
 30
0.0
 11
107.6386259962512
 21
177.6144875041291
 31
0.0
  0
LINE
  5
1E2B
330
2
100
AcDbEntity
  8
0
100
AcDbLine
 10
108.1386259962512
 20
178.114487504129
 30
0.0
 11
107.6386259962512
 21
177.614487504129
 31
0.0
  0
LINE
  5
1E2C
330
2
100
AcDbEntity
  8
0
100
AcDbLine
 10
149.1386395676803
 20
178.1144875041291
 30
0.0
 11
150.1386395676803
 21
177.1144875041291
 31
0.0
  0
LINE
  5
1E2D
330
2
100
AcDbEntity
  8
0
100
AcDbLine
 10
457.500248390435
 20
177.1144875041291
 30
0.0
 11
457.500248390435
 21
163.8781186573874
 31
0.0
  0
LINE
  5
1E2E
330
2
100
AcDbEntity
  8
0
100
AcDbLine
 10
407.500263390435
 20
177.1144875041291
 30
0.0
 11
407.500263390435
 21
163.87802103451
 31
0.0
  0
LINE
  5
1E37
330
2
100
AcDbEntity
  8
0
100
AcDbLine
 10
408.500263390435
 20
178.1144875041291
 30
0.0
 11
452.6623545744089
 21
178.1144875041291
 31
0.0
  0
LINE
  5
1E39
330
2
100
AcDbEntity
  8
0
100
AcDbLine
 10
407.500263390435
 20
177.1144875041291
 30
0.0
 11
450.0002483904351
 21
177.1144875041291
 31
0.0
  0
LINE
  5
1E3A
330
2
100
AcDbEntity
  8
CENTER
100
AcDbLine
 10
402.4566564092265
 20
168.6144875041291
 30
0.0
 11
462.5438703716436
 21
168.6144875041291
 31
0.0
  0
LINE
  5
1E3B
330
2
100
AcDbEntity
  8
0
100
AcDbLine
 10
408.500263390435
 20
178.1144875041291
 30
0.0
 11
407.500263390435
 21
177.1144875041291
 31
0.0
  0
ARC
  5
1E3C
330
2
100
AcDbEntity
  8
0
100
AcDbCircle
 10
454.000263390435
 20
169.2144875041291
 30
0.0
 40
9.0
100
AcDbArc
 50
74.11914999172243
 51
105.8808500082775
  0
LINE
  5
1E3D
330
2
100
AcDbEntity
  8
0
100
AcDbLine
 10
450.0002483904351
 20
175.6144875041291
 30
0.0
 11
457.500248390435
 21
175.6144875041292
 31
0.0
  0
SPLINE
  5
1E3E
330
2
100
AcDbEntity
  8
0
100
AcDbSpline
210
0.0
220
0.0
230
1.0
 70
     8
 71
     3
 72
    11
 73
     7
 74
     0
 42
0.0000000001
 43
0.0000000001
 40
0.0
 40
0.0
 40
0.0
 40
0.0
 40
0.4601364636755307
 40
1.04988694485363
 40
1.713742833862792
 40
2.320347933405154
 40
2.320347933405154
 40
2.320347933405154
 40
2.320347933405179
 10
454.2877633908902
 20
176.6974875041292
 30
0.0
 10
454.310181047998
 20
176.852510943809
 30
0.0
 10
454.3613311032313
 20
177.2062257617266
 30
0.0
 10
454.7972162647648
 20
177.6309534333283
 30
0.0
 10
455.4022669797723
 20
177.8501406132941
 30
0.0
 10
455.8274516039481
 20
177.7811493136834
 30
0.0
 10
456.0300032135992
 20
177.7669290415067
 30
0.0
  0
LINE
  5
1E3F
330
2
100
AcDbEntity
  8
0
100
AcDbLine
 10
451.9705235672709
 20
177.7669290415067
 30
0.0
 11
451.9502633904351
 21
177.9779057869683
 31
0.0
  0
LINE
  5
1E40
330
2
100
AcDbEntity
  8
0
100
AcDbLine
 10
449.500248390435
 20
178.1144875041291
 30
0.0
 11
450.0002483904351
 21
177.6144875041291
 31
0.0
  0
LINE
  5
1E41
330
2
100
AcDbEntity
  8
0
100
AcDbLine
 10
450.0002483904351
 20
177.6144875041291
 30
0.0
 11
451.0552860008147
 21
177.6144875041291
 31
0.0
  0
LINE
  5
1E42
330
2
100
AcDbEntity
  8
0
100
AcDbLine
 10
454.2877633908902
 20
176.6974875041292
 30
0.0
 11
453.7127633899801
 21
176.6974875041292
 31
0.0
  0
LINE
  5
1E43
330
2
100
AcDbEntity
  8
0
100
AcDbLine
 10
450.500263390435
 20
175.6144875041292
 30
0.0
 11
450.598199529323
 21
176.7339026939475
 31
0.0
  0
ARC
  5
1E44
330
2
100
AcDbEntity
  8
0
100
AcDbCircle
 10
451.8932526368421
 20
176.6206002283754
 30
0.0
 40
1.3
100
AcDbArc
 50
105.8808500082775
 51
174.9999999999999
  0
LINE
  5
1E45
330
2
100
AcDbEntity
  8
0
100
AcDbLine
 10
450.0002483904351
 20
175.6144875041291
 30
0.0
 11
450.0002483904351
 21
177.6144875041292
 31
0.0
  0
SPLINE
  5
1E46
330
2
100
AcDbEntity
  8
0
100
AcDbSpline
210
0.0
220
0.0
230
1.0
 70
     8
 71
     3
 72
    11
 73
     7
 74
     0
 42
0.0000000001
 43
0.0000000001
 40
0.0
 40
0.0
 40
0.0
 40
0.0
 40
0.4601364636755307
 40
1.04988694485363
 40
1.713742833862792
 40
2.320347933405154
 40
2.320347933405154
 40
2.320347933405154
 40
2.320347933405179
 10
453.7127633899801
 20
176.6974875041292
 30
0.0
 10
453.6903457328722
 20
176.852510943809
 30
0.0
 10
453.639195677639
 20
177.2062257617266
 30
0.0
 10
453.2033105161054
 20
177.6309534333283
 30
0.0
 10
452.5982598010979
 20
177.8501406132941
 30
0.0
 10
452.173075176922
 20
177.7811493136834
 30
0.0
 10
451.9705235672709
 20
177.7669290415067
 30
0.0
  0
LINE
  5
1E47
330
2
100
AcDbEntity
  8
0
100
AcDbLine
 10
455.3381722064613
 20
178.1144875041291
 30
0.0
 11
456.5002483904351
 21
178.1144875041291
 31
0.0
  0
LINE
  5
1E48
330
2
100
AcDbEntity
  8
0
100
AcDbLine
 10
456.0300032135992
 20
177.7669290415067
 30
0.0
 11
456.0502633904351
 21
177.9779057869683
 31
0.0
  0
LINE
  5
1E49
330
2
100
AcDbEntity
  8
0
100
AcDbLine
 10
457.500263390435
 20
175.6144875041292
 30
0.0
 11
457.4023272515471
 21
176.7339026939475
 31
0.0
  0
ARC
  5
1E4A
330
2
100
AcDbEntity
  8
0
100
AcDbCircle
 10
456.107274144028
 20
176.6206002283754
 30
0.0
 40
1.3
100
AcDbArc
 50
5.000000000000026
 51
74.11914999172243
  0
LINE
  5
1E4B
330
2
100
AcDbEntity
  8
0
100
AcDbLine
 10
456.5002483904351
 20
178.1144875041291
 30
0.0
 11
457.500248390435
 21
177.1144875041291
 31
0.0
  0
LINE
  5
1E4C
330
2
100
AcDbEntity
  8
0
100
AcDbLine
 10
148.1385255676802
 20
366.7235990190478
 30
0.0
 11
150.1385255676803
 21
364.7235990190478
 31
0.0
  0
LINE
  5
1E4D
330
2
100
AcDbEntity
  8
0
100
AcDbLine
 10
150.1385255676803
 20
364.7235990190478
 30
0.0
 11
148.1385255676802
 21
366.7235990190478
 31
0.0
  0
LINE
  5
1E4E
330
2
100
AcDbEntity
  8
0
100
AcDbLine
 10
142.6385255676802
 20
363.2235990190478
 30
0.0
 11
142.6385255676802
 21
366.7235990190478
 31
0.0
  0
CIRCLE
  5
1E4F
330
2
100
AcDbEntity
  8
0
100
AcDbCircle
 10
146.6387245676802
 20
363.2235990190479
 30
0.0
 40
3.500000000000028
  0
LINE
  5
1E50
330
2
100
AcDbEntity
  8
CENTER
100
AcDbLine
 10
125.1386325676802
 20
372.1128249631556
 30
0.0
 11
125.1386325676802
 21
310.9735990190479
 31
0.0
  0
LINE
  5
1E51
330
2
100
AcDbEntity
  8
0
100
AcDbLine
 10
100.1386255676802
 20
364.7235990190479
 30
0.0
 11
102.1386255676802
 21
366.7235990190479
 31
0.0
  0
CIRCLE
  5
1E52
330
2
100
AcDbEntity
  8
0
100
AcDbCircle
 10
103.6386555676801
 20
320.2235990190479
 30
0.0
 40
3.500000000000028
  0
LINE
  5
1E53
330
2
100
AcDbEntity
  8
0
100
AcDbLine
 10
102.1386255676802
 20
316.7235990190479
 30
0.0
 11
148.1385255676801
 21
316.7235990190479
 31
0.0
  0
LINE
  5
1E55
330
2
100
AcDbEntity
  8
0
100
AcDbLine
 10
102.5386265676802
 20
365.3235900190479
 30
0.0
 11
142.6385255676802
 21
365.3235900190478
 31
0.0
  0
ARC
  5
1E56
330
2
100
AcDbEntity
  8
0
100
AcDbCircle
 10
103.6386555676801
 20
320.2235990190479
 30
0.0
 40
4.0
100
AcDbArc
 50
0.0
 51
90.0
  0
ARC
  5
1E57
330
2
100
AcDbEntity
  8
0
100
AcDbCircle
 10
99.13862556768016
 20
335.2235990190479
 30
0.0
 40
1.0
100
AcDbArc
 50
180.0
 51
270.0
  0
LINE
  5
1E58
330
2
100
AcDbEntity
  8
0
100
AcDbLine
 10
100.1386255676802
 20
364.7235990190479
 30
0.0
 11
100.1386255676802
 21
318.7235990190479
 31
0.0
  0
LINE
  5
1E59
330
2
100
AcDbEntity
  8
0
100
AcDbLine
 10
101.5386195676802
 20
364.3235900190479
 30
0.0
 11
101.5386265676802
 21
324.2235990190479
 31
0.0
  0
LINE
  5
1E5A
330
2
100
AcDbEntity
  8
0
100
AcDbLine
 10
100.1386255676802
 20
318.7235990190479
 30
0.0
 11
102.1386255676802
 21
316.7235990190479
 31
0.0
  0
LINE
  5
1E5B
330
2
100
AcDbEntity
  8
0
100
AcDbLine
 10
100.1386255676802
 20
318.7235990190479
 30
0.0
 11
102.1386255676802
 21
316.7235990190479
 31
0.0
  0
ARC
  5
1E5C
330
2
100
AcDbEntity
  8
0
100
AcDbCircle
 10
101.6089555676802
 20
322.2532990190478
 30
0.0
 40
1.742199999999999
100
AcDbArc
 50
269.9986903345002
 51
0.0013096654997424
  0
LINE
  5
1E5D
330
2
100
AcDbEntity
  8
0
100
AcDbLine
 10
103.6386555676803
 20
324.2235990190479
 30
0.0
 11
100.1386555676803
 21
324.2235990190479
 31
0.0
  0
ARC
  5
1E5E
330
2
100
AcDbEntity
  8
0
100
AcDbCircle
 10
103.6386555676801
 20
320.2235990190479
 30
0.0
 40
2.049999999999998
100
AcDbArc
 50
180.0
 51
188.0619600839816
  0
ARC
  5
1E5F
330
2
100
AcDbEntity
  8
0
100
AcDbCircle
 10
103.6386555676801
 20
320.2235990190479
 30
0.0
 40
2.049999999999998
100
AcDbArc
 50
171.9380399160183
 51
180.0
  0
ARC
  5
1E60
330
2
100
AcDbEntity
  8
0
100
AcDbCircle
 10
105.6683555676803
 20
322.2532990190478
 30
0.0
 40
1.742199999999999
100
AcDbArc
 50
179.9986903345002
 51
270.0013096654932
  0
ARC
  5
1E61
330
2
100
AcDbEntity
  8
0
100
AcDbCircle
 10
103.6386555676801
 20
320.2235990190479
 30
0.0
 40
2.049999999999998
100
AcDbArc
 50
351.9380399160183
 51
0.0
  0
ARC
  5
1E62
330
2
100
AcDbEntity
  8
0
100
AcDbCircle
 10
103.6386555676801
 20
320.2235990190479
 30
0.0
 40
2.049999999999998
100
AcDbArc
 50
81.93803991601813
 51
90.0
  0
ARC
  5
1E63
330
2
100
AcDbEntity
  8
0
100
AcDbCircle
 10
103.6386555676801
 20
320.2235990190479
 30
0.0
 40
2.049999999999998
100
AcDbArc
 50
0.0
 51
8.061960083981649
  0
ARC
  5
1E64
330
2
100
AcDbEntity
  8
0
100
AcDbCircle
 10
103.6386555676801
 20
320.2235990190479
 30
0.0
 40
2.049999999999998
100
AcDbArc
 50
90.0
 51
98.06196008398188
  0
ARC
  5
1E65
330
2
100
AcDbEntity
  8
0
100
AcDbCircle
 10
103.6386555676801
 20
320.2235990190479
 30
0.0
 40
2.049999999999998
100
AcDbArc
 50
270.0
 51
278.0619600839818
  0
ARC
  5
1E66
330
2
100
AcDbEntity
  8
0
100
AcDbCircle
 10
103.6386555676801
 20
320.2235990190479
 30
0.0
 40
2.049999999999998
100
AcDbArc
 50
261.9380399160181
 51
270.0
  0
ARC
  5
1E67
330
2
100
AcDbEntity
  8
0
100
AcDbCircle
 10
101.6089555676802
 20
318.1938990190479
 30
0.0
 40
1.742199999999999
100
AcDbArc
 50
359.9986903345002
 51
90.00130966549322
  0
ARC
  5
1E68
330
2
100
AcDbEntity
  8
0
100
AcDbCircle
 10
105.6683555676803
 20
318.1938990190479
 30
0.0
 40
1.742199999999999
100
AcDbArc
 50
89.99869033450025
 51
180.0013096654997
  0
LINE
  5
1E69
330
2
100
AcDbEntity
  8
0
100
AcDbLine
 10
94.63862556768026
 20
343.7235990190479
 30
0.0
 11
94.63862556768026
 21
339.7235990190479
 31
0.0
  0
LINE
  5
1E6A
330
2
100
AcDbEntity
  8
0
100
AcDbLine
 10
98.13862556768027
 20
335.2235990190479
 30
0.0
 11
98.13862556768027
 21
348.2235990190479
 31
0.0
  0
LINE
  5
1E6B
330
2
100
AcDbEntity
  8
0
100
AcDbLine
 10
99.13862556768027
 20
334.2235990190479
 30
0.0
 11
100.1386255676802
 21
334.2235990190479
 31
0.0
  0
LINE
  5
1E6C
330
2
100
AcDbEntity
  8
0
100
AcDbLine
 10
98.13862556768027
 20
336.2235990190479
 30
0.0
 11
94.63862556768026
 21
339.7235990190479
 31
0.0
  0
LINE
  5
1E6D
330
2
100
AcDbEntity
  8
0
100
AcDbLine
 10
99.13862556768027
 20
349.2235990190479
 30
0.0
 11
100.1386255676802
 21
349.2235990190479
 31
0.0
  0
LINE
  5
1E6E
330
2
100
AcDbEntity
  8
0
100
AcDbLine
 10
94.63862556768026
 20
343.7235990190479
 30
0.0
 11
98.13862556768027
 21
347.2235990190479
 31
0.0
  0
ARC
  5
1E6F
330
2
100
AcDbEntity
  8
0
100
AcDbCircle
 10
99.13864056768023
 20
348.2235990190479
 30
0.0
 40
1.0
100
AcDbArc
 50
90.0
 51
180.0
  0
LINE
  5
1E70
330
2
100
AcDbEntity
  8
0
100
AcDbLine
 10
101.5386195676802
 20
364.3235900190479
 30
0.0
 11
102.5386265676802
 21
365.3235900190479
 31
0.0
  0
LINE
  5
1E71
330
2
100
AcDbEntity
  8
0
100
AcDbLine
 10
150.1385255676803
 20
364.7235990190478
 30
0.0
 11
150.1385255676801
 21
318.7235990190479
 31
0.0
  0
LINE
  5
1E72
330
2
100
AcDbEntity
  8
0
100
AcDbLine
 10
148.7387305676802
 20
319.1235930190479
 30
0.0
 11
148.7387305676802
 21
359.2235990190478
 31
0.0
  0
LINE
  5
1E73
330
2
100
AcDbEntity
  8
0
100
AcDbLine
 10
147.7387305676802
 20
318.1235930190479
 30
0.0
 11
107.6386255676802
 21
318.1235930190479
 31
0.0
  0
LINE
  5
1E74
330
2
100
AcDbEntity
  8
0
100
AcDbLine
 10
107.6386255676802
 20
320.2235990190479
 30
0.0
 11
107.6386255676802
 21
316.7237980190479
 31
0.0
  0
LINE
  5
1E75
330
2
100
AcDbEntity
  8
0
100
AcDbLine
 10
150.1387245676802
 20
318.7235990190479
 30
0.0
 11
148.1385255676801
 21
316.7235990190479
 31
0.0
  0
LINE
  5
1E76
330
2
100
AcDbEntity
  8
0
100
AcDbLine
 10
150.1385255676801
 20
318.7235990190479
 30
0.0
 11
148.1385255676801
 21
316.7235990190479
 31
0.0
  0
LINE
  5
1E77
330
2
100
AcDbEntity
  8
0
100
AcDbLine
 10
150.1385255676801
 20
318.7235990190479
 30
0.0
 11
148.1385255676801
 21
316.7235990190479
 31
0.0
  0
LINE
  5
1E78
330
2
100
AcDbEntity
  8
0
100
AcDbLine
 10
147.7387305676802
 20
318.1235930190479
 30
0.0
 11
148.7387305676802
 21
319.1235930190479
 31
0.0
  0
ARC
  5
1E79
330
2
100
AcDbEntity
  8
0
100
AcDbCircle
 10
146.6387245676802
 20
363.2235990190479
 30
0.0
 40
4.0
100
AcDbArc
 50
180.0
 51
270.0
  0
ARC
  5
1E7A
330
2
100
AcDbEntity
  8
0
100
AcDbCircle
 10
146.6387245676802
 20
363.2235990190479
 30
0.0
 40
2.049999999999998
100
AcDbArc
 50
171.9380399160183
 51
180.0
  0
ARC
  5
1E7B
330
2
100
AcDbEntity
  8
0
100
AcDbCircle
 10
148.6684245676804
 20
365.2532990190478
 30
0.0
 40
1.742199999999999
100
AcDbArc
 50
179.9986903345002
 51
270.0013096654932
  0
ARC
  5
1E7C
330
2
100
AcDbEntity
  8
0
100
AcDbCircle
 10
146.6387245676802
 20
363.2235990190479
 30
0.0
 40
2.049999999999998
100
AcDbArc
 50
351.9380399160183
 51
0.0
  0
ARC
  5
1E7D
330
2
100
AcDbEntity
  8
0
100
AcDbCircle
 10
146.6387245676802
 20
363.2235990190479
 30
0.0
 40
2.049999999999998
100
AcDbArc
 50
0.0
 51
8.061960083981649
  0
ARC
  5
1E7E
330
2
100
AcDbEntity
  8
0
100
AcDbCircle
 10
146.6387245676802
 20
363.2235990190479
 30
0.0
 40
2.049999999999998
100
AcDbArc
 50
81.93803991601813
 51
90.0
  0
ARC
  5
1E7F
330
2
100
AcDbEntity
  8
0
100
AcDbCircle
 10
146.6387245676802
 20
363.2235990190479
 30
0.0
 40
2.049999999999998
100
AcDbArc
 50
90.0
 51
98.06196008398188
  0
ARC
  5
1E80
330
2
100
AcDbEntity
  8
0
100
AcDbCircle
 10
146.6387245676802
 20
363.2235990190479
 30
0.0
 40
2.049999999999998
100
AcDbArc
 50
270.0
 51
278.0619600839818
  0
ARC
  5
1E81
330
2
100
AcDbEntity
  8
0
100
AcDbCircle
 10
146.6387245676802
 20
363.2235990190479
 30
0.0
 40
2.049999999999998
100
AcDbArc
 50
261.9380399160181
 51
270.0
  0
LINE
  5
1E82
330
2
100
AcDbEntity
  8
0
100
AcDbLine
 10
146.6385255676802
 20
359.2235990190478
 30
0.0
 11
150.1385255676803
 21
359.2235990190478
 31
0.0
  0
ARC
  5
1E83
330
2
100
AcDbEntity
  8
0
100
AcDbCircle
 10
144.6090245676803
 20
361.1938990190478
 30
0.0
 40
1.742199999999999
100
AcDbArc
 50
359.9986903345002
 51
90.00130966549322
  0
ARC
  5
1E84
330
2
100
AcDbEntity
  8
0
100
AcDbCircle
 10
148.6684245676804
 20
361.1938990190478
 30
0.0
 40
1.742199999999999
100
AcDbArc
 50
89.99869033450025
 51
180.0013096654997
  0
ARC
  5
1E85
330
2
100
AcDbEntity
  8
0
100
AcDbCircle
 10
144.6090245676803
 20
365.2532990190478
 30
0.0
 40
1.742199999999999
100
AcDbArc
 50
269.9986903345002
 51
0.0013096654997424
  0
ARC
  5
1E86
330
2
100
AcDbEntity
  8
0
100
AcDbCircle
 10
146.6387245676802
 20
363.2235990190479
 30
0.0
 40
2.049999999999998
100
AcDbArc
 50
180.0
 51
188.0619600839816
  0
LINE
  5
1E87
330
2
100
AcDbEntity
  8
0
100
AcDbLine
 10
102.1386255676802
 20
366.7235990190479
 30
0.0
 11
148.1385255676802
 21
366.7235990190478
 31
0.0
  0
LINE
  5
1F6D
330
2
100
AcDbEntity
  8
0
100
AcDbLine
 10
99.63864456768035
 20
334.2235990190479
 30
0.0
 11
99.63864456768034
 21
294.7235840190479
 31
0.0
  0
ENDSEC
  0
SECTION
  2
OBJECTS
  0
DICTIONARY
  5
7
330
0
100
AcDbDictionary
  3
ACAD_GROUP
350
75
  3
ACAD_LAYOUT
350
61
  3
ACAD_MLINESTYLE
350
76
  3
ACAD_PLOTSETTINGS
350
77
  3
ACAD_PLOTSTYLENAME
350
6
  3
ACADDIM
350
480
  3
ACDBHEADERROUNDTRIPXREC
350
2005
  3
ACDBVARIABLEDICTIONARY
350
102
  3
DWGPROPS
350
3D2
  0
DICTIONARY
  5
2026
330
2
100
AcDbDictionary
280
     1
  3
ACAD_LAYOUTSELFREF
360
2027
  0
DICTIONARY
  5
2028
330
1FFF
100
AcDbDictionary
280
     1
  3
ACAD_LAYOUTSELFREF
360
2029
  0
DICTIONARY
  5
75
102
{ACAD_REACTORS
330
7
102
}
330
7
100
AcDbDictionary
  0
DICTIONARY
  5
61
102
{ACAD_REACTORS
330
7
102
}
330
7
100
AcDbDictionary
  0
DICTIONARY
  5
76
102
{ACAD_REACTORS
330
7
102
}
330
7
100
AcDbDictionary
  3
STANDARD
350
78
  0
DICTIONARY
  5
77
102
{ACAD_REACTORS
330
7
102
}
330
7
100
AcDbDictionary
  0
ACDBDICTIONARYWDFLT
  5
6
102
{ACAD_REACTORS
330
7
102
}
330
7
100
AcDbDictionary
281
     1
  3
Normal
350
5
100
AcDbDictionaryWithDefault
340
5
  0
XRECORD
  5
480
102
{ACAD_REACTORS
330
7
102
}
330
7
100
AcDbXrecord
 90
   990106
  3

 60
     0
 61
     0
 62
     1
 63
     3
 64
     1
 65
     0
 66
     0
 67
     3
 68
     1
 69
     0
 70
     0
 71
     0
 72
     0
 40
0.0
170
     2
340
0
  0
DICTIONARY
  5
2005
102
{ACAD_REACTORS
330
7
102
}
330
7
100
AcDbDictionary
  3
CEPSNTYPE
350
200F
  3
DIMSTYLEDATA
350
2013
  3
FINGERPRINTGUID
350
2010
  3
HYPERLINKBASE
350
2008
  3
INSUNITS
350
200E
  3
LAYOUTDICT
350
200A
  3
LWETCUNION
350
200D
  3
PLOTSETDICT
350
200B
  3
PLOTSTYLNAMDICT
350
200C
  3
PSVPSCALE
350
2012
  3
PUCSBASE
350
2016
  3
PUCSORGBACK
350
201C
  3
PUCSORGBOTTOM
350
2018
  3
PUCSORGFRONT
350
201B
  3
PUCSORGLEFT
350
2019
  3
PUCSORGRIGHT
350
201A
  3
PUCSORGTOP
350
2017
  3
PUCSORTHOREF
350
2014
  3
PUCSORTHOVIEW
350
2015
  3
STYLESHEET
350
2009
  3
TSTACKALIGN
350
2006
  3
TSTACKSIZE
350
2007
  3
UCSBASE
350
201F
  3
UCSORGBACK
350
2025
  3
UCSORGBOTTOM
350
2021
  3
UCSORGFRONT
350
2024
  3
UCSORGLEFT
350
2022
  3
UCSORGRIGHT
350
2023
  3
UCSORGTOP
350
2020
  3
UCSORTHOREF
350
201D
  3
UCSORTHOVIEW
350
201E
  3
VERSIONGUID
350
2011
  0
DICTIONARY
  5
102
102
{ACAD_REACTORS
330
7
102
}
330
7
100
AcDbDictionary
  3
DIMASSOC
350
103
  0
XRECORD
  5
3D2
102
{ACAD_REACTORS
330
7
102
}
330
7
100
AcDbXrecord
  1
DWGPROPS COOKIE
  2

  3

  4

  6

  7

  8

  9

300
=
301
=
302
=
303
=
304
=
305
=
306
=
307
=
308
=
309
=
 40
0.5353330671296296
 41
2452052.431989363
 42
2453406.550756377
  1

 90
        0
  0
XRECORD
  5
2027
102
{ACAD_REACTORS
330
2026
102
}
330
2026
100
AcDbXrecord
340
2
  0
XRECORD
  5
2029
102
{ACAD_REACTORS
330
2028
102
}
330
2028
100
AcDbXrecord
340
1FFF
  0
MLINESTYLE
  5
78
102
{ACAD_REACTORS
330
76
102
}
330
76
100
AcDbMlineStyle
  2
STANDARD
 70
     0
  3

 62
     0
 51
90.0
 52
90.0
 71
     2
 49
0.5
 62
   256
  6
BYLAYER
 49
-0.5
 62
   256
  6
BYLAYER
  0
ACDBPLACEHOLDER
  5
5
102
{ACAD_REACTORS
330
6
102
}
330
6
100
AcDbPlaceHolder
280
     0
  0
XRECORD
  5
200F
102
{ACAD_REACTORS
330
2005
102
}
330
2005
100
AcDbXrecord
 90
        0
  0
XRECORD
  5
2013
102
{ACAD_REACTORS
330
2005
102
}
330
2005
100
AcDbXrecord
1000
DSTYLE
1002
{
1070
   179
 70
     2
1070
   277
 70
     6
1002
}
  0
XRECORD
  5
2010
102
{ACAD_REACTORS
330
2005
102
}
330
2005
100
AcDbXrecord
  1
{6385560B-F4B1-4644-A7C2-A3E32AC3D232}
  0
XRECORD
  5
2008
102
{ACAD_REACTORS
330
2005
102
}
330
2005
100
AcDbXrecord
  1

  0
XRECORD
  5
200E
102
{ACAD_REACTORS
330
2005
102
}
330
2005
100
AcDbXrecord
 90
        0
  0
XRECORD
  5
200A
102
{ACAD_REACTORS
330
2005
102
}
330
2005
100
AcDbXrecord
340
61
  0
XRECORD
  5
200D
102
{ACAD_REACTORS
330
2005
102
}
330
2005
100
AcDbXrecord
 90
    10781
  0
XRECORD
  5
200B
102
{ACAD_REACTORS
330
2005
102
}
330
2005
100
AcDbXrecord
340
77
  0
XRECORD
  5
200C
102
{ACAD_REACTORS
330
2005
102
}
330
2005
100
AcDbXrecord
340
6
  0
XRECORD
  5
2012
102
{ACAD_REACTORS
330
2005
102
}
330
2005
100
AcDbXrecord
 40
0.0
  0
XRECORD
  5
2016
102
{ACAD_REACTORS
330
2005
102
}
330
2005
100
AcDbXrecord
340
0
  0
XRECORD
  5
201C
102
{ACAD_REACTORS
330
2005
102
}
330
2005
100
AcDbXrecord
 10
0.0
 20
0.0
 30
0.0
  0
XRECORD
  5
2018
102
{ACAD_REACTORS
330
2005
102
}
330
2005
100
AcDbXrecord
 10
0.0
 20
0.0
 30
0.0
  0
XRECORD
  5
201B
102
{ACAD_REACTORS
330
2005
102
}
330
2005
100
AcDbXrecord
 10
0.0
 20
0.0
 30
0.0
  0
XRECORD
  5
2019
102
{ACAD_REACTORS
330
2005
102
}
330
2005
100
AcDbXrecord
 10
0.0
 20
0.0
 30
0.0
  0
XRECORD
  5
201A
102
{ACAD_REACTORS
330
2005
102
}
330
2005
100
AcDbXrecord
 10
0.0
 20
0.0
 30
0.0
  0
XRECORD
  5
2017
102
{ACAD_REACTORS
330
2005
102
}
330
2005
100
AcDbXrecord
 10
0.0
 20
0.0
 30
0.0
  0
XRECORD
  5
2014
102
{ACAD_REACTORS
330
2005
102
}
330
2005
100
AcDbXrecord
340
0
  0
XRECORD
  5
2015
102
{ACAD_REACTORS
330
2005
102
}
330
2005
100
AcDbXrecord
 70
     0
  0
XRECORD
  5
2009
102
{ACAD_REACTORS
330
2005
102
}
330
2005
100
AcDbXrecord
  1
Sekkei.ctb
  0
XRECORD
  5
2006
102
{ACAD_REACTORS
330
2005
102
}
330
2005
100
AcDbXrecord
 90
        1
  0
XRECORD
  5
2007
102
{ACAD_REACTORS
330
2005
102
}
330
2005
100
AcDbXrecord
 90
       70
  0
XRECORD
  5
201F
102
{ACAD_REACTORS
330
2005
102
}
330
2005
100
AcDbXrecord
340
0
  0
XRECORD
  5
2025
102
{ACAD_REACTORS
330
2005
102
}
330
2005
100
AcDbXrecord
 10
0.0
 20
0.0
 30
0.0
  0
XRECORD
  5
2021
102
{ACAD_REACTORS
330
2005
102
}
330
2005
100
AcDbXrecord
 10
0.0
 20
0.0
 30
0.0
  0
XRECORD
  5
2024
102
{ACAD_REACTORS
330
2005
102
}
330
2005
100
AcDbXrecord
 10
0.0
 20
0.0
 30
0.0
  0
XRECORD
  5
2022
102
{ACAD_REACTORS
330
2005
102
}
330
2005
100
AcDbXrecord
 10
0.0
 20
0.0
 30
0.0
  0
XRECORD
  5
2023
102
{ACAD_REACTORS
330
2005
102
}
330
2005
100
AcDbXrecord
 10
0.0
 20
0.0
 30
0.0
  0
XRECORD
  5
2020
102
{ACAD_REACTORS
330
2005
102
}
330
2005
100
AcDbXrecord
 10
0.0
 20
0.0
 30
0.0
  0
XRECORD
  5
201D
102
{ACAD_REACTORS
330
2005
102
}
330
2005
100
AcDbXrecord
340
0
  0
XRECORD
  5
201E
102
{ACAD_REACTORS
330
2005
102
}
330
2005
100
AcDbXrecord
 70
     0
  0
XRECORD
  5
2011
102
{ACAD_REACTORS
330
2005
102
}
330
2005
100
AcDbXrecord
  1
{CE11BE4A-E781-41E6-AE92-AA45AB7D15CF}
  0
DICTIONARYVAR
  5
103
102
{ACAD_REACTORS
330
102
102
}
330
102
100
DictionaryVariables
280
     0
  1
1
  0
ENDSEC
  0
EOF
