  0
SECTION
  2
HEADER
  9
$CLAYER
  8
1
  9
$LTSCALE
 40
3.0
  0
ENDSEC
  0
SECTION
  2
TABLES
  0
TABLE
  2
LTYPE
 70
     4
  0
LTYPE
  2
CONTINUOUS
  3
solid line
 70
    64
 72
    65
 73
     0
 40
0.0
  0
LTYPE
  2
DASHED
  3
__ __ __ __ __ __ __ __ __ __ __ __ __ __ __
 70
    64
 72
    65
 73
     2
 40
0.75
 49
0.5
 49
-0.25
  0
LTYPE
  2
CENTER
  3
____ _ ____ _ ____ _ ____ _ ____ _ ____ _ ____
 70
    64
 72
    65
 73
     4
 40
2.0
 49
1.25
 49
-0.25
 49
0.25
 49
-0.25
  0
LTYPE
  2
PHANTOM
  3
_____ _ _ _____ _ _ _____ _ _ _____ _ _ ____
 70
    64
 72
    65
 73
     6
 40
2.5
 49
1.25
 49
-0.25
 49
0.25
 49
-0.25
 49
0.25
 49
-0.25
  0
ENDTAB
  0
TABLE
  2
LAYER
 70
     1
  0
LAYER
  2
0
 70
    64
 62
     7
  6
CONTINUOUS
  0
ENDTAB
  0
TABLE
  2
STYLE
 70
     1
  0
STYLE
  2
STANDARD
 70
     0
 40
0.000000
 41
1.000000
 50
0.000000
 71
     0
 42
3.000000
  3
txt
  4
BIGFONT
  0
ENDTAB
  0
ENDSEC
  0
SECTION
  2
BLOCKS
  0
ENDSEC
  0
SECTION
  2
ENTITIES
  0
LINE
  8
0
  6
CENTER
 10
443.960632
 20
84.414688
 11
332.119781
 21
84.414688
  0
LINE
  8
0
  6
CONTINUOUS
 10
530.869812
 20
111.414665
 11
416.869781
 21
111.414665
  0
LINE
  8
0
  6
CONTINUOUS
 10
530.869812
 20
35.414707
 11
416.869781
 21
35.414707
  0
LINE
  8
0
  6
CONTINUOUS
 10
530.869812
 20
103.663666
 11
424.869781
 21
103.663666
  0
LINE
  8
0
  6
CONTINUOUS
 10
530.869812
 20
43.165707
 11
424.869781
 21
43.165707
  0
LINE
  8
0
  6
CONTINUOUS
 10
424.869781
 20
109.414665
 11
424.869781
 21
37.414688
  0
ARC
  8
0
  6
CONTINUOUS
 10
422.869781
 20
109.414688
 40
2.000000
 50
0.000000
 51
90.000000
  0
ARC
  8
0
  6
CONTINUOUS
 10
422.869781
 20
37.414707
 40
2.000000
 50
-90.000000
 51
0.000000
  0
LINE
  8
0
  6
CENTER
 10
73.792503
 20
-5.710333
 11
73.792503
 21
173.839691
  0
LINE
  8
0
  6
CENTER
 10
3.567500
 20
84.414688
 11
142.692505
 21
84.414688
  0
LINE
  8
0
  6
CENTER
 10
14.795469
 20
114.914688
 11
177.042496
 21
114.914688
  0
LINE
  8
0
  6
CONTINUOUS
 10
15.792500
 20
9.914687
 11
48.792500
 21
9.914687
  0
LINE
  8
0
  6
CONTINUOUS
 10
15.792500
 20
20.541086
 11
15.792500
 21
9.914687
  0
LINE
  8
0
  6
CONTINUOUS
 10
131.792496
 20
20.541086
 11
131.792496
 21
9.914687
  0
LINE
  8
0
  6
CONTINUOUS
 10
17.792500
 20
21.914686
 11
38.792500
 21
21.914686
  0
LINE
  8
0
  6
CONTINUOUS
 10
129.792496
 20
21.914686
 11
108.792503
 21
21.914686
  0
LINE
  8
0
  6
CONTINUOUS
 10
41.792500
 20
33.288288
 11
41.792500
 21
157.390610
  0
LINE
  8
0
  6
CONTINUOUS
 10
105.792503
 20
33.288288
 11
105.792503
 21
157.390961
  0
LINE
  8
0
  6
CONTINUOUS
 10
103.827301
 20
159.390671
 11
73.792503
 21
159.914688
  0
LINE
  8
0
  6
CONTINUOUS
 10
43.757500
 20
159.390320
 11
73.792503
 21
159.914688
  0
ARC
  8
0
  6
CONTINUOUS
 10
43.792500
 20
157.390625
 40
2.000000
 50
91.000580
 51
180.000000
  0
ARC
  8
0
  6
CONTINUOUS
 10
103.792503
 20
157.390961
 40
2.000000
 50
0.000000
 51
89.000519
  0
LINE
  8
0
  6
CONTINUOUS
 10
105.792503
 20
24.914686
 11
105.792503
 21
9.914687
  0
ARC
  8
0
  6
CONTINUOUS
 10
108.792503
 20
24.914686
 40
3.000000
 50
180.000000
 51
270.000000
  0
LINE
  8
0
  6
CONTINUOUS
 10
41.792500
 20
24.914686
 11
41.792500
 21
9.914687
  0
ARC
  8
0
  6
CONTINUOUS
 10
38.792500
 20
24.914667
 40
3.000000
 50
-90.000000
 51
0.000000
  0
ARC
  8
0
  6
CONTINUOUS
 10
17.792500
 20
19.914686
 40
2.000000
 50
90.000000
 51
180.000000
  0
ARC
  8
0
  6
CONTINUOUS
 10
129.792496
 20
19.914686
 40
2.000000
 50
0.000000
 51
90.000000
  0
LINE
  8
0
  6
CENTER
 10
28.792500
 20
26.204687
 11
28.792500
 21
5.804688
  0
LINE
  8
0
  6
CENTER
 10
118.792503
 20
27.224688
 11
118.792503
 21
5.294687
  0
LINE
  8
0
  6
CONTINUOUS
 10
40.510502
 20
31.421608
 11
17.074499
 21
22.407787
  0
ARC
  8
0
  6
CONTINUOUS
 10
17.792500
 20
20.541107
 40
2.000000
 50
111.037903
 51
180.000000
  0
LINE
  8
0
  6
CONTINUOUS
 10
41.792500
 20
33.288288
 11
41.792500
 21
24.914686
  0
ARC
  8
0
  6
CONTINUOUS
 10
39.792500
 20
33.288288
 40
2.000000
 50
-68.962189
 51
0.000000
  0
LINE
  8
0
  6
CONTINUOUS
 10
107.074501
 20
31.421589
 11
130.510498
 21
22.407787
  0
ARC
  8
0
  6
CONTINUOUS
 10
129.792496
 20
20.541086
 40
2.000000
 50
0.000000
 51
68.962646
  0
LINE
  8
0
  6
CONTINUOUS
 10
105.792503
 20
33.288288
 11
105.792503
 21
24.914686
  0
ARC
  8
0
  6
CONTINUOUS
 10
107.792503
 20
33.288307
 40
2.000000
 50
180.000000
 51
248.962799
  0
LINE
  8
0
  6
CONTINUOUS
 10
25.792500
 20
89.721840
 11
25.792500
 21
140.107529
  0
LINE
  8
0
  6
CONTINUOUS
 10
121.792503
 20
89.721840
 11
121.792503
 21
140.107529
  0
LINE
  8
0
  6
CONTINUOUS
 10
111.792503
 20
56.719528
 11
111.792503
 21
116.984688
  0
LINE
  8
0
  6
CONTINUOUS
 10
35.792500
 20
56.719528
 11
35.792500
 21
116.984688
  0
LINE
  8
0
  6
CONTINUOUS
 10
119.562698
 20
143.006989
 11
108.022301
 21
146.072388
  0
LINE
  8
0
  6
CONTINUOUS
 10
119.562698
 20
86.822388
 11
114.022301
 21
85.350739
  0
LINE
  8
0
  6
CONTINUOUS
 10
109.565498
 20
53.820827
 11
108.019501
 21
53.408546
  0
LINE
  8
0
  6
CONTINUOUS
 10
38.019501
 20
53.820808
 11
39.565498
 21
53.408546
  0
LINE
  8
0
  6
CONTINUOUS
 10
28.022301
 20
86.822380
 11
33.562698
 21
85.350739
  0
LINE
  8
0
  6
CONTINUOUS
 10
28.022301
 20
143.006989
 11
39.562698
 21
146.072388
  0
ARC
  8
0
  6
CONTINUOUS
 10
28.792500
 20
140.107544
 40
3.000000
 50
104.876099
 51
180.000000
  0
ARC
  8
0
  6
CONTINUOUS
 10
28.792500
 20
89.721855
 40
3.000000
 50
180.000000
 51
255.124603
  0
ARC
  8
0
  6
CONTINUOUS
 10
118.792503
 20
140.107529
 40
3.000000
 50
0.000000
 51
75.124413
  0
ARC
  8
0
  6
CONTINUOUS
 10
118.792503
 20
89.721832
 40
3.000000
 50
-75.124207
 51
0.000000
  0
ARC
  8
0
  6
CONTINUOUS
 10
38.792500
 20
56.719547
 40
3.000000
 50
180.000000
 51
255.069000
  0
ARC
  8
0
  6
CONTINUOUS
 10
108.792503
 20
56.719528
 40
3.000000
 50
-75.068420
 51
0.000000
  0
ARC
  8
0
  6
CONTINUOUS
 10
108.792503
 20
148.971863
 40
3.000000
 50
180.000000
 51
255.124603
  0
ARC
  8
0
  6
CONTINUOUS
 10
114.792503
 20
82.451294
 40
3.000000
 50
104.876099
 51
180.000000
  0
ARC
  8
0
  6
CONTINUOUS
 10
108.792503
 20
50.509869
 40
3.000000
 50
104.931801
 51
180.000000
  0
ARC
  8
0
  6
CONTINUOUS
 10
38.792500
 20
50.509850
 40
3.000000
 50
0.000000
 51
75.068779
  0
ARC
  8
0
  6
CONTINUOUS
 10
32.792500
 20
82.451271
 40
3.000000
 50
0.000000
 51
75.124496
  0
ARC
  8
0
  6
CONTINUOUS
 10
38.792500
 20
148.971832
 40
3.000000
 50
-75.124153
 51
0.000000
  0
LINE
  8
0
  6
DASHED
 10
23.292500
 20
21.914686
 11
23.292500
 21
9.914687
  0
LINE
  8
0
  6
DASHED
 10
34.292500
 20
21.914686
 11
34.292500
 21
9.914687
  0
LINE
  8
0
  6
DASHED
 10
113.292503
 20
21.914686
 11
113.292503
 21
9.914687
  0
LINE
  8
0
  6
DASHED
 10
124.292503
 20
21.914686
 11
124.292503
 21
9.914687
  0
LINE
  8
0
  6
CONTINUOUS
 10
44.022499
 20
136.914688
 11
103.692497
 21
136.914688
  0
LINE
  8
0
  6
CONTINUOUS
 10
26.292500
 20
41.914688
 11
26.292500
 21
50.966026
  0
LINE
  8
0
  6
CONTINUOUS
 10
121.292503
 20
41.914688
 11
121.292503
 21
50.966026
  0
LINE
  8
0
  6
CONTINUOUS
 10
31.292500
 20
36.914688
 11
40.323700
 21
36.914688
  0
LINE
  8
0
  6
CONTINUOUS
 10
116.292503
 20
36.914688
 11
107.241096
 21
36.914688
  0
ARC
  8
0
  6
CONTINUOUS
 10
73.792503
 20
84.414688
 40
57.250000
 50
-32.501888
 51
19.914110
  0
ARC
  8
0
  6
CONTINUOUS
 10
73.792503
 20
84.414688
 40
57.250000
 50
146.974487
 51
212.501907
  0
ARC
  8
0
  6
CONTINUOUS
 10
31.292500
 20
41.914688
 40
5.000000
 50
180.000000
 51
270.000000
  0
ARC
  8
0
  6
CONTINUOUS
 10
116.292503
 20
41.914688
 40
5.000000
 50
-90.000000
 51
0.000000
  0
ARC
  8
0
  6
CONTINUOUS
 10
40.343899
 20
31.914686
 40
5.000000
 50
73.928284
 51
90.230461
  0
ARC
  8
0
  6
CONTINUOUS
 10
107.241096
 20
31.914686
 40
5.000000
 50
90.000000
 51
106.071800
  0
ARC
  8
0
  6
CONTINUOUS
 10
21.292500
 20
50.966026
 40
5.000000
 50
0.000000
 51
32.499691
  0
ARC
  8
0
  6
CONTINUOUS
 10
126.292503
 20
50.966026
 40
5.000000
 50
147.498306
 51
180.000000
  0
LINE
  8
0
  6
CONTINUOUS
 10
107.792503
 20
35.414688
 11
105.792503
 21
35.414688
  0
LINE
  8
0
  6
CONTINUOUS
 10
39.792500
 20
35.414688
 11
41.792500
 21
35.414688
  0
ARC
  8
0
  6
CONTINUOUS
 10
107.792503
 20
39.414688
 40
4.000000
 50
270.000000
 51
322.311005
  0
ARC
  8
0
  6
CONTINUOUS
 10
39.792500
 20
39.414688
 40
4.000000
 50
218.645996
 51
270.000000
  0
LINE
  8
0
  6
CONTINUOUS
 10
163.792496
 20
103.914688
 11
163.792496
 21
125.914688
  0
LINE
  8
0
  6
CONTINUOUS
 10
123.792503
 20
125.914688
 11
163.792496
 21
125.914688
  0
LINE
  8
0
  6
CONTINUOUS
 10
123.792503
 20
103.914688
 11
163.792496
 21
103.914688
  0
LINE
  8
0
  6
CONTINUOUS
 10
123.792503
 20
127.414688
 11
123.792503
 21
102.414688
  0
LINE
  8
0
  6
CONTINUOUS
 10
121.792503
 20
127.414688
 11
123.792503
 21
127.414688
  0
LINE
  8
0
  6
CONTINUOUS
 10
121.792503
 20
102.414688
 11
123.792503
 21
102.414688
  0
ARC
  8
0
  6
CONTINUOUS
 10
131.792496
 20
114.914688
 40
3.000000
 50
90.000000
 51
270.000000
  0
LINE
  8
0
  6
CONTINUOUS
 10
131.792496
 20
117.914688
 11
163.792496
 21
117.914688
  0
LINE
  8
0
  6
CONTINUOUS
 10
131.792496
 20
111.914688
 11
163.792496
 21
111.914688
  0
LINE
  8
0
  6
CENTER
 10
601.510010
 20
73.414688
 11
332.119781
 21
73.414688
  0
LINE
  8
0
  6
CONTINUOUS
 10
375.282532
 20
112.866943
 11
416.869781
 21
111.414688
  0
LINE
  8
0
  6
CONTINUOUS
 10
364.869781
 20
33.598808
 11
416.869781
 21
35.414688
  0
LINE
  8
0
  6
CONTINUOUS
 10
372.869781
 20
140.914688
 11
372.869781
 21
113.914688
  0
LINE
  8
0
  6
CONTINUOUS
 10
371.869781
 20
141.914688
 11
364.869751
 21
141.914688
  0
LINE
  8
0
  6
CONTINUOUS
 10
370.369781
 20
26.914686
 11
364.869781
 21
26.914686
  0
LINE
  8
0
  6
CONTINUOUS
 10
372.869781
 20
114.414688
 11
372.869781
 21
43.502029
  0
LINE
  8
0
  6
CONTINUOUS
 10
416.869781
 20
111.414688
 11
416.869781
 21
35.414688
  0
LINE
  8
0
  6
CONTINUOUS
 10
374.282898
 20
124.732491
 11
400.226349
 21
112.208076
  0
LINE
  8
0
  6
CENTER
 10
300.119781
 20
206.690704
 11
300.119781
 21
371.272491
  0
LINE
  8
0
  6
CENTER
 10
599.794983
 20
302.892395
 11
230.780319
 21
302.892395
  0
LINE
  8
0
  6
CONTINUOUS
 10
351.337799
 20
270.892395
 11
252.591827
 21
270.892395
  0
LINE
  8
0
  6
CONTINUOUS
 10
351.337799
 20
334.892395
 11
252.591827
 21
334.892395
  0
LINE
  8
0
  6
CONTINUOUS
 10
257.181671
 20
244.892395
 11
286.619781
 21
244.892395
  0
LINE
  8
0
  6
CONTINUOUS
 10
343.057892
 20
360.892395
 11
300.119781
 21
360.892395
  0
LINE
  8
0
  6
CONTINUOUS
 10
247.119781
 20
302.892395
 11
247.678329
 21
270.892395
  0
LINE
  8
0
  6
CONTINUOUS
 10
252.287704
 20
248.868164
 11
247.678329
 21
270.892395
  0
ARC
  8
0
  6
CONTINUOUS
 10
257.181671
 20
249.892395
 40
5.000000
 50
191.820602
 51
270.000000
  0
LINE
  8
0
  6
CONTINUOUS
 10
247.119781
 20
302.892395
 11
247.678329
 21
334.892395
  0
LINE
  8
0
  6
CONTINUOUS
 10
252.287704
 20
356.916626
 11
247.678329
 21
334.892395
  0
ARC
  8
0
  6
CONTINUOUS
 10
257.181671
 20
355.892395
 40
5.000000
 50
90.000000
 51
168.179398
  0
LINE
  8
0
  6
CONTINUOUS
 10
280.119781
 20
332.892395
 11
280.119781
 21
272.892395
  0
LINE
  8
0
  6
CONTINUOUS
 10
320.119781
 20
332.892395
 11
320.119781
 21
272.892395
  0
ARC
  8
0
  6
CONTINUOUS
 10
252.591827
 20
275.892395
 40
5.000000
 50
181.000000
 51
270.000000
  0
ARC
  8
0
  6
CONTINUOUS
 10
252.591827
 20
329.892395
 40
5.000000
 50
90.000000
 51
179.000000
  0
LINE
  8
0
  6
CONTINUOUS
 10
356.793274
 20
357.220917
 11
356.336090
 21
339.761505
  0
LINE
  8
0
  6
CONTINUOUS
 10
364.869781
 20
245.392395
 11
364.869781
 21
360.392395
  0
LINE
  8
0
  6
CONTINUOUS
 10
346.304779
 20
284.892395
 11
346.304779
 21
320.892395
  0
LINE
  8
0
  6
CONTINUOUS
 10
364.869781
 20
245.642395
 11
359.792236
 21
245.642395
  0
LINE
  8
0
  6
CONTINUOUS
 10
359.792236
 20
360.142395
 11
364.869781
 21
360.142395
  0
ARC
  8
0
  6
CONTINUOUS
 10
351.337799
 20
339.892395
 40
5.000000
 50
270.000000
 51
358.500000
  0
ARC
  8
0
  6
CONTINUOUS
 10
359.792236
 20
357.142395
 40
3.000000
 50
90.000000
 51
178.500000
  0
LINE
  8
0
  6
CONTINUOUS
 10
356.793274
 20
248.563858
 11
356.336090
 21
266.023285
  0
ARC
  8
0
  6
CONTINUOUS
 10
351.337799
 20
265.892395
 40
5.000000
 50
1.500000
 51
90.000000
  0
ARC
  8
0
  6
CONTINUOUS
 10
359.792236
 20
248.642395
 40
3.000000
 50
-178.500000
 51
-90.000000
  0
LINE
  8
0
  6
CONTINUOUS
 10
347.951843
 20
248.868164
 11
352.530975
 21
270.747955
  0
ARC
  8
0
  6
CONTINUOUS
 10
343.057892
 20
249.892395
 40
5.000000
 50
270.000000
 51
348.179413
  0
LINE
  8
0
  6
CONTINUOUS
 10
347.951843
 20
356.916626
 11
352.530975
 21
335.036865
  0
ARC
  8
0
  6
CONTINUOUS
 10
343.057892
 20
355.892395
 40
5.000000
 50
11.820596
 51
90.000000
  0
LINE
  8
0
  6
CENTER
 10
275.569366
 20
347.892395
 11
254.715210
 21
347.892395
  0
LINE
  8
0
  6
CENTER
 10
265.119781
 20
340.335114
 11
265.119781
 21
357.105927
  0
CIRCLE
  8
0
  6
CONTINUOUS
 10
265.119781
 20
347.892395
 40
5.500000
  0
LINE
  8
0
  6
CENTER
 10
324.670166
 20
347.892395
 11
345.524353
 21
347.892395
  0
LINE
  8
0
  6
CENTER
 10
335.119781
 20
340.335114
 11
335.119781
 21
357.105927
  0
CIRCLE
  8
0
  6
CONTINUOUS
 10
335.119781
 20
347.892395
 40
5.500000
  0
LINE
  8
0
  6
CENTER
 10
275.569366
 20
257.892395
 11
254.715210
 21
257.892395
  0
LINE
  8
0
  6
CENTER
 10
265.119781
 20
265.449677
 11
265.119781
 21
248.678848
  0
CIRCLE
  8
0
  6
CONTINUOUS
 10
265.119781
 20
257.892395
 40
5.500000
  0
LINE
  8
0
  6
CENTER
 10
324.670166
 20
257.892395
 11
345.524353
 21
257.892395
  0
LINE
  8
0
  6
CENTER
 10
335.119781
 20
265.449677
 11
335.119781
 21
248.678848
  0
CIRCLE
  8
0
  6
CONTINUOUS
 10
335.119781
 20
257.892395
 40
5.500000
  0
LINE
  8
0
  6
CONTINUOUS
 10
325.312622
 20
350.892395
 11
274.926941
 21
350.892395
  0
LINE
  8
0
  6
CONTINUOUS
 10
269.963531
 20
340.892395
 11
266.676697
 21
340.892395
  0
ARC
  8
0
  6
CONTINUOUS
 10
274.926941
 20
347.892395
 40
3.000000
 50
90.000000
 51
165.124313
  0
LINE
  8
0
  6
CONTINUOUS
 10
263.777222
 20
338.662567
 11
263.368073
 21
337.122223
  0
ARC
  8
0
  6
CONTINUOUS
 10
266.676697
 20
337.892395
 40
3.000000
 50
90.000000
 51
165.124313
  0
ARC
  8
0
  6
CONTINUOUS
 10
260.468628
 20
337.892395
 40
3.000000
 50
270.000000
 51
345.124329
  0
LINE
  8
0
  6
CONTINUOUS
 10
269.963531
 20
340.892395
 11
272.027466
 21
348.662567
  0
LINE
  8
0
  6
CONTINUOUS
 10
336.462311
 20
338.662567
 11
336.871460
 21
337.122223
  0
ARC
  8
0
  6
CONTINUOUS
 10
333.562866
 20
337.892395
 40
3.000000
 50
14.875682
 51
90.000000
  0
ARC
  8
0
  6
CONTINUOUS
 10
339.770935
 20
337.892395
 40
3.000000
 50
194.875687
 51
270.000000
  0
LINE
  8
0
  6
CONTINUOUS
 10
330.276031
 20
340.892395
 11
333.562866
 21
340.892395
  0
ARC
  8
0
  6
CONTINUOUS
 10
325.312622
 20
347.892395
 40
3.000000
 50
14.875682
 51
90.000000
  0
LINE
  8
0
  6
CONTINUOUS
 10
330.276031
 20
340.892395
 11
328.212067
 21
348.662567
  0
CIRCLE
  8
0
  6
CONTINUOUS
 10
265.119781
 20
257.892395
 40
5.500000
  0
LINE
  8
0
  6
CONTINUOUS
 10
325.312622
 20
254.892395
 11
274.926941
 21
254.892395
  0
LINE
  8
0
  6
CONTINUOUS
 10
269.963531
 20
264.892395
 11
266.676697
 21
264.892395
  0
ARC
  8
0
  6
CONTINUOUS
 10
274.926941
 20
257.892395
 40
3.000000
 50
-165.124313
 51
-90.000000
  0
LINE
  8
0
  6
CONTINUOUS
 10
263.777222
 20
267.122223
 11
263.368073
 21
268.662567
  0
ARC
  8
0
  6
CONTINUOUS
 10
266.676697
 20
267.892395
 40
3.000000
 50
-165.124313
 51
-90.000000
  0
ARC
  8
0
  6
CONTINUOUS
 10
260.468628
 20
267.892395
 40
3.000000
 50
14.875682
 51
90.000000
  0
LINE
  8
0
  6
CONTINUOUS
 10
269.963531
 20
264.892395
 11
272.027466
 21
257.122223
  0
LINE
  8
0
  6
CONTINUOUS
 10
336.462311
 20
267.122223
 11
336.871460
 21
268.662567
  0
ARC
  8
0
  6
CONTINUOUS
 10
333.562866
 20
267.892395
 40
3.000000
 50
270.000000
 51
345.124329
  0
ARC
  8
0
  6
CONTINUOUS
 10
339.770935
 20
267.892395
 40
3.000000
 50
90.000000
 51
165.124313
  0
LINE
  8
0
  6
CONTINUOUS
 10
330.276031
 20
264.892395
 11
333.562866
 21
264.892395
  0
ARC
  8
0
  6
CONTINUOUS
 10
325.312622
 20
257.892395
 40
3.000000
 50
270.000000
 51
345.124329
  0
LINE
  8
0
  6
CONTINUOUS
 10
330.276031
 20
264.892395
 11
328.212067
 21
257.122223
  0
LINE
  8
0
  6
CONTINUOUS
 10
300.119781
 20
360.892395
 11
257.181671
 21
360.892395
  0
LINE
  8
0
  6
CONTINUOUS
 10
311.119781
 20
212.892395
 11
286.619781
 21
212.892395
  0
LINE
  8
0
  6
CONTINUOUS
 10
289.119781
 20
252.892395
 11
289.119781
 21
247.892395
  0
LINE
  8
0
  6
CONTINUOUS
 10
311.119781
 20
252.892395
 11
311.119781
 21
212.892395
  0
LINE
  8
0
  6
CONTINUOUS
 10
287.619781
 20
254.892395
 11
287.619781
 21
252.892395
  0
LINE
  8
0
  6
CONTINUOUS
 10
312.619781
 20
254.892395
 11
312.619781
 21
252.892395
  0
LINE
  8
0
  6
CONTINUOUS
 10
312.619781
 20
252.892395
 11
287.619781
 21
252.892395
  0
LINE
  8
0
  6
CONTINUOUS
 10
286.619781
 20
247.892395
 11
286.619781
 21
212.892395
  0
LINE
  8
0
  6
CONTINUOUS
 10
289.536774
 20
212.892395
 11
289.536774
 21
247.892395
  0
LINE
  8
0
  6
CONTINUOUS
 10
289.536774
 20
247.892395
 11
286.619781
 21
247.892395
  0
LINE
  8
0
  6
CONTINUOUS
 10
311.119781
 20
244.892395
 11
343.236053
 21
244.892395
  0
LINE
  8
0
  6
CONTINUOUS
 10
364.869781
 20
255.392395
 11
359.536926
 21
255.392395
  0
ARC
  8
0
  6
CONTINUOUS
 10
359.536926
 20
258.392395
 40
3.000000
 50
181.500000
 51
270.000000
  0
LINE
  8
0
  6
CONTINUOUS
 10
356.579315
 20
270.892395
 11
364.869781
 21
270.892395
  0
LINE
  8
0
  6
CONTINUOUS
 10
356.579315
 20
334.892395
 11
364.869781
 21
334.892395
  0
LINE
  8
0
  6
CONTINUOUS
 10
364.869781
 20
350.392395
 11
359.536926
 21
350.392395
  0
ARC
  8
0
  6
CONTINUOUS
 10
359.536926
 20
347.392395
 40
3.000000
 50
90.000000
 51
178.500000
  0
LINE
  8
0
  6
CONTINUOUS
 10
49.792500
 20
10.914687
 11
97.792503
 21
10.914687
  0
LINE
  8
0
  6
CONTINUOUS
 10
98.792503
 20
9.914687
 11
97.792503
 21
10.914687
  0
LINE
  8
0
  6
CONTINUOUS
 10
48.792500
 20
9.914687
 11
49.792500
 21
10.914687
  0
LINE
  8
0
  6
CONTINUOUS
 10
98.792503
 20
9.914687
 11
131.792496
 21
9.914687
  0
LINE
  8
0
  6
CONTINUOUS
 10
370.369781
 20
360.392395
 11
364.869781
 21
360.392395
  0
LINE
  8
0
  6
CONTINUOUS
 10
370.369781
 20
245.392395
 11
364.869781
 21
245.392395
  0
LINE
  8
0
  6
CONTINUOUS
 10
372.869781
 20
357.892395
 11
372.869781
 21
247.892395
  0
LINE
  8
0
  6
CONTINUOUS
 10
416.869781
 20
264.892395
 11
416.869781
 21
340.892395
  0
LINE
  8
0
  6
CONTINUOUS
 10
375.282532
 20
263.440125
 11
416.869781
 21
264.892395
  0
LINE
  8
0
  6
CONTINUOUS
 10
375.282532
 20
342.344666
 11
416.869781
 21
340.892395
  0
ARC
  8
0
  6
CONTINUOUS
 10
370.369781
 20
247.892395
 40
2.500000
 50
-90.000000
 51
0.000000
  0
ARC
  8
0
  6
CONTINUOUS
 10
370.369781
 20
357.892395
 40
2.500000
 50
0.000000
 51
90.000000
  0
ARC
  8
0
  6
CONTINUOUS
 10
371.869781
 20
140.914688
 40
1.000000
 50
0.000000
 51
90.000000
  0
ARC
  8
0
  6
CONTINUOUS
 10
375.369781
 20
126.983871
 40
2.500000
 50
180.000000
 51
244.230682
  0
ARC
  8
0
  6
CONTINUOUS
 10
375.369781
 20
115.365425
 40
2.500000
 50
180.000000
 51
268.000000
  0
ARC
  8
0
  6
CONTINUOUS
 10
401.313202
 20
114.459457
 40
2.500000
 50
-115.769325
 51
-92.000000
  0
LINE
  8
0
  6
CONTINUOUS
 10
416.869781
 20
264.892395
 11
416.869781
 21
340.892395
  0
LINE
  8
0
  6
CONTINUOUS
 10
530.869629
 20
264.892426
 11
416.869659
 21
264.892426
  0
LINE
  8
0
  6
CONTINUOUS
 10
530.869629
 20
340.892365
 11
416.869659
 21
340.892365
  0
LINE
  8
0
  6
CONTINUOUS
 10
424.869659
 20
266.892426
 11
424.869659
 21
279.892395
  0
ARC
  8
0
  6
CONTINUOUS
 10
422.869659
 20
266.892395
 40
2.000000
 50
-90.000000
 51
0.000000
  0
ARC
  8
0
  6
CONTINUOUS
 10
422.869659
 20
338.892365
 40
2.000000
 50
0.000000
 51
90.000000
  0
LINE
  8
0
  6
CONTINUOUS
 10
530.869629
 20
279.892395
 11
424.869659
 21
279.892395
  0
LINE
  8
0
  6
CONTINUOUS
 10
530.869629
 20
325.892395
 11
424.869659
 21
325.892395
  0
LINE
  8
0
  6
CONTINUOUS
 10
424.869659
 20
325.892395
 11
424.869659
 21
338.892395
  0
ARC
  8
0
  6
CONTINUOUS
 10
385.700134
 20
302.892395
 40
15.000000
 50
-49.252373
 51
49.252373
  0
LINE
  8
0
  6
CONTINUOUS
 10
373.737946
 20
272.786407
 11
395.491058
 21
291.528503
  0
LINE
  8
0
  6
CONTINUOUS
 10
373.737946
 20
332.998383
 11
395.491058
 21
314.256287
  0
ARC
  8
0
  6
CONTINUOUS
 10
375.369781
 20
270.892426
 40
2.500000
 50
130.747620
 51
180.000000
  0
ARC
  8
0
  6
CONTINUOUS
 10
375.369781
 20
260.941650
 40
2.500000
 50
92.000000
 51
180.000000
  0
ARC
  8
0
  6
CONTINUOUS
 10
375.369781
 20
334.892365
 40
2.500000
 50
180.000000
 51
229.252380
  0
ARC
  8
0
  6
CONTINUOUS
 10
375.369781
 20
344.843140
 40
2.500000
 50
180.000000
 51
268.000000
  0
LINE
  8
0
  6
CONTINUOUS
 10
371.744720
 20
41.260689
 11
364.869781
 21
41.260689
  0
LINE
  8
0
  6
CONTINUOUS
 10
372.869781
 20
29.414686
 11
372.869781
 21
31.463951
  0
ARC
  8
0
  6
CONTINUOUS
 10
370.369781
 20
29.414686
 40
2.500000
 50
-90.000000
 51
0.000000
  0
ARC
  8
0
  6
CONTINUOUS
 10
375.369781
 20
31.463951
 40
2.500000
 50
92.000000
 51
180.000000
  0
ARC
  8
0
  6
CONTINUOUS
 10
73.792503
 20
84.414688
 40
57.500000
 50
236.002823
 51
236.184402
  0
ARC
  8
0
  6
CONTINUOUS
 10
73.792503
 20
84.414688
 40
57.500000
 50
303.815582
 51
303.997162
  0
ARC
  8
0
  6
CONTINUOUS
 10
73.792503
 20
84.414688
 40
57.500000
 50
-33.997124
 51
19.823904
  0
ARC
  8
0
  6
CONTINUOUS
 10
73.792503
 20
84.414688
 40
57.500000
 50
146.593216
 51
213.997131
  0
LINE
  8
0
  6
CENTER
 10
300.119781
 20
167.164688
 11
300.119781
 21
3.664688
  0
LINE
  8
0
  6
CENTER
 10
340.177490
 20
114.914688
 11
254.857498
 21
114.914688
  0
LINE
  8
0
  6
CONTINUOUS
 10
353.119781
 20
9.914688
 11
247.119781
 21
9.914688
  0
LINE
  8
0
  6
CONTINUOUS
 10
318.549164
 20
159.914688
 11
281.690369
 21
159.914688
  0
LINE
  8
0
  6
CONTINUOUS
 10
247.119781
 20
134.304932
 11
247.119781
 21
9.914708
  0
LINE
  8
0
  6
CONTINUOUS
 10
353.119781
 20
34.914688
 11
353.119781
 21
9.914688
  0
LINE
  8
0
  6
CONTINUOUS
 10
364.869781
 20
141.664688
 11
347.246765
 21
141.664688
  0
LINE
  8
0
  6
CONTINUOUS
 10
364.869781
 20
27.164688
 11
358.119781
 21
27.164688
  0
LINE
  8
0
  6
CONTINUOUS
 10
356.869781
 20
38.914688
 11
356.869781
 21
129.914688
  0
LINE
  8
0
  6
CONTINUOUS
 10
249.260773
 20
138.406921
 11
278.831360
 21
159.016663
  0
LINE
  8
0
  6
CONTINUOUS
 10
350.978760
 20
138.406921
 11
321.408173
 21
159.016663
  0
LINE
  8
0
  6
CONTINUOUS
 10
319.181366
 20
21.914688
 11
353.119781
 21
21.914688
  0
LINE
  8
0
  6
CONTINUOUS
 10
313.558167
 20
31.914688
 11
286.681366
 21
31.914688
  0
LINE
  8
0
  6
CONTINUOUS
 10
285.119781
 20
30.477188
 11
285.119781
 21
22.914688
  0
LINE
  8
0
  6
CONTINUOUS
 10
315.119781
 20
30.289688
 11
315.119781
 21
22.914688
  0
LINE
  8
0
  6
CONTINUOUS
 10
317.240967
 20
23.429607
 11
315.498566
 21
30.399769
  0
LINE
  8
0
  6
CONTINUOUS
 10
282.998566
 20
23.429607
 11
284.740967
 21
30.399748
  0
LINE
  8
0
  6
CONTINUOUS
 10
347.119781
 20
20.852188
 11
347.119781
 21
9.914688
  0
LINE
  8
0
  6
CONTINUOUS
 10
253.119781
 20
20.852188
 11
253.119781
 21
9.914688
  0
LINE
  8
0
  6
CENTER
 10
335.119781
 20
25.664688
 11
335.119781
 21
5.664688
  0
LINE
  8
0
  6
CENTER
 10
265.119781
 20
26.664688
 11
265.119781
 21
6.164688
  0
LINE
  8
0
  6
DASHED
 10
340.619781
 20
21.914688
 11
340.619781
 21
9.914688
  0
LINE
  8
0
  6
DASHED
 10
329.619781
 20
21.914688
 11
329.619781
 21
9.914688
  0
LINE
  8
0
  6
DASHED
 10
270.619781
 20
21.914688
 11
270.619781
 21
9.914688
  0
LINE
  8
0
  6
DASHED
 10
259.619781
 20
21.914688
 11
259.619781
 21
9.914688
  0
ARC
  8
0
  6
CONTINUOUS
 10
281.690186
 20
154.914688
 40
5.000000
 50
90.000000
 51
124.875198
  0
ARC
  8
0
  6
CONTINUOUS
 10
318.549164
 20
154.914688
 40
5.000000
 50
55.124401
 51
90.000000
  0
ARC
  8
0
  6
CONTINUOUS
 10
252.119781
 20
134.304932
 40
5.000000
 50
124.875198
 51
180.000000
  0
ARC
  8
0
  6
CONTINUOUS
 10
348.119781
 20
134.304947
 40
5.000000
 50
0.000000
 51
55.124298
  0
LINE
  8
0
  6
CONTINUOUS
 10
364.869781
 20
131.914688
 11
355.119781
 21
131.914688
  0
LINE
  8
0
  6
CONTINUOUS
 10
358.869781
 20
36.914688
 11
364.869781
 21
36.914688
  0
LINE
  8
0
  6
CONTINUOUS
 10
364.869781
 20
116.374687
 11
357.994781
 21
116.374687
  0
LINE
  8
0
  6
CONTINUOUS
 10
364.869781
 20
52.454689
 11
357.869781
 21
52.454689
  0
ARC
  8
0
  6
CONTINUOUS
 10
347.246765
 20
144.664688
 40
3.000000
 50
-124.875397
 51
-90.000000
  0
ARC
  8
0
  6
CONTINUOUS
 10
358.869781
 20
129.914688
 40
2.000000
 50
90.000000
 51
180.000000
  0
ARC
  8
0
  6
CONTINUOUS
 10
355.119781
 20
133.914688
 40
2.000000
 50
180.000000
 51
270.000000
  0
LINE
  8
0
  6
CONTINUOUS
 10
353.119781
 20
134.304947
 11
353.119781
 21
133.914688
  0
ARC
  8
0
  6
CONTINUOUS
 10
355.119781
 20
34.914688
 40
2.000000
 50
90.000000
 51
180.000000
  0
LINE
  8
0
  6
CONTINUOUS
 10
358.869781
 20
36.914688
 11
355.119781
 21
36.914688
  0
ARC
  8
0
  6
CONTINUOUS
 10
358.869781
 20
38.914688
 40
2.000000
 50
180.000000
 51
270.000000
  0
ARC
  8
0
  6
CONTINUOUS
 10
358.119781
 20
22.164667
 40
5.000000
 50
90.000000
 51
180.000000
  0
ARC
  8
0
  6
CONTINUOUS
 10
286.681366
 20
29.914688
 40
2.000000
 50
90.000000
 51
165.963593
  0
ARC
  8
0
  6
CONTINUOUS
 10
313.558167
 20
29.914688
 40
2.000000
 50
14.036100
 51
90.000000
  0
LINE
  8
0
  6
CONTINUOUS
 10
281.058167
 20
21.914688
 11
247.119781
 21
21.914688
  0
ARC
  8
0
  6
CONTINUOUS
 10
319.181366
 20
23.914688
 40
2.000000
 50
-165.963699
 51
-90.000000
  0
LINE
  8
0
  6
CONTINUOUS
 10
281.058167
 20
21.914688
 11
319.181366
 21
21.914688
  0
ARC
  8
0
  6
CONTINUOUS
 10
281.058167
 20
23.914688
 40
2.000000
 50
-90.000000
 51
-14.036190
  0
ARC
  8
0
  6
CONTINUOUS
 10
316.119781
 20
22.914688
 40
1.000000
 50
180.000000
 51
270.000000
  0
ARC
  8
0
  6
CONTINUOUS
 10
284.119781
 20
22.914688
 40
1.000000
 50
-90.000000
 51
0.000000
  0
LINE
  8
0
  6
CONTINUOUS
 10
250.119781
 20
118.414688
 11
250.119781
 21
74.553993
  0
LINE
  8
0
  6
CONTINUOUS
 10
350.119781
 20
119.275368
 11
350.119781
 21
72.941307
  0
ARC
  8
0
  6
CONTINUOUS
 10
300.119781
 20
96.914696
 40
60.000000
 50
48.189621
 51
131.810394
  0
ARC
  8
0
  6
CONTINUOUS
 10
300.119781
 20
96.914696
 40
60.000000
 50
228.189697
 51
309.631744
  0
ARC
  8
0
  6
CONTINUOUS
 10
320.119781
 20
119.275368
 40
30.000000
 50
0.000000
 51
48.189629
  0
CIRCLE
  8
0
  6
CONTINUOUS
 10
300.119781
 20
114.914688
 40
27.500000
  0
ARC
  8
0
  6
CONTINUOUS
 10
300.119781
 20
114.914688
 40
31.750000
 50
7.552697
 51
172.447403
  0
ARC
  8
0
  6
CONTINUOUS
 10
283.369781
 20
73.414688
 40
20.600000
 50
172.447403
 51
270.000000
  0
ARC
  8
0
  6
CONTINUOUS
 10
316.869781
 20
73.414688
 40
20.600000
 50
-90.000000
 51
7.552700
  0
LINE
  8
0
  6
CONTINUOUS
 10
331.594360
 20
119.087845
 11
337.290985
 21
76.122314
  0
LINE
  8
0
  6
CONTINUOUS
 10
262.948578
 20
76.122276
 11
268.645172
 21
119.087791
  0
LINE
  8
0
  6
CONTINUOUS
 10
283.369781
 20
52.814690
 11
316.869781
 21
52.814690
  0
ARC
  8
0
  6
CONTINUOUS
 10
283.369781
 20
73.414688
 40
19.000000
 50
172.447601
 51
270.000000
  0
ARC
  8
0
  6
CONTINUOUS
 10
316.869781
 20
73.414688
 40
19.000000
 50
-90.000000
 51
7.552700
  0
ARC
  8
0
  6
CONTINUOUS
 10
300.119781
 20
114.914688
 40
30.150000
 50
-187.552597
 51
7.552697
  0
LINE
  8
0
  6
CONTINUOUS
 10
264.534576
 20
75.911980
 11
270.231384
 21
118.877510
  0
LINE
  8
0
  6
CONTINUOUS
 10
330.008179
 20
118.877548
 11
335.704987
 21
75.912010
  0
LINE
  8
0
  6
CONTINUOUS
 10
283.369781
 20
54.414688
 11
316.869781
 21
54.414688
  0
LINE
  8
0
  6
CONTINUOUS
 10
289.823364
 20
61.914688
 11
285.662964
 21
61.914688
  0
LINE
  8
0
  6
CONTINUOUS
 10
292.119781
 20
68.883438
 11
292.119781
 21
61.914688
  0
LINE
  8
0
  6
CONTINUOUS
 10
296.119781
 20
71.414688
 11
296.119781
 21
73.914688
  0
LINE
  8
0
  6
CONTINUOUS
 10
304.119781
 20
71.414688
 11
304.119781
 21
73.914688
  0
LINE
  8
0
  6
CONTINUOUS
 10
299.338562
 20
72.445938
 11
299.338562
 21
63.227188
  0
LINE
  8
0
  6
CONTINUOUS
 10
300.838562
 20
72.445938
 11
300.838562
 21
63.227188
  0
LINE
  8
0
  6
CONTINUOUS
 10
308.713562
 20
72.445938
 11
308.713562
 21
63.164688
  0
LINE
  8
0
  6
CONTINUOUS
 10
310.088562
 20
67.524063
 11
310.088562
 21
63.164688
  0
LINE
  8
0
  6
CONTINUOUS
 10
290.221771
 20
72.320938
 11
286.366760
 21
72.320938
  0
LINE
  8
0
  6
CONTINUOUS
 10
286.366760
 20
72.320938
 11
285.463562
 21
71.200943
  0
LINE
  8
0
  6
CONTINUOUS
 10
285.572174
 20
73.914688
 11
284.119781
 21
72.054932
  0
LINE
  8
0
  6
CONTINUOUS
 10
285.463562
 20
64.287605
 11
286.381165
 21
63.320927
  0
LINE
  8
0
  6
CONTINUOUS
 10
284.119781
 20
63.471848
 11
285.662964
 21
61.914688
  0
LINE
  8
0
  6
CONTINUOUS
 10
284.119781
 20
72.054932
 11
284.119781
 21
63.471848
  0
LINE
  8
0
  6
CONTINUOUS
 10
285.463562
 20
71.200943
 11
285.463562
 21
64.287605
  0
LINE
  8
0
  6
CONTINUOUS
 10
290.963562
 20
71.603836
 11
290.206573
 21
72.320938
  0
LINE
  8
0
  6
CONTINUOUS
 10
290.951569
 20
73.914688
 11
292.119781
 21
72.618195
  0
LINE
  8
0
  6
CONTINUOUS
 10
290.963562
 20
71.414688
 11
292.119781
 21
71.414688
  0
LINE
  8
0
  6
CONTINUOUS
 10
285.572174
 20
73.914688
 11
290.951569
 21
73.914688
  0
LINE
  8
0
  6
CONTINUOUS
 10
288.869781
 20
68.883438
 11
292.119781
 21
68.883438
  0
LINE
  8
0
  6
CONTINUOUS
 10
290.963562
 20
67.570938
 11
288.869781
 21
67.570938
  0
LINE
  8
0
  6
CONTINUOUS
 10
288.463562
 20
63.320927
 11
286.381165
 21
63.320927
  0
LINE
  8
0
  6
CONTINUOUS
 10
290.963562
 20
66.320938
 11
290.963562
 21
67.320938
  0
ARC
  8
0
  6
CONTINUOUS
 10
288.463562
 20
65.820930
 40
2.500000
 50
-89.999786
 51
0.000109
  0
LINE
  8
0
  6
CONTINUOUS
 10
290.963562
 20
62.871246
 11
290.963562
 21
61.914688
  0
LINE
  8
0
  6
CONTINUOUS
 10
292.119781
 20
72.618195
 11
292.119781
 21
71.414688
  0
LINE
  8
0
  6
CONTINUOUS
 10
290.963562
 20
67.570938
 11
290.963562
 21
65.820938
  0
LINE
  8
0
  6
CONTINUOUS
 10
288.869781
 20
68.883438
 11
288.869781
 21
67.570938
  0
LINE
  8
0
  6
CONTINUOUS
 10
290.963562
 20
61.914688
 11
292.119781
 21
61.914688
  0
LINE
  8
0
  6
CONTINUOUS
 10
290.963562
 20
62.871246
 11
289.823364
 21
61.914688
  0
LINE
  8
0
  6
CONTINUOUS
 10
300.838562
 20
63.227188
 11
301.338562
 21
63.227188
  0
LINE
  8
0
  6
CONTINUOUS
 10
298.744781
 20
63.227188
 11
298.744781
 21
61.914688
  0
LINE
  8
0
  6
CONTINUOUS
 10
301.338562
 20
63.227188
 11
301.338562
 21
61.914688
  0
LINE
  8
0
  6
CONTINUOUS
 10
303.285370
 20
71.414688
 11
304.119781
 21
71.414688
  0
LINE
  8
0
  6
CONTINUOUS
 10
296.119781
 20
71.414688
 11
297.007782
 21
71.414688
  0
LINE
  8
0
  6
CONTINUOUS
 10
296.119781
 20
73.914688
 11
304.119781
 21
73.914688
  0
LINE
  8
0
  6
CONTINUOUS
 10
298.744781
 20
61.914688
 11
301.338562
 21
61.914688
  0
LINE
  8
0
  6
CONTINUOUS
 10
298.744781
 20
63.227188
 11
299.338562
 21
63.227188
  0
ARC
  8
0
  6
CONTINUOUS
 10
312.916565
 20
70.711563
 40
3.203126
 50
-73.981873
 51
90.003510
  0
ARC
  8
0
  6
CONTINUOUS
 10
312.916565
 20
70.711563
 40
1.954124
 50
-82.585274
 51
62.411850
  0
LINE
  8
0
  6
CONTINUOUS
 10
308.119781
 20
73.914688
 11
312.916565
 21
73.914688
  0
LINE
  8
0
  6
CONTINUOUS
 10
313.168762
 20
68.773773
 11
310.088562
 21
68.773773
  0
LINE
  8
0
  6
CONTINUOUS
 10
308.119781
 20
73.914688
 11
308.119781
 21
72.445938
  0
LINE
  8
0
  6
CONTINUOUS
 10
310.088562
 20
72.445938
 11
310.088562
 21
68.773773
  0
LINE
  8
0
  6
CONTINUOUS
 10
313.800568
 20
67.632797
 11
315.782990
 21
63.164688
  0
LINE
  8
0
  6
CONTINUOUS
 10
312.648987
 20
67.524063
 11
314.525177
 21
63.164688
  0
LINE
  8
0
  6
CONTINUOUS
 10
308.119781
 20
63.164688
 11
308.713562
 21
63.164688
  0
LINE
  8
0
  6
CONTINUOUS
 10
310.088562
 20
63.164688
 11
310.635376
 21
63.164688
  0
LINE
  8
0
  6
CONTINUOUS
 10
310.635376
 20
61.914688
 11
308.119781
 21
61.914688
  0
LINE
  8
0
  6
CONTINUOUS
 10
314.275970
 20
63.164688
 11
314.525177
 21
63.164688
  0
LINE
  8
0
  6
CONTINUOUS
 10
314.275970
 20
61.914688
 11
316.119781
 21
61.914688
  0
LINE
  8
0
  6
CONTINUOUS
 10
314.275970
 20
63.164688
 11
314.275970
 21
61.914688
  0
LINE
  8
0
  6
CONTINUOUS
 10
310.635376
 20
63.164688
 11
310.635376
 21
61.914688
  0
LINE
  8
0
  6
CONTINUOUS
 10
308.119781
 20
63.164688
 11
308.119781
 21
61.914688
  0
LINE
  8
0
  6
CONTINUOUS
 10
297.437561
 20
72.445938
 11
297.007782
 21
71.414688
  0
LINE
  8
0
  6
CONTINUOUS
 10
302.922974
 20
72.445938
 11
303.285370
 21
71.414688
  0
LINE
  8
0
  6
CONTINUOUS
 10
300.838562
 20
72.445938
 11
302.922974
 21
72.445938
  0
LINE
  8
0
  6
CONTINUOUS
 10
299.338562
 20
72.445938
 11
297.437561
 21
72.445938
  0
LINE
  8
0
  6
CONTINUOUS
 10
310.088562
 20
67.524063
 11
312.648987
 21
67.524063
  0
LINE
  8
0
  6
CONTINUOUS
 10
308.119781
 20
72.445938
 11
308.713562
 21
72.445938
  0
LINE
  8
0
  6
CONTINUOUS
 10
310.088562
 20
72.445938
 11
313.821564
 21
72.443512
  0
LINE
  8
0
  6
CONTINUOUS
 10
290.963562
 20
71.603836
 11
290.963562
 21
71.414688
  0
ARC
  8
0
  6
CONTINUOUS
 10
280.119781
 20
119.275391
 40
30.000000
 50
131.810394
 51
181.671204
  0
ARC
  8
0
  6
CONTINUOUS
 10
320.119781
 20
74.553993
 40
30.043320
 50
307.456360
 51
356.922760
  0
ARC
  8
0
  6
CONTINUOUS
 10
280.119781
 20
74.553993
 40
30.000000
 50
180.000000
 51
228.189697
  0
LINE
  8
0
  6
CONTINUOUS
 10
292.619781
 20
117.914688
 11
292.619781
 21
111.914688
  0
LINE
  8
0
  6
CONTINUOUS
 10
286.619781
 20
117.914688
 11
286.619781
 21
111.914688
  0
LINE
  8
0
  6
CONTINUOUS
 10
286.619781
 20
117.914688
 11
292.619781
 21
117.914688
  0
LINE
  8
0
  6
CONTINUOUS
 10
286.619781
 20
111.914688
 11
292.619781
 21
111.914688
  0
ARC
  8
0
  6
CONTINUOUS
 10
300.119781
 20
114.914688
 40
11.000000
 50
-164.173401
 51
164.173401
  0
LINE
  8
0
  6
CONTINUOUS
 10
364.869781
 20
141.914581
 11
364.869781
 21
26.914787
  0
LINE
  8
0
  6
CONTINUOUS
 10
530.869629
 20
340.892365
 11
530.869629
 21
309.758392
  0
LINE
  8
0
  6
CONTINUOUS
 10
530.869629
 20
340.892365
 11
540.369629
 21
340.892365
  0
LINE
  8
0
  6
CONTINUOUS
 10
530.869629
 20
264.892365
 11
540.369629
 21
264.892365
  0
LINE
  8
0
  6
CONTINUOUS
 10
530.869629
 20
279.892365
 11
540.369629
 21
279.892365
  0
LINE
  8
0
  6
CONTINUOUS
 10
530.869629
 20
325.892365
 11
540.369629
 21
325.892365
  0
LINE
  8
0
  6
CONTINUOUS
 10
537.369629
 20
296.892365
 11
537.369629
 21
308.892365
  0
LINE
  8
0
  6
CONTINUOUS
 10
530.369629
 20
296.892365
 11
530.369629
 21
308.892365
  0
LINE
  8
0
  6
CONTINUOUS
 10
536.369629
 20
309.892365
 11
531.369629
 21
309.892365
  0
LINE
  8
0
  6
CONTINUOUS
 10
531.369629
 20
295.892365
 11
536.369629
 21
295.892365
  0
ARC
  8
0
  6
CONTINUOUS
 10
531.369629
 20
308.892365
 40
1.000000
 50
90.000000
 51
180.000000
  0
ARC
  8
0
  6
CONTINUOUS
 10
536.369629
 20
308.892365
 40
1.000000
 50
0.000000
 51
90.000000
  0
ARC
  8
0
  6
CONTINUOUS
 10
536.369629
 20
296.892365
 40
1.000000
 50
-90.000000
 51
0.000000
  0
ARC
  8
0
  6
CONTINUOUS
 10
531.369629
 20
296.892365
 40
1.000000
 50
180.000000
 51
270.000000
  0
LINE
  8
0
  6
CONTINUOUS
 10
532.869629
 20
299.392365
 11
532.869629
 21
306.392365
  0
LINE
  8
0
  6
CONTINUOUS
 10
534.869629
 20
299.392365
 11
534.869629
 21
306.392365
  0
ARC
  8
0
  6
CONTINUOUS
 10
533.869629
 20
306.392365
 40
1.000000
 50
0.000000
 51
90.000000
  0
ARC
  8
0
  6
CONTINUOUS
 10
533.869629
 20
306.392365
 40
1.000000
 50
90.000000
 51
180.000000
  0
ARC
  8
0
  6
CONTINUOUS
 10
533.869629
 20
299.392365
 40
1.000000
 50
-90.000000
 51
0.000000
  0
ARC
  8
0
  6
CONTINUOUS
 10
533.869629
 20
299.392365
 40
1.000000
 50
180.000000
 51
270.000000
  0
LINE
  8
0
  6
CONTINUOUS
 10
530.869629
 20
296.026337
 11
530.869629
 21
264.892365
  0
LINE
  8
0
  6
CONTINUOUS
 10
540.369629
 20
262.892365
 11
540.369629
 21
342.892365
  0
LINE
  8
0
  6
CONTINUOUS
 10
584.369629
 20
342.892365
 11
540.369629
 21
342.892365
  0
LINE
  8
0
  6
CONTINUOUS
 10
584.369629
 20
262.892365
 11
540.369629
 21
262.892365
  0
LINE
  8
0
  6
CONTINUOUS
 10
589.369629
 20
267.892365
 11
589.369629
 21
337.892365
  0
ARC
  8
0
  6
CONTINUOUS
 10
584.369629
 20
337.892365
 40
5.000000
 50
0.000000
 51
90.000000
  0
ARC
  8
0
  6
CONTINUOUS
 10
584.369629
 20
267.892365
 40
5.000000
 50
-90.000000
 51
0.000000
  0
LINE
  8
0
  6
CONTINUOUS
 10
586.869629
 20
326.892365
 11
540.369629
 21
326.892365
  0
LINE
  8
0
  6
CONTINUOUS
 10
586.869629
 20
276.892365
 11
540.369629
 21
276.892365
  0
LINE
  8
0
  6
CONTINUOUS
 10
540.369812
 20
111.414665
 11
530.869812
 21
111.414665
  0
LINE
  8
0
  6
CONTINUOUS
 10
540.369812
 20
35.414665
 11
530.869812
 21
35.414665
  0
LINE
  8
0
  6
CONTINUOUS
 10
540.369812
 20
33.414665
 11
540.369812
 21
113.414665
  0
LINE
  8
0
  6
CONTINUOUS
 10
530.369812
 20
112.914665
 11
530.369812
 21
111.414665
  0
LINE
  8
0
  6
CONTINUOUS
 10
537.369812
 20
112.914665
 11
537.369812
 21
111.414665
  0
LINE
  8
0
  6
CONTINUOUS
 10
537.369812
 20
112.914665
 11
530.369812
 21
112.914665
  0
LINE
  8
0
  6
CONTINUOUS
 10
532.969788
 20
125.914665
 11
532.969788
 21
112.914665
  0
LINE
  8
0
  6
CONTINUOUS
 10
534.769775
 20
126.539665
 11
534.769775
 21
112.914665
  0
LINE
  8
0
  6
CONTINUOUS
 10
536.569763
 20
124.477165
 11
536.569763
 21
112.914665
  0
LINE
  8
0
  6
CONTINUOUS
 10
531.169800
 20
125.289665
 11
531.169800
 21
112.914665
  0
LINE
  8
0
  6
CONTINUOUS
 10
534.769775
 20
126.539665
 11
532.969788
 21
125.914665
  0
LINE
  8
0
  6
CONTINUOUS
 10
536.569763
 20
124.477165
 11
534.769775
 21
125.102165
  0
LINE
  8
0
  6
CONTINUOUS
 10
531.169800
 20
125.289665
 11
532.968811
 21
124.841965
  0
LINE
  8
0
  6
CONTINUOUS
 10
540.369812
 20
103.663666
 11
530.869812
 21
103.663666
  0
LINE
  8
0
  6
CONTINUOUS
 10
540.369812
 20
43.165668
 11
530.869812
 21
43.165668
  0
LINE
  8
0
  6
CONTINUOUS
 10
584.369812
 20
113.414665
 11
540.369812
 21
113.414665
  0
LINE
  8
0
  6
CONTINUOUS
 10
584.369812
 20
33.414665
 11
540.369812
 21
33.414665
  0
LINE
  8
0
  6
CONTINUOUS
 10
589.369812
 20
38.414665
 11
589.369812
 21
108.414665
  0
ARC
  8
0
  6
CONTINUOUS
 10
584.369812
 20
108.414665
 40
5.000000
 50
0.000000
 51
90.000000
  0
ARC
  8
0
  6
CONTINUOUS
 10
584.369812
 20
38.414665
 40
5.000000
 50
-90.000000
 51
0.000000
  0
LINE
  8
0
  6
CONTINUOUS
 10
586.869812
 20
99.414665
 11
540.369812
 21
99.414665
  0
LINE
  8
0
  6
CONTINUOUS
 10
586.869812
 20
49.414665
 11
540.369812
 21
49.414665
  0
LINE
  8
0
  6
CONTINUOUS
 10
530.869812
 20
35.414688
 11
530.869812
 21
111.414665
  0
ARC
  8
0
  6
CONTINUOUS
 10
540.369629
 20
335.162262
 40
4.500000
 50
-180.000000
 51
-90.000000
  0
ARC
  8
0
  6
CONTINUOUS
 10
540.369629
 20
335.162262
 40
3.000000
 50
-180.000000
 51
-90.000000
  0
ARC
  8
0
  6
CONTINUOUS
 10
540.369629
 20
335.162262
 40
1.500000
 50
-180.000000
 51
-90.000000
  0
LINE
  8
0
  6
CONTINUOUS
 10
538.869629
 20
335.162262
 11
538.869629
 21
340.177856
  0
LINE
  8
0
  6
CONTINUOUS
 10
537.369629
 20
335.162262
 11
537.369629
 21
339.662262
  0
LINE
  8
0
  6
CONTINUOUS
 10
535.869629
 20
335.162262
 11
535.869629
 21
339.662262
  0
LINE
  8
0
  6
CONTINUOUS
 10
538.869629
 20
340.162262
 11
537.369629
 21
339.662262
  0
LINE
  8
0
  6
CONTINUOUS
 10
537.369629
 20
339.162262
 11
535.869629
 21
339.662262
  0
LINE
  8
0
  6
CONTINUOUS
 10
372.869781
 20
64.014687
 11
416.869781
 21
64.014687
  0
LINE
  8
0
  6
CONTINUOUS
 10
372.869781
 20
53.814690
 11
416.869781
 21
53.814690
  0
TEXT
  8
0
 10
-18.000000
 20
-5.000000
 40
4.000000
 41
1.000000
  1
HLMN-22L-300~450-S60W
 50
0.000000
  0
ENDSEC
  0
EOF
