  0
SECTION
  2
HEADER
  9
$CLAYER
  8
1
  9
$LTSCALE
 40
3.0
  0
ENDSEC
  0
SECTION
  2
TABLES
  0
TABLE
  2
LTYPE
 70
     4
  0
LTYPE
  2
CONTINUOUS
  3
solid line
 70
    64
 72
    65
 73
     0
 40
0.0
  0
LTYPE
  2
DASHED
  3
__ __ __ __ __ __ __ __ __ __ __ __ __ __ __
 70
    64
 72
    65
 73
     2
 40
0.75
 49
0.5
 49
-0.25
  0
LTYPE
  2
CENTER
  3
____ _ ____ _ ____ _ ____ _ ____ _ ____ _ ____
 70
    64
 72
    65
 73
     4
 40
2.0
 49
1.25
 49
-0.25
 49
0.25
 49
-0.25
  0
LTYPE
  2
PHANTOM
  3
_____ _ _ _____ _ _ _____ _ _ _____ _ _ ____
 70
    64
 72
    65
 73
     6
 40
2.5
 49
1.25
 49
-0.25
 49
0.25
 49
-0.25
 49
0.25
 49
-0.25
  0
ENDTAB
  0
TABLE
  2
LAYER
 70
     1
  0
LAYER
  2
0
 70
    64
 62
     7
  6
CONTINUOUS
  0
ENDTAB
  0
TABLE
  2
STYLE
 70
     1
  0
STYLE
  2
STANDARD
 70
     0
 40
0.000000
 41
1.000000
 50
0.000000
 71
     0
 42
3.000000
  3
txt
  4
BIGFONT
  0
ENDTAB
  0
ENDSEC
  0
SECTION
  2
BLOCKS
  0
ENDSEC
  0
SECTION
  2
ENTITIES
  0
LINE
  8
0
  6
CENTER
 10
430.533752
 20
90.343437
 11
318.692902
 21
90.343437
  0
LINE
  8
0
  6
CONTINUOUS
 10
517.442932
 20
117.343414
 11
403.442902
 21
117.343414
  0
LINE
  8
0
  6
CONTINUOUS
 10
517.442932
 20
41.343456
 11
403.442902
 21
41.343456
  0
LINE
  8
0
  6
CONTINUOUS
 10
517.442932
 20
109.592415
 11
411.442902
 21
109.592415
  0
LINE
  8
0
  6
CONTINUOUS
 10
517.442932
 20
49.094460
 11
411.442902
 21
49.094460
  0
LINE
  8
0
  6
CONTINUOUS
 10
411.442902
 20
115.343414
 11
411.442902
 21
43.343437
  0
ARC
  8
0
  6
CONTINUOUS
 10
409.442902
 20
115.343437
 40
2.000000
 50
0.000000
 51
90.000000
  0
ARC
  8
0
  6
CONTINUOUS
 10
409.442902
 20
43.343456
 40
2.000000
 50
-90.000000
 51
0.000000
  0
LINE
  8
0
  6
CENTER
 10
60.365623
 20
0.218417
 11
60.365623
 21
179.768433
  0
LINE
  8
0
  6
CENTER
 10
-9.859375
 20
90.343437
 11
129.265625
 21
90.343437
  0
LINE
  8
0
  6
CENTER
 10
1.368594
 20
120.843437
 11
163.615631
 21
120.843437
  0
LINE
  8
0
  6
CONTINUOUS
 10
2.365625
 20
15.843437
 11
35.365623
 21
15.843437
  0
LINE
  8
0
  6
CONTINUOUS
 10
2.365625
 20
26.469837
 11
2.365625
 21
15.843437
  0
LINE
  8
0
  6
CONTINUOUS
 10
118.365623
 20
26.469837
 11
118.365623
 21
15.843437
  0
LINE
  8
0
  6
CONTINUOUS
 10
4.365625
 20
27.843437
 11
25.365625
 21
27.843437
  0
LINE
  8
0
  6
CONTINUOUS
 10
116.365623
 20
27.843437
 11
95.365623
 21
27.843437
  0
LINE
  8
0
  6
CONTINUOUS
 10
28.365625
 20
39.217037
 11
28.365625
 21
163.319351
  0
LINE
  8
0
  6
CONTINUOUS
 10
92.365623
 20
39.217037
 11
92.365623
 21
163.319717
  0
LINE
  8
0
  6
CONTINUOUS
 10
90.400429
 20
165.319412
 11
60.365623
 21
165.843445
  0
LINE
  8
0
  6
CONTINUOUS
 10
30.330626
 20
165.319077
 11
60.365623
 21
165.843445
  0
ARC
  8
0
  6
CONTINUOUS
 10
30.365625
 20
163.319382
 40
2.000000
 50
91.000580
 51
180.000000
  0
ARC
  8
0
  6
CONTINUOUS
 10
90.365623
 20
163.319717
 40
2.000000
 50
0.000000
 51
89.000519
  0
LINE
  8
0
  6
CONTINUOUS
 10
92.365623
 20
30.843437
 11
92.365623
 21
15.843437
  0
ARC
  8
0
  6
CONTINUOUS
 10
95.365623
 20
30.843437
 40
3.000000
 50
180.000000
 51
270.000000
  0
LINE
  8
0
  6
CONTINUOUS
 10
28.365625
 20
30.843437
 11
28.365625
 21
15.843437
  0
ARC
  8
0
  6
CONTINUOUS
 10
25.365625
 20
30.843416
 40
3.000000
 50
-90.000000
 51
0.000000
  0
ARC
  8
0
  6
CONTINUOUS
 10
4.365625
 20
25.843437
 40
2.000000
 50
90.000000
 51
180.000000
  0
ARC
  8
0
  6
CONTINUOUS
 10
116.365623
 20
25.843437
 40
2.000000
 50
0.000000
 51
90.000000
  0
LINE
  8
0
  6
CENTER
 10
15.365625
 20
32.133438
 11
15.365625
 21
11.733438
  0
LINE
  8
0
  6
CENTER
 10
105.365623
 20
33.153439
 11
105.365623
 21
11.223437
  0
LINE
  8
0
  6
CONTINUOUS
 10
27.083626
 20
37.350357
 11
3.647625
 21
28.336538
  0
ARC
  8
0
  6
CONTINUOUS
 10
4.365625
 20
26.469856
 40
2.000000
 50
111.037903
 51
180.000000
  0
LINE
  8
0
  6
CONTINUOUS
 10
28.365625
 20
39.217037
 11
28.365625
 21
30.843437
  0
ARC
  8
0
  6
CONTINUOUS
 10
26.365625
 20
39.217037
 40
2.000000
 50
-68.962189
 51
0.000000
  0
LINE
  8
0
  6
CONTINUOUS
 10
93.647629
 20
37.350338
 11
117.083626
 21
28.336538
  0
ARC
  8
0
  6
CONTINUOUS
 10
116.365623
 20
26.469837
 40
2.000000
 50
0.000000
 51
68.962646
  0
LINE
  8
0
  6
CONTINUOUS
 10
92.365623
 20
39.217037
 11
92.365623
 21
30.843437
  0
ARC
  8
0
  6
CONTINUOUS
 10
94.365623
 20
39.217056
 40
2.000000
 50
180.000000
 51
248.962799
  0
LINE
  8
0
  6
CONTINUOUS
 10
12.365625
 20
95.650589
 11
12.365625
 21
146.036285
  0
LINE
  8
0
  6
CONTINUOUS
 10
108.365623
 20
95.650589
 11
108.365623
 21
146.036285
  0
LINE
  8
0
  6
CONTINUOUS
 10
98.365623
 20
62.648277
 11
98.365623
 21
122.913437
  0
LINE
  8
0
  6
CONTINUOUS
 10
22.365625
 20
62.648277
 11
22.365625
 21
122.913437
  0
LINE
  8
0
  6
CONTINUOUS
 10
106.135826
 20
148.935745
 11
94.595428
 21
152.001144
  0
LINE
  8
0
  6
CONTINUOUS
 10
106.135826
 20
92.751137
 11
100.595428
 21
91.279488
  0
LINE
  8
0
  6
CONTINUOUS
 10
96.138626
 20
59.749577
 11
94.592628
 21
59.337296
  0
LINE
  8
0
  6
CONTINUOUS
 10
24.592625
 20
59.749557
 11
26.138624
 21
59.337296
  0
LINE
  8
0
  6
CONTINUOUS
 10
14.595425
 20
92.751129
 11
20.135824
 21
91.279488
  0
LINE
  8
0
  6
CONTINUOUS
 10
14.595425
 20
148.935745
 11
26.135824
 21
152.001144
  0
ARC
  8
0
  6
CONTINUOUS
 10
15.365625
 20
146.036301
 40
3.000000
 50
104.876099
 51
180.000000
  0
ARC
  8
0
  6
CONTINUOUS
 10
15.365625
 20
95.650604
 40
3.000000
 50
180.000000
 51
255.124603
  0
ARC
  8
0
  6
CONTINUOUS
 10
105.365623
 20
146.036285
 40
3.000000
 50
0.000000
 51
75.124413
  0
ARC
  8
0
  6
CONTINUOUS
 10
105.365623
 20
95.650589
 40
3.000000
 50
-75.124207
 51
0.000000
  0
ARC
  8
0
  6
CONTINUOUS
 10
25.365625
 20
62.648296
 40
3.000000
 50
180.000000
 51
255.069000
  0
ARC
  8
0
  6
CONTINUOUS
 10
95.365623
 20
62.648277
 40
3.000000
 50
-75.068420
 51
0.000000
  0
ARC
  8
0
  6
CONTINUOUS
 10
95.365623
 20
154.900620
 40
3.000000
 50
180.000000
 51
255.124603
  0
ARC
  8
0
  6
CONTINUOUS
 10
101.365623
 20
88.380051
 40
3.000000
 50
104.876099
 51
180.000000
  0
ARC
  8
0
  6
CONTINUOUS
 10
95.365623
 20
56.438618
 40
3.000000
 50
104.931801
 51
180.000000
  0
ARC
  8
0
  6
CONTINUOUS
 10
25.365625
 20
56.438599
 40
3.000000
 50
0.000000
 51
75.068779
  0
ARC
  8
0
  6
CONTINUOUS
 10
19.365625
 20
88.380020
 40
3.000000
 50
0.000000
 51
75.124496
  0
ARC
  8
0
  6
CONTINUOUS
 10
25.365625
 20
154.900574
 40
3.000000
 50
-75.124153
 51
0.000000
  0
LINE
  8
0
  6
DASHED
 10
9.865625
 20
27.843437
 11
9.865625
 21
15.843437
  0
LINE
  8
0
  6
DASHED
 10
20.865625
 20
27.843437
 11
20.865625
 21
15.843437
  0
LINE
  8
0
  6
DASHED
 10
99.865623
 20
27.843437
 11
99.865623
 21
15.843437
  0
LINE
  8
0
  6
DASHED
 10
110.865623
 20
27.843437
 11
110.865623
 21
15.843437
  0
LINE
  8
0
  6
CONTINUOUS
 10
30.595625
 20
142.843445
 11
90.265625
 21
142.843445
  0
LINE
  8
0
  6
CONTINUOUS
 10
12.865625
 20
47.843437
 11
12.865625
 21
56.894779
  0
LINE
  8
0
  6
CONTINUOUS
 10
107.865623
 20
47.843437
 11
107.865623
 21
56.894779
  0
LINE
  8
0
  6
CONTINUOUS
 10
17.865625
 20
42.843437
 11
26.896826
 21
42.843437
  0
LINE
  8
0
  6
CONTINUOUS
 10
102.865623
 20
42.843437
 11
93.814224
 21
42.843437
  0
ARC
  8
0
  6
CONTINUOUS
 10
60.365623
 20
90.343437
 40
57.250000
 50
-32.501888
 51
19.914110
  0
ARC
  8
0
  6
CONTINUOUS
 10
60.365623
 20
90.343437
 40
57.250000
 50
146.974487
 51
212.501907
  0
ARC
  8
0
  6
CONTINUOUS
 10
17.865625
 20
47.843437
 40
5.000000
 50
180.000000
 51
270.000000
  0
ARC
  8
0
  6
CONTINUOUS
 10
102.865623
 20
47.843437
 40
5.000000
 50
-90.000000
 51
0.000000
  0
ARC
  8
0
  6
CONTINUOUS
 10
26.917025
 20
37.843437
 40
5.000000
 50
73.928284
 51
90.230461
  0
ARC
  8
0
  6
CONTINUOUS
 10
93.814224
 20
37.843437
 40
5.000000
 50
90.000000
 51
106.071800
  0
ARC
  8
0
  6
CONTINUOUS
 10
7.865625
 20
56.894779
 40
5.000000
 50
0.000000
 51
32.499691
  0
ARC
  8
0
  6
CONTINUOUS
 10
112.865623
 20
56.894779
 40
5.000000
 50
147.498306
 51
180.000000
  0
LINE
  8
0
  6
CONTINUOUS
 10
94.365623
 20
41.343437
 11
92.365623
 21
41.343437
  0
LINE
  8
0
  6
CONTINUOUS
 10
26.365625
 20
41.343437
 11
28.365625
 21
41.343437
  0
ARC
  8
0
  6
CONTINUOUS
 10
94.365623
 20
45.343437
 40
4.000000
 50
270.000000
 51
322.311005
  0
ARC
  8
0
  6
CONTINUOUS
 10
26.365625
 20
45.343437
 40
4.000000
 50
218.645996
 51
270.000000
  0
LINE
  8
0
  6
CONTINUOUS
 10
150.365631
 20
109.843437
 11
150.365631
 21
131.843445
  0
LINE
  8
0
  6
CONTINUOUS
 10
110.365623
 20
131.843445
 11
150.365631
 21
131.843445
  0
LINE
  8
0
  6
CONTINUOUS
 10
110.365623
 20
109.843437
 11
150.365631
 21
109.843437
  0
LINE
  8
0
  6
CONTINUOUS
 10
110.365623
 20
133.343445
 11
110.365623
 21
108.343437
  0
LINE
  8
0
  6
CONTINUOUS
 10
108.365623
 20
133.343445
 11
110.365623
 21
133.343445
  0
LINE
  8
0
  6
CONTINUOUS
 10
108.365623
 20
108.343437
 11
110.365623
 21
108.343437
  0
ARC
  8
0
  6
CONTINUOUS
 10
118.365623
 20
120.843437
 40
3.000000
 50
90.000000
 51
270.000000
  0
LINE
  8
0
  6
CONTINUOUS
 10
118.365623
 20
123.843437
 11
150.365631
 21
123.843437
  0
LINE
  8
0
  6
CONTINUOUS
 10
118.365623
 20
117.843437
 11
150.365631
 21
117.843437
  0
LINE
  8
0
  6
CENTER
 10
588.083130
 20
79.343437
 11
318.692902
 21
79.343437
  0
LINE
  8
0
  6
CONTINUOUS
 10
361.855652
 20
118.795700
 11
403.442902
 21
117.343437
  0
LINE
  8
0
  6
CONTINUOUS
 10
351.442902
 20
39.527557
 11
403.442902
 21
41.343437
  0
LINE
  8
0
  6
CONTINUOUS
 10
359.442902
 20
146.843445
 11
359.442902
 21
119.843437
  0
LINE
  8
0
  6
CONTINUOUS
 10
358.442902
 20
147.843445
 11
351.442902
 21
147.843445
  0
LINE
  8
0
  6
CONTINUOUS
 10
356.942902
 20
32.843437
 11
351.442902
 21
32.843437
  0
LINE
  8
0
  6
CONTINUOUS
 10
359.442902
 20
120.343437
 11
359.442902
 21
49.430782
  0
LINE
  8
0
  6
CONTINUOUS
 10
403.442902
 20
117.343437
 11
403.442902
 21
41.343437
  0
LINE
  8
0
  6
CONTINUOUS
 10
360.856049
 20
130.661240
 11
386.799469
 21
118.136826
  0
LINE
  8
0
  6
CENTER
 10
286.692902
 20
232.484451
 11
286.692902
 21
397.066254
  0
LINE
  8
0
  6
CENTER
 10
586.368103
 20
328.686157
 11
217.353439
 21
328.686157
  0
LINE
  8
0
  6
CONTINUOUS
 10
337.910919
 20
296.686157
 11
239.164948
 21
296.686157
  0
LINE
  8
0
  6
CONTINUOUS
 10
337.910919
 20
360.686157
 11
239.164948
 21
360.686157
  0
LINE
  8
0
  6
CONTINUOUS
 10
243.754791
 20
270.686157
 11
273.192902
 21
270.686157
  0
LINE
  8
0
  6
CONTINUOUS
 10
329.631012
 20
386.686157
 11
286.692902
 21
386.686157
  0
LINE
  8
0
  6
CONTINUOUS
 10
233.692902
 20
328.686157
 11
234.251465
 21
296.686157
  0
LINE
  8
0
  6
CONTINUOUS
 10
238.860825
 20
274.661896
 11
234.251465
 21
296.686157
  0
ARC
  8
0
  6
CONTINUOUS
 10
243.754791
 20
275.686157
 40
5.000000
 50
191.820602
 51
270.000000
  0
LINE
  8
0
  6
CONTINUOUS
 10
233.692902
 20
328.686157
 11
234.251465
 21
360.686157
  0
LINE
  8
0
  6
CONTINUOUS
 10
238.860825
 20
382.710388
 11
234.251465
 21
360.686157
  0
ARC
  8
0
  6
CONTINUOUS
 10
243.754791
 20
381.686157
 40
5.000000
 50
90.000000
 51
168.179398
  0
LINE
  8
0
  6
CONTINUOUS
 10
266.692902
 20
358.686157
 11
266.692902
 21
298.686157
  0
LINE
  8
0
  6
CONTINUOUS
 10
306.692902
 20
358.686157
 11
306.692902
 21
298.686157
  0
ARC
  8
0
  6
CONTINUOUS
 10
239.164948
 20
301.686157
 40
5.000000
 50
181.000000
 51
270.000000
  0
ARC
  8
0
  6
CONTINUOUS
 10
239.164948
 20
355.686157
 40
5.000000
 50
90.000000
 51
179.000000
  0
LINE
  8
0
  6
CONTINUOUS
 10
343.366394
 20
383.014679
 11
342.909210
 21
365.555267
  0
LINE
  8
0
  6
CONTINUOUS
 10
351.442902
 20
271.186157
 11
351.442902
 21
386.186157
  0
LINE
  8
0
  6
CONTINUOUS
 10
332.877899
 20
310.686157
 11
332.877899
 21
346.686157
  0
LINE
  8
0
  6
CONTINUOUS
 10
351.442902
 20
271.436157
 11
346.365356
 21
271.436157
  0
LINE
  8
0
  6
CONTINUOUS
 10
346.365356
 20
385.936157
 11
351.442902
 21
385.936157
  0
ARC
  8
0
  6
CONTINUOUS
 10
337.910919
 20
365.686157
 40
5.000000
 50
270.000000
 51
358.500000
  0
ARC
  8
0
  6
CONTINUOUS
 10
346.365356
 20
382.936157
 40
3.000000
 50
90.000000
 51
178.500000
  0
LINE
  8
0
  6
CONTINUOUS
 10
343.366394
 20
274.357605
 11
342.909210
 21
291.817017
  0
ARC
  8
0
  6
CONTINUOUS
 10
337.910919
 20
291.686157
 40
5.000000
 50
1.500000
 51
90.000000
  0
ARC
  8
0
  6
CONTINUOUS
 10
346.365356
 20
274.436157
 40
3.000000
 50
-178.500000
 51
-90.000000
  0
LINE
  8
0
  6
CONTINUOUS
 10
334.524963
 20
274.661896
 11
339.104095
 21
296.541687
  0
ARC
  8
0
  6
CONTINUOUS
 10
329.631012
 20
275.686157
 40
5.000000
 50
270.000000
 51
348.179413
  0
LINE
  8
0
  6
CONTINUOUS
 10
334.524963
 20
382.710388
 11
339.104095
 21
360.830597
  0
ARC
  8
0
  6
CONTINUOUS
 10
329.631012
 20
381.686157
 40
5.000000
 50
11.820596
 51
90.000000
  0
LINE
  8
0
  6
CENTER
 10
262.142517
 20
373.686157
 11
241.288330
 21
373.686157
  0
LINE
  8
0
  6
CENTER
 10
251.692902
 20
366.128845
 11
251.692902
 21
382.899689
  0
CIRCLE
  8
0
  6
CONTINUOUS
 10
251.692902
 20
373.686157
 40
5.500000
  0
LINE
  8
0
  6
CENTER
 10
311.243286
 20
373.686157
 11
332.097473
 21
373.686157
  0
LINE
  8
0
  6
CENTER
 10
321.692902
 20
366.128845
 11
321.692902
 21
382.899689
  0
CIRCLE
  8
0
  6
CONTINUOUS
 10
321.692902
 20
373.686157
 40
5.500000
  0
LINE
  8
0
  6
CENTER
 10
262.142517
 20
283.686157
 11
241.288330
 21
283.686157
  0
LINE
  8
0
  6
CENTER
 10
251.692902
 20
291.243439
 11
251.692902
 21
274.472595
  0
CIRCLE
  8
0
  6
CONTINUOUS
 10
251.692902
 20
283.686157
 40
5.500000
  0
LINE
  8
0
  6
CENTER
 10
311.243286
 20
283.686157
 11
332.097473
 21
283.686157
  0
LINE
  8
0
  6
CENTER
 10
321.692902
 20
291.243439
 11
321.692902
 21
274.472595
  0
CIRCLE
  8
0
  6
CONTINUOUS
 10
321.692902
 20
283.686157
 40
5.500000
  0
LINE
  8
0
  6
CONTINUOUS
 10
311.885742
 20
376.686157
 11
261.500061
 21
376.686157
  0
LINE
  8
0
  6
CONTINUOUS
 10
256.536652
 20
366.686157
 11
253.249802
 21
366.686157
  0
ARC
  8
0
  6
CONTINUOUS
 10
261.500061
 20
373.686157
 40
3.000000
 50
90.000000
 51
165.124313
  0
LINE
  8
0
  6
CONTINUOUS
 10
250.350357
 20
364.456329
 11
249.941193
 21
362.915985
  0
ARC
  8
0
  6
CONTINUOUS
 10
253.249802
 20
363.686157
 40
3.000000
 50
90.000000
 51
165.124313
  0
ARC
  8
0
  6
CONTINUOUS
 10
247.041748
 20
363.686157
 40
3.000000
 50
270.000000
 51
345.124329
  0
LINE
  8
0
  6
CONTINUOUS
 10
256.536652
 20
366.686157
 11
258.600586
 21
374.456329
  0
LINE
  8
0
  6
CONTINUOUS
 10
323.035461
 20
364.456329
 11
323.444611
 21
362.915985
  0
ARC
  8
0
  6
CONTINUOUS
 10
320.135986
 20
363.686157
 40
3.000000
 50
14.875682
 51
90.000000
  0
ARC
  8
0
  6
CONTINUOUS
 10
326.344055
 20
363.686157
 40
3.000000
 50
194.875687
 51
270.000000
  0
LINE
  8
0
  6
CONTINUOUS
 10
316.849152
 20
366.686157
 11
320.135986
 21
366.686157
  0
ARC
  8
0
  6
CONTINUOUS
 10
311.885742
 20
373.686157
 40
3.000000
 50
14.875682
 51
90.000000
  0
LINE
  8
0
  6
CONTINUOUS
 10
316.849152
 20
366.686157
 11
314.785187
 21
374.456329
  0
CIRCLE
  8
0
  6
CONTINUOUS
 10
251.692902
 20
283.686157
 40
5.500000
  0
LINE
  8
0
  6
CONTINUOUS
 10
311.885742
 20
280.686157
 11
261.500061
 21
280.686157
  0
LINE
  8
0
  6
CONTINUOUS
 10
256.536652
 20
290.686157
 11
253.249802
 21
290.686157
  0
ARC
  8
0
  6
CONTINUOUS
 10
261.500061
 20
283.686157
 40
3.000000
 50
-165.124313
 51
-90.000000
  0
LINE
  8
0
  6
CONTINUOUS
 10
250.350357
 20
292.915985
 11
249.941208
 21
294.456299
  0
ARC
  8
0
  6
CONTINUOUS
 10
253.249802
 20
293.686157
 40
3.000000
 50
-165.124313
 51
-90.000000
  0
ARC
  8
0
  6
CONTINUOUS
 10
247.041748
 20
293.686157
 40
3.000000
 50
14.875682
 51
90.000000
  0
LINE
  8
0
  6
CONTINUOUS
 10
256.536652
 20
290.686157
 11
258.600586
 21
282.915985
  0
LINE
  8
0
  6
CONTINUOUS
 10
323.035461
 20
292.915985
 11
323.444611
 21
294.456329
  0
ARC
  8
0
  6
CONTINUOUS
 10
320.135986
 20
293.686157
 40
3.000000
 50
270.000000
 51
345.124329
  0
ARC
  8
0
  6
CONTINUOUS
 10
326.344055
 20
293.686157
 40
3.000000
 50
90.000000
 51
165.124313
  0
LINE
  8
0
  6
CONTINUOUS
 10
316.849152
 20
290.686157
 11
320.135986
 21
290.686157
  0
ARC
  8
0
  6
CONTINUOUS
 10
311.885742
 20
283.686157
 40
3.000000
 50
270.000000
 51
345.124329
  0
LINE
  8
0
  6
CONTINUOUS
 10
316.849152
 20
290.686157
 11
314.785187
 21
282.915985
  0
LINE
  8
0
  6
CONTINUOUS
 10
286.692902
 20
386.686157
 11
243.754791
 21
386.686157
  0
LINE
  8
0
  6
CONTINUOUS
 10
297.692902
 20
238.686142
 11
273.192902
 21
238.686142
  0
LINE
  8
0
  6
CONTINUOUS
 10
275.692902
 20
278.686157
 11
275.692902
 21
273.686157
  0
LINE
  8
0
  6
CONTINUOUS
 10
297.692902
 20
278.686157
 11
297.692902
 21
238.686142
  0
LINE
  8
0
  6
CONTINUOUS
 10
274.192902
 20
280.686157
 11
274.192902
 21
278.686157
  0
LINE
  8
0
  6
CONTINUOUS
 10
299.192902
 20
280.686157
 11
299.192902
 21
278.686157
  0
LINE
  8
0
  6
CONTINUOUS
 10
299.192902
 20
278.686157
 11
274.192902
 21
278.686157
  0
LINE
  8
0
  6
CONTINUOUS
 10
273.192902
 20
273.686157
 11
273.192902
 21
238.686142
  0
LINE
  8
0
  6
CONTINUOUS
 10
276.109894
 20
238.686142
 11
276.109894
 21
273.686157
  0
LINE
  8
0
  6
CONTINUOUS
 10
276.109894
 20
273.686157
 11
273.192902
 21
273.686157
  0
LINE
  8
0
  6
CONTINUOUS
 10
297.692902
 20
270.686157
 11
329.809174
 21
270.686157
  0
LINE
  8
0
  6
CONTINUOUS
 10
351.442902
 20
281.186157
 11
346.110046
 21
281.186157
  0
ARC
  8
0
  6
CONTINUOUS
 10
346.110046
 20
284.186157
 40
3.000000
 50
181.500000
 51
270.000000
  0
LINE
  8
0
  6
CONTINUOUS
 10
343.152435
 20
296.686157
 11
351.442902
 21
296.686157
  0
LINE
  8
0
  6
CONTINUOUS
 10
343.152435
 20
360.686157
 11
351.442902
 21
360.686157
  0
LINE
  8
0
  6
CONTINUOUS
 10
351.442902
 20
376.186157
 11
346.110046
 21
376.186157
  0
ARC
  8
0
  6
CONTINUOUS
 10
346.110046
 20
373.186157
 40
3.000000
 50
90.000000
 51
178.500000
  0
LINE
  8
0
  6
CONTINUOUS
 10
36.365623
 20
16.843437
 11
84.365623
 21
16.843437
  0
LINE
  8
0
  6
CONTINUOUS
 10
85.365623
 20
15.843437
 11
84.365623
 21
16.843437
  0
LINE
  8
0
  6
CONTINUOUS
 10
35.365623
 20
15.843437
 11
36.365623
 21
16.843437
  0
LINE
  8
0
  6
CONTINUOUS
 10
85.365623
 20
15.843437
 11
118.365623
 21
15.843437
  0
LINE
  8
0
  6
CONTINUOUS
 10
356.942902
 20
386.186157
 11
351.442902
 21
386.186157
  0
LINE
  8
0
  6
CONTINUOUS
 10
356.942902
 20
271.186157
 11
351.442902
 21
271.186157
  0
LINE
  8
0
  6
CONTINUOUS
 10
359.442902
 20
383.686157
 11
359.442902
 21
273.686157
  0
LINE
  8
0
  6
CONTINUOUS
 10
403.442902
 20
290.686157
 11
403.442902
 21
366.686157
  0
LINE
  8
0
  6
CONTINUOUS
 10
361.855652
 20
289.233887
 11
403.442902
 21
290.686157
  0
LINE
  8
0
  6
CONTINUOUS
 10
361.855652
 20
368.138397
 11
403.442902
 21
366.686157
  0
ARC
  8
0
  6
CONTINUOUS
 10
356.942902
 20
273.686157
 40
2.500000
 50
-90.000000
 51
0.000000
  0
ARC
  8
0
  6
CONTINUOUS
 10
356.942902
 20
383.686157
 40
2.500000
 50
0.000000
 51
90.000000
  0
ARC
  8
0
  6
CONTINUOUS
 10
358.442902
 20
146.843445
 40
1.000000
 50
0.000000
 51
90.000000
  0
ARC
  8
0
  6
CONTINUOUS
 10
361.942902
 20
132.912613
 40
2.500000
 50
180.000000
 51
244.230682
  0
ARC
  8
0
  6
CONTINUOUS
 10
361.942902
 20
121.294174
 40
2.500000
 50
180.000000
 51
268.000000
  0
ARC
  8
0
  6
CONTINUOUS
 10
387.886353
 20
120.388206
 40
2.500000
 50
-115.769325
 51
-92.000000
  0
LINE
  8
0
  6
CONTINUOUS
 10
403.442902
 20
290.686157
 11
403.442902
 21
366.686157
  0
LINE
  8
0
  6
CONTINUOUS
 10
517.442749
 20
290.686157
 11
403.442780
 21
290.686157
  0
LINE
  8
0
  6
CONTINUOUS
 10
517.442749
 20
366.686127
 11
403.442780
 21
366.686127
  0
LINE
  8
0
  6
CONTINUOUS
 10
411.442780
 20
292.686157
 11
411.442780
 21
305.686157
  0
ARC
  8
0
  6
CONTINUOUS
 10
409.442780
 20
292.686157
 40
2.000000
 50
-90.000000
 51
0.000000
  0
ARC
  8
0
  6
CONTINUOUS
 10
409.442780
 20
364.686127
 40
2.000000
 50
0.000000
 51
90.000000
  0
LINE
  8
0
  6
CONTINUOUS
 10
464.442902
 20
305.686157
 11
411.442780
 21
305.686157
  0
LINE
  8
0
  6
CONTINUOUS
 10
464.442902
 20
351.686157
 11
411.442780
 21
351.686157
  0
LINE
  8
0
  6
CONTINUOUS
 10
411.442780
 20
351.686157
 11
411.442780
 21
364.686157
  0
ARC
  8
0
  6
CONTINUOUS
 10
372.273254
 20
328.686157
 40
15.000000
 50
-49.252373
 51
49.252373
  0
LINE
  8
0
  6
CONTINUOUS
 10
360.311066
 20
298.580139
 11
382.064178
 21
317.322266
  0
LINE
  8
0
  6
CONTINUOUS
 10
360.311066
 20
358.792145
 11
382.064178
 21
340.050018
  0
ARC
  8
0
  6
CONTINUOUS
 10
361.942902
 20
296.686188
 40
2.500000
 50
130.747620
 51
180.000000
  0
ARC
  8
0
  6
CONTINUOUS
 10
361.942902
 20
286.735413
 40
2.500000
 50
92.000000
 51
180.000000
  0
ARC
  8
0
  6
CONTINUOUS
 10
361.942902
 20
360.686127
 40
2.500000
 50
180.000000
 51
229.252380
  0
ARC
  8
0
  6
CONTINUOUS
 10
361.942902
 20
370.636871
 40
2.500000
 50
180.000000
 51
268.000000
  0
LINE
  8
0
  6
CONTINUOUS
 10
358.317841
 20
47.189438
 11
351.442902
 21
47.189438
  0
LINE
  8
0
  6
CONTINUOUS
 10
359.442902
 20
35.343437
 11
359.442902
 21
37.392700
  0
ARC
  8
0
  6
CONTINUOUS
 10
356.942902
 20
35.343437
 40
2.500000
 50
-90.000000
 51
0.000000
  0
ARC
  8
0
  6
CONTINUOUS
 10
361.942902
 20
37.392700
 40
2.500000
 50
92.000000
 51
180.000000
  0
ARC
  8
0
  6
CONTINUOUS
 10
60.365623
 20
90.343437
 40
57.500000
 50
236.002823
 51
236.184402
  0
ARC
  8
0
  6
CONTINUOUS
 10
60.365623
 20
90.343437
 40
57.500000
 50
303.815582
 51
303.997162
  0
ARC
  8
0
  6
CONTINUOUS
 10
60.365623
 20
90.343437
 40
57.500000
 50
-33.997124
 51
19.823904
  0
ARC
  8
0
  6
CONTINUOUS
 10
60.365623
 20
90.343437
 40
57.500000
 50
146.593216
 51
213.997131
  0
LINE
  8
0
  6
CENTER
 10
286.692902
 20
173.093445
 11
286.692902
 21
9.593438
  0
LINE
  8
0
  6
CENTER
 10
326.750610
 20
120.843437
 11
241.430618
 21
120.843437
  0
LINE
  8
0
  6
CONTINUOUS
 10
339.692902
 20
15.843438
 11
233.692902
 21
15.843438
  0
LINE
  8
0
  6
CONTINUOUS
 10
305.122314
 20
165.843445
 11
268.263489
 21
165.843445
  0
LINE
  8
0
  6
CONTINUOUS
 10
233.692902
 20
140.233673
 11
233.692902
 21
15.843458
  0
LINE
  8
0
  6
CONTINUOUS
 10
339.692902
 20
40.843437
 11
339.692902
 21
15.843438
  0
LINE
  8
0
  6
CONTINUOUS
 10
351.442902
 20
147.593445
 11
333.819885
 21
147.593445
  0
LINE
  8
0
  6
CONTINUOUS
 10
351.442902
 20
33.093437
 11
344.692902
 21
33.093437
  0
LINE
  8
0
  6
CONTINUOUS
 10
343.442902
 20
44.843437
 11
343.442902
 21
135.843445
  0
LINE
  8
0
  6
CONTINUOUS
 10
235.833893
 20
144.335678
 11
265.404510
 21
164.945419
  0
LINE
  8
0
  6
CONTINUOUS
 10
337.551910
 20
144.335678
 11
307.981293
 21
164.945419
  0
LINE
  8
0
  6
CONTINUOUS
 10
305.754486
 20
27.843437
 11
339.692902
 21
27.843437
  0
LINE
  8
0
  6
CONTINUOUS
 10
300.131287
 20
37.843437
 11
273.254486
 21
37.843437
  0
LINE
  8
0
  6
CONTINUOUS
 10
271.692902
 20
36.405937
 11
271.692902
 21
28.843437
  0
LINE
  8
0
  6
CONTINUOUS
 10
301.692902
 20
36.218437
 11
301.692902
 21
28.843437
  0
LINE
  8
0
  6
CONTINUOUS
 10
303.814087
 20
29.358358
 11
302.071686
 21
36.328518
  0
LINE
  8
0
  6
CONTINUOUS
 10
269.571686
 20
29.358358
 11
271.314087
 21
36.328499
  0
LINE
  8
0
  6
CONTINUOUS
 10
333.692902
 20
26.780937
 11
333.692902
 21
15.843438
  0
LINE
  8
0
  6
CONTINUOUS
 10
239.692902
 20
26.780937
 11
239.692902
 21
15.843438
  0
LINE
  8
0
  6
CENTER
 10
321.692902
 20
31.593437
 11
321.692902
 21
11.593438
  0
LINE
  8
0
  6
CENTER
 10
251.692902
 20
32.593437
 11
251.692902
 21
12.093438
  0
LINE
  8
0
  6
DASHED
 10
327.192902
 20
27.843437
 11
327.192902
 21
15.843438
  0
LINE
  8
0
  6
DASHED
 10
316.192902
 20
27.843437
 11
316.192902
 21
15.843438
  0
LINE
  8
0
  6
DASHED
 10
257.192902
 20
27.843437
 11
257.192902
 21
15.843438
  0
LINE
  8
0
  6
DASHED
 10
246.192902
 20
27.843437
 11
246.192902
 21
15.843438
  0
ARC
  8
0
  6
CONTINUOUS
 10
268.263306
 20
160.843445
 40
5.000000
 50
90.000000
 51
124.875198
  0
ARC
  8
0
  6
CONTINUOUS
 10
305.122314
 20
160.843445
 40
5.000000
 50
55.124401
 51
90.000000
  0
ARC
  8
0
  6
CONTINUOUS
 10
238.692902
 20
140.233673
 40
5.000000
 50
124.875198
 51
180.000000
  0
ARC
  8
0
  6
CONTINUOUS
 10
334.692902
 20
140.233704
 40
5.000000
 50
0.000000
 51
55.124298
  0
LINE
  8
0
  6
CONTINUOUS
 10
351.442902
 20
137.843445
 11
341.692902
 21
137.843445
  0
LINE
  8
0
  6
CONTINUOUS
 10
345.442902
 20
42.843437
 11
351.442902
 21
42.843437
  0
LINE
  8
0
  6
CONTINUOUS
 10
351.442902
 20
122.303436
 11
344.567902
 21
122.303436
  0
LINE
  8
0
  6
CONTINUOUS
 10
351.442902
 20
58.383438
 11
344.442902
 21
58.383438
  0
ARC
  8
0
  6
CONTINUOUS
 10
333.819885
 20
150.593445
 40
3.000000
 50
-124.875397
 51
-90.000000
  0
ARC
  8
0
  6
CONTINUOUS
 10
345.442902
 20
135.843445
 40
2.000000
 50
90.000000
 51
180.000000
  0
ARC
  8
0
  6
CONTINUOUS
 10
341.692902
 20
139.843445
 40
2.000000
 50
180.000000
 51
270.000000
  0
LINE
  8
0
  6
CONTINUOUS
 10
339.692902
 20
140.233704
 11
339.692902
 21
139.843445
  0
ARC
  8
0
  6
CONTINUOUS
 10
341.692902
 20
40.843437
 40
2.000000
 50
90.000000
 51
180.000000
  0
LINE
  8
0
  6
CONTINUOUS
 10
345.442902
 20
42.843437
 11
341.692902
 21
42.843437
  0
ARC
  8
0
  6
CONTINUOUS
 10
345.442902
 20
44.843437
 40
2.000000
 50
180.000000
 51
270.000000
  0
ARC
  8
0
  6
CONTINUOUS
 10
344.692902
 20
28.093418
 40
5.000000
 50
90.000000
 51
180.000000
  0
ARC
  8
0
  6
CONTINUOUS
 10
273.254486
 20
35.843437
 40
2.000000
 50
90.000000
 51
165.963593
  0
ARC
  8
0
  6
CONTINUOUS
 10
300.131287
 20
35.843437
 40
2.000000
 50
14.036100
 51
90.000000
  0
LINE
  8
0
  6
CONTINUOUS
 10
267.631287
 20
27.843437
 11
233.692902
 21
27.843437
  0
ARC
  8
0
  6
CONTINUOUS
 10
305.754486
 20
29.843437
 40
2.000000
 50
-165.963699
 51
-90.000000
  0
LINE
  8
0
  6
CONTINUOUS
 10
267.631287
 20
27.843437
 11
305.754486
 21
27.843437
  0
ARC
  8
0
  6
CONTINUOUS
 10
267.631287
 20
29.843437
 40
2.000000
 50
-90.000000
 51
-14.036190
  0
ARC
  8
0
  6
CONTINUOUS
 10
302.692902
 20
28.843437
 40
1.000000
 50
180.000000
 51
270.000000
  0
ARC
  8
0
  6
CONTINUOUS
 10
270.692902
 20
28.843437
 40
1.000000
 50
-90.000000
 51
0.000000
  0
LINE
  8
0
  6
CONTINUOUS
 10
236.692902
 20
124.343437
 11
236.692902
 21
80.482742
  0
LINE
  8
0
  6
CONTINUOUS
 10
336.692902
 20
125.204117
 11
336.692902
 21
78.870056
  0
ARC
  8
0
  6
CONTINUOUS
 10
286.692902
 20
102.843445
 40
60.000000
 50
48.189621
 51
131.810394
  0
ARC
  8
0
  6
CONTINUOUS
 10
286.692902
 20
102.843445
 40
60.000000
 50
228.189697
 51
309.631744
  0
ARC
  8
0
  6
CONTINUOUS
 10
306.692902
 20
125.204117
 40
30.000000
 50
0.000000
 51
48.189629
  0
CIRCLE
  8
0
  6
CONTINUOUS
 10
286.692902
 20
120.843437
 40
27.500000
  0
ARC
  8
0
  6
CONTINUOUS
 10
286.692902
 20
120.843437
 40
31.750000
 50
7.552697
 51
172.447403
  0
ARC
  8
0
  6
CONTINUOUS
 10
269.942902
 20
79.343437
 40
20.600000
 50
172.447403
 51
270.000000
  0
ARC
  8
0
  6
CONTINUOUS
 10
303.442902
 20
79.343437
 40
20.600000
 50
-90.000000
 51
7.552700
  0
LINE
  8
0
  6
CONTINUOUS
 10
318.167511
 20
125.016602
 11
323.864105
 21
82.051064
  0
LINE
  8
0
  6
CONTINUOUS
 10
249.521698
 20
82.051025
 11
255.218307
 21
125.016541
  0
LINE
  8
0
  6
CONTINUOUS
 10
269.942902
 20
58.743439
 11
303.442902
 21
58.743439
  0
ARC
  8
0
  6
CONTINUOUS
 10
269.942902
 20
79.343437
 40
19.000000
 50
172.447601
 51
270.000000
  0
ARC
  8
0
  6
CONTINUOUS
 10
303.442902
 20
79.343437
 40
19.000000
 50
-90.000000
 51
7.552700
  0
ARC
  8
0
  6
CONTINUOUS
 10
286.692902
 20
120.843437
 40
30.150000
 50
-187.552597
 51
7.552697
  0
LINE
  8
0
  6
CONTINUOUS
 10
251.107697
 20
81.840729
 11
256.804504
 21
124.806259
  0
LINE
  8
0
  6
CONTINUOUS
 10
316.581299
 20
124.806297
 11
322.278107
 21
81.840767
  0
LINE
  8
0
  6
CONTINUOUS
 10
269.942902
 20
60.343437
 11
303.442902
 21
60.343437
  0
LINE
  8
0
  6
CONTINUOUS
 10
276.396515
 20
67.843437
 11
272.236115
 21
67.843437
  0
LINE
  8
0
  6
CONTINUOUS
 10
278.692902
 20
74.812187
 11
278.692902
 21
67.843437
  0
LINE
  8
0
  6
CONTINUOUS
 10
282.692902
 20
77.343437
 11
282.692902
 21
79.843437
  0
LINE
  8
0
  6
CONTINUOUS
 10
290.692902
 20
77.343437
 11
290.692902
 21
79.843437
  0
LINE
  8
0
  6
CONTINUOUS
 10
285.911713
 20
78.374687
 11
285.911713
 21
69.155937
  0
LINE
  8
0
  6
CONTINUOUS
 10
287.411713
 20
78.374687
 11
287.411713
 21
69.155937
  0
LINE
  8
0
  6
CONTINUOUS
 10
295.286713
 20
78.374687
 11
295.286713
 21
69.093437
  0
LINE
  8
0
  6
CONTINUOUS
 10
296.661713
 20
73.452812
 11
296.661713
 21
69.093437
  0
LINE
  8
0
  6
CONTINUOUS
 10
276.794891
 20
78.249687
 11
272.939911
 21
78.249687
  0
LINE
  8
0
  6
CONTINUOUS
 10
272.939911
 20
78.249687
 11
272.036713
 21
77.129692
  0
LINE
  8
0
  6
CONTINUOUS
 10
272.145294
 20
79.843437
 11
270.692902
 21
77.983681
  0
LINE
  8
0
  6
CONTINUOUS
 10
272.036713
 20
70.216354
 11
272.954315
 21
69.249680
  0
LINE
  8
0
  6
CONTINUOUS
 10
270.692902
 20
69.400597
 11
272.236115
 21
67.843437
  0
LINE
  8
0
  6
CONTINUOUS
 10
270.692902
 20
77.983681
 11
270.692902
 21
69.400597
  0
LINE
  8
0
  6
CONTINUOUS
 10
272.036713
 20
77.129692
 11
272.036713
 21
70.216354
  0
LINE
  8
0
  6
CONTINUOUS
 10
277.536713
 20
77.532585
 11
276.779694
 21
78.249687
  0
LINE
  8
0
  6
CONTINUOUS
 10
277.524689
 20
79.843437
 11
278.692902
 21
78.546944
  0
LINE
  8
0
  6
CONTINUOUS
 10
277.536713
 20
77.343437
 11
278.692902
 21
77.343437
  0
LINE
  8
0
  6
CONTINUOUS
 10
272.145294
 20
79.843437
 11
277.524689
 21
79.843437
  0
LINE
  8
0
  6
CONTINUOUS
 10
275.442902
 20
74.812187
 11
278.692902
 21
74.812187
  0
LINE
  8
0
  6
CONTINUOUS
 10
277.536713
 20
73.499687
 11
275.442902
 21
73.499687
  0
LINE
  8
0
  6
CONTINUOUS
 10
275.036713
 20
69.249680
 11
272.954315
 21
69.249680
  0
LINE
  8
0
  6
CONTINUOUS
 10
277.536713
 20
72.249687
 11
277.536713
 21
73.249687
  0
ARC
  8
0
  6
CONTINUOUS
 10
275.036713
 20
71.749680
 40
2.500000
 50
-89.999786
 51
0.000109
  0
LINE
  8
0
  6
CONTINUOUS
 10
277.536713
 20
68.799995
 11
277.536713
 21
67.843437
  0
LINE
  8
0
  6
CONTINUOUS
 10
278.692902
 20
78.546944
 11
278.692902
 21
77.343437
  0
LINE
  8
0
  6
CONTINUOUS
 10
277.536713
 20
73.499687
 11
277.536713
 21
71.749687
  0
LINE
  8
0
  6
CONTINUOUS
 10
275.442902
 20
74.812187
 11
275.442902
 21
73.499687
  0
LINE
  8
0
  6
CONTINUOUS
 10
277.536713
 20
67.843437
 11
278.692902
 21
67.843437
  0
LINE
  8
0
  6
CONTINUOUS
 10
277.536713
 20
68.799995
 11
276.396515
 21
67.843437
  0
LINE
  8
0
  6
CONTINUOUS
 10
287.411713
 20
69.155937
 11
287.911713
 21
69.155937
  0
LINE
  8
0
  6
CONTINUOUS
 10
285.317902
 20
69.155937
 11
285.317902
 21
67.843437
  0
LINE
  8
0
  6
CONTINUOUS
 10
287.911713
 20
69.155937
 11
287.911713
 21
67.843437
  0
LINE
  8
0
  6
CONTINUOUS
 10
289.858490
 20
77.343437
 11
290.692902
 21
77.343437
  0
LINE
  8
0
  6
CONTINUOUS
 10
282.692902
 20
77.343437
 11
283.580902
 21
77.343437
  0
LINE
  8
0
  6
CONTINUOUS
 10
282.692902
 20
79.843437
 11
290.692902
 21
79.843437
  0
LINE
  8
0
  6
CONTINUOUS
 10
285.317902
 20
67.843437
 11
287.911713
 21
67.843437
  0
LINE
  8
0
  6
CONTINUOUS
 10
285.317902
 20
69.155937
 11
285.911713
 21
69.155937
  0
ARC
  8
0
  6
CONTINUOUS
 10
299.489685
 20
76.640312
 40
3.203126
 50
-73.981873
 51
90.003510
  0
ARC
  8
0
  6
CONTINUOUS
 10
299.489685
 20
76.640312
 40
1.954124
 50
-82.585274
 51
62.411850
  0
LINE
  8
0
  6
CONTINUOUS
 10
294.692902
 20
79.843437
 11
299.489685
 21
79.843437
  0
LINE
  8
0
  6
CONTINUOUS
 10
299.741913
 20
74.702522
 11
296.661713
 21
74.702522
  0
LINE
  8
0
  6
CONTINUOUS
 10
294.692902
 20
79.843437
 11
294.692902
 21
78.374687
  0
LINE
  8
0
  6
CONTINUOUS
 10
296.661713
 20
78.374687
 11
296.661713
 21
74.702522
  0
LINE
  8
0
  6
CONTINUOUS
 10
300.373688
 20
73.561546
 11
302.356110
 21
69.093437
  0
LINE
  8
0
  6
CONTINUOUS
 10
299.222107
 20
73.452812
 11
301.098297
 21
69.093437
  0
LINE
  8
0
  6
CONTINUOUS
 10
294.692902
 20
69.093437
 11
295.286713
 21
69.093437
  0
LINE
  8
0
  6
CONTINUOUS
 10
296.661713
 20
69.093437
 11
297.208496
 21
69.093437
  0
LINE
  8
0
  6
CONTINUOUS
 10
297.208496
 20
67.843437
 11
294.692902
 21
67.843437
  0
LINE
  8
0
  6
CONTINUOUS
 10
300.849091
 20
69.093437
 11
301.098297
 21
69.093437
  0
LINE
  8
0
  6
CONTINUOUS
 10
300.849091
 20
67.843437
 11
302.692902
 21
67.843437
  0
LINE
  8
0
  6
CONTINUOUS
 10
300.849091
 20
69.093437
 11
300.849091
 21
67.843437
  0
LINE
  8
0
  6
CONTINUOUS
 10
297.208496
 20
69.093437
 11
297.208496
 21
67.843437
  0
LINE
  8
0
  6
CONTINUOUS
 10
294.692902
 20
69.093437
 11
294.692902
 21
67.843437
  0
LINE
  8
0
  6
CONTINUOUS
 10
284.010712
 20
78.374687
 11
283.580902
 21
77.343437
  0
LINE
  8
0
  6
CONTINUOUS
 10
289.496094
 20
78.374687
 11
289.858490
 21
77.343437
  0
LINE
  8
0
  6
CONTINUOUS
 10
287.411713
 20
78.374687
 11
289.496094
 21
78.374687
  0
LINE
  8
0
  6
CONTINUOUS
 10
285.911713
 20
78.374687
 11
284.010712
 21
78.374687
  0
LINE
  8
0
  6
CONTINUOUS
 10
296.661713
 20
73.452812
 11
299.222107
 21
73.452812
  0
LINE
  8
0
  6
CONTINUOUS
 10
294.692902
 20
78.374687
 11
295.286713
 21
78.374687
  0
LINE
  8
0
  6
CONTINUOUS
 10
296.661713
 20
78.374687
 11
300.394714
 21
78.372261
  0
LINE
  8
0
  6
CONTINUOUS
 10
277.536713
 20
77.532585
 11
277.536713
 21
77.343437
  0
ARC
  8
0
  6
CONTINUOUS
 10
266.692902
 20
125.204140
 40
30.000000
 50
131.810394
 51
181.671204
  0
ARC
  8
0
  6
CONTINUOUS
 10
306.692902
 20
80.482742
 40
30.043320
 50
307.456360
 51
356.922760
  0
ARC
  8
0
  6
CONTINUOUS
 10
266.692902
 20
80.482742
 40
30.000000
 50
180.000000
 51
228.189697
  0
LINE
  8
0
  6
CONTINUOUS
 10
279.192902
 20
123.843437
 11
279.192902
 21
117.843437
  0
LINE
  8
0
  6
CONTINUOUS
 10
273.192902
 20
123.843437
 11
273.192902
 21
117.843437
  0
LINE
  8
0
  6
CONTINUOUS
 10
273.192902
 20
123.843437
 11
279.192902
 21
123.843437
  0
LINE
  8
0
  6
CONTINUOUS
 10
273.192902
 20
117.843437
 11
279.192902
 21
117.843437
  0
ARC
  8
0
  6
CONTINUOUS
 10
286.692902
 20
120.843437
 40
11.000000
 50
-164.173401
 51
164.173401
  0
LINE
  8
0
  6
CONTINUOUS
 10
351.442902
 20
147.843338
 11
351.442902
 21
32.843536
  0
LINE
  8
0
  6
CONTINUOUS
 10
517.442749
 20
366.686127
 11
517.442749
 21
359.686157
  0
LINE
  8
0
  6
CONTINUOUS
 10
517.442749
 20
366.686127
 11
526.942749
 21
366.686127
  0
LINE
  8
0
  6
CONTINUOUS
 10
517.442749
 20
290.686127
 11
526.942749
 21
290.686127
  0
LINE
  8
0
  6
CONTINUOUS
 10
526.442932
 20
305.686127
 11
526.942749
 21
305.686127
  0
LINE
  8
0
  6
CONTINUOUS
 10
526.442932
 20
351.686127
 11
526.942749
 21
351.686127
  0
LINE
  8
0
  6
CONTINUOUS
 10
517.442749
 20
297.686157
 11
517.442749
 21
290.686127
  0
LINE
  8
0
  6
CONTINUOUS
 10
526.942749
 20
288.686127
 11
526.942749
 21
368.686127
  0
LINE
  8
0
  6
CONTINUOUS
 10
570.942749
 20
368.686127
 11
526.942749
 21
368.686127
  0
LINE
  8
0
  6
CONTINUOUS
 10
570.942749
 20
288.686127
 11
526.942749
 21
288.686127
  0
LINE
  8
0
  6
CONTINUOUS
 10
575.942749
 20
293.686127
 11
575.942749
 21
363.686127
  0
ARC
  8
0
  6
CONTINUOUS
 10
570.942749
 20
363.686127
 40
5.000000
 50
0.000000
 51
90.000000
  0
ARC
  8
0
  6
CONTINUOUS
 10
570.942749
 20
293.686127
 40
5.000000
 50
-90.000000
 51
0.000000
  0
LINE
  8
0
  6
CONTINUOUS
 10
573.442749
 20
352.686127
 11
526.942749
 21
352.686127
  0
LINE
  8
0
  6
CONTINUOUS
 10
573.442749
 20
302.686127
 11
526.942749
 21
302.686127
  0
LINE
  8
0
  6
CONTINUOUS
 10
526.942932
 20
117.343414
 11
517.442932
 21
117.343414
  0
LINE
  8
0
  6
CONTINUOUS
 10
526.942932
 20
41.343418
 11
517.442932
 21
41.343418
  0
LINE
  8
0
  6
CONTINUOUS
 10
526.942932
 20
39.343418
 11
526.942932
 21
119.343414
  0
LINE
  8
0
  6
CONTINUOUS
 10
526.942932
 20
109.592415
 11
517.442932
 21
109.592415
  0
LINE
  8
0
  6
CONTINUOUS
 10
526.942932
 20
49.094418
 11
517.442932
 21
49.094418
  0
LINE
  8
0
  6
CONTINUOUS
 10
570.942932
 20
119.343414
 11
526.942932
 21
119.343414
  0
LINE
  8
0
  6
CONTINUOUS
 10
570.942932
 20
39.343418
 11
526.942932
 21
39.343418
  0
LINE
  8
0
  6
CONTINUOUS
 10
575.942932
 20
44.343418
 11
575.942932
 21
114.343414
  0
ARC
  8
0
  6
CONTINUOUS
 10
570.942932
 20
114.343414
 40
5.000000
 50
0.000000
 51
90.000000
  0
ARC
  8
0
  6
CONTINUOUS
 10
570.942932
 20
44.343418
 40
5.000000
 50
-90.000000
 51
0.000000
  0
LINE
  8
0
  6
CONTINUOUS
 10
573.442932
 20
105.343414
 11
526.942932
 21
105.343414
  0
LINE
  8
0
  6
CONTINUOUS
 10
573.442932
 20
55.343418
 11
526.942932
 21
55.343418
  0
LINE
  8
0
  6
CONTINUOUS
 10
517.442932
 20
41.343437
 11
517.442932
 21
117.343414
  0
LINE
  8
0
  6
CONTINUOUS
 10
359.442902
 20
69.943436
 11
403.442902
 21
69.943436
  0
LINE
  8
0
  6
CONTINUOUS
 10
359.442902
 20
59.743439
 11
403.442902
 21
59.743439
  0
LINE
  8
0
  6
CONTINUOUS
 10
91.365623
 20
167.843414
 11
91.365623
 21
165.051773
  0
LINE
  8
0
  6
CONTINUOUS
 10
29.365625
 20
167.843414
 11
29.365625
 21
165.051422
  0
LINE
  8
0
  6
CONTINUOUS
 10
30.365625
 20
168.843414
 11
90.365623
 21
168.843414
  0
LINE
  8
0
  6
CONTINUOUS
 10
90.365623
 20
168.843414
 11
91.365623
 21
167.843414
  0
LINE
  8
0
  6
CONTINUOUS
 10
30.365625
 20
168.843414
 11
29.365625
 21
167.843414
  0
LINE
  8
0
  6
CONTINUOUS
 10
29.365625
 20
167.843414
 11
91.365623
 21
167.843414
  0
LINE
  8
0
  6
CONTINUOUS
 10
524.942932
 20
118.843437
 11
466.442902
 21
118.843437
  0
LINE
  8
0
  6
CONTINUOUS
 10
524.942932
 20
118.843437
 11
524.942932
 21
117.343437
  0
LINE
  8
0
  6
CONTINUOUS
 10
478.942902
 20
118.843437
 11
478.942902
 21
117.343437
  0
LINE
  8
0
  6
CONTINUOUS
 10
526.442932
 20
167.843445
 11
526.442932
 21
120.843437
  0
LINE
  8
0
  6
CONTINUOUS
 10
464.442902
 20
167.843460
 11
464.442902
 21
120.843437
  0
LINE
  8
0
  6
CONTINUOUS
 10
464.442902
 20
120.843437
 11
466.442902
 21
118.843437
  0
LINE
  8
0
  6
CONTINUOUS
 10
526.442932
 20
120.843437
 11
524.442932
 21
118.843437
  0
LINE
  8
0
  6
CONTINUOUS
 10
526.442932
 20
120.843437
 11
464.442902
 21
120.843437
  0
LINE
  8
0
  6
CONTINUOUS
 10
526.442932
 20
130.843460
 11
464.442902
 21
130.843460
  0
LINE
  8
0
  6
CENTER
 10
495.442902
 20
172.272430
 11
495.442902
 21
114.249420
  0
LINE
  8
0
  6
CONTINUOUS
 10
526.442932
 20
131.843460
 11
464.442902
 21
131.843460
  0
LINE
  8
0
  6
CONTINUOUS
 10
525.442932
 20
168.843445
 11
465.442902
 21
168.843460
  0
LINE
  8
0
  6
CONTINUOUS
 10
465.442902
 20
168.843460
 11
464.442902
 21
167.843460
  0
LINE
  8
0
  6
CONTINUOUS
 10
526.442932
 20
167.843445
 11
525.442932
 21
168.843445
  0
LINE
  8
0
  6
CONTINUOUS
 10
526.442932
 20
167.843445
 11
464.442902
 21
167.843460
  0
LINE
  8
0
  6
CENTER
 10
529.067932
 20
151.843460
 11
523.317932
 21
151.843460
  0
LINE
  8
0
  6
CONTINUOUS
 10
527.567932
 20
162.343460
 11
524.442932
 21
162.343460
  0
LINE
  8
0
  6
CONTINUOUS
 10
527.567932
 20
141.343460
 11
524.442932
 21
141.343460
  0
LINE
  8
0
  6
CONTINUOUS
 10
526.442932
 20
299.686157
 11
526.442932
 21
357.686157
  0
LINE
  8
0
  6
CONTINUOUS
 10
464.442902
 20
357.686157
 11
464.442902
 21
299.686157
  0
LINE
  8
0
  6
CENTER
 10
495.442902
 20
292.439911
 11
495.442902
 21
365.132721
  0
LINE
  8
0
  6
CONTINUOUS
 10
524.442932
 20
297.686157
 11
466.442902
 21
297.686157
  0
LINE
  8
0
  6
CONTINUOUS
 10
524.442932
 20
359.686157
 11
466.442902
 21
359.686157
  0
LINE
  8
0
  6
CONTINUOUS
 10
466.442902
 20
297.686157
 11
464.442902
 21
299.686157
  0
LINE
  8
0
  6
CONTINUOUS
 10
464.442902
 20
357.686157
 11
466.442902
 21
359.686157
  0
LINE
  8
0
  6
CONTINUOUS
 10
526.442932
 20
357.686157
 11
524.442932
 21
359.686157
  0
LINE
  8
0
  6
CONTINUOUS
 10
526.442932
 20
299.686157
 11
524.442932
 21
297.686157
  0
LINE
  8
0
  6
CONTINUOUS
 10
472.442902
 20
302.686157
 11
472.442902
 21
297.686157
  0
LINE
  8
0
  6
CONTINUOUS
 10
469.442902
 20
305.686157
 11
464.442902
 21
305.686157
  0
CIRCLE
  8
0
  6
CONTINUOUS
 10
468.442902
 20
301.686157
 40
2.250000
  0
ARC
  8
0
  6
CONTINUOUS
 10
469.442902
 20
302.686157
 40
3.000000
 50
0.000000
 51
90.000000
  0
LINE
  8
0
  6
CONTINUOUS
 10
465.442902
 20
306.686157
 11
465.442902
 21
350.686157
  0
LINE
  8
0
  6
CONTINUOUS
 10
469.442902
 20
306.686157
 11
465.442902
 21
306.686157
  0
ARC
  8
0
  6
CONTINUOUS
 10
469.442902
 20
302.686157
 40
4.000000
 50
0.000000
 51
90.000000
  0
LINE
  8
0
  6
CONTINUOUS
 10
473.442902
 20
298.686157
 11
473.442902
 21
302.686157
  0
LINE
  8
0
  6
CONTINUOUS
 10
465.442902
 20
306.686157
 11
464.442902
 21
305.686157
  0
LINE
  8
0
  6
CONTINUOUS
 10
517.442932
 20
298.686157
 11
473.442902
 21
298.686157
  0
LINE
  8
0
  6
CONTINUOUS
 10
473.442902
 20
298.686157
 11
472.442902
 21
297.686157
  0
LINE
  8
0
  6
CONTINUOUS
 10
521.442932
 20
305.686157
 11
526.442932
 21
305.686157
  0
LINE
  8
0
  6
CONTINUOUS
 10
518.442932
 20
302.686157
 11
518.442932
 21
297.686157
  0
CIRCLE
  8
0
  6
CONTINUOUS
 10
522.442932
 20
301.686157
 40
2.250000
  0
ARC
  8
0
  6
CONTINUOUS
 10
521.442932
 20
302.686157
 40
3.000000
 50
90.000000
 51
180.000000
  0
LINE
  8
0
  6
CONTINUOUS
 10
517.442932
 20
302.686157
 11
517.442932
 21
298.686157
  0
ARC
  8
0
  6
CONTINUOUS
 10
521.442932
 20
302.686157
 40
4.000000
 50
90.000000
 51
180.000000
  0
LINE
  8
0
  6
CONTINUOUS
 10
525.442932
 20
306.686157
 11
521.442932
 21
306.686157
  0
LINE
  8
0
  6
CONTINUOUS
 10
517.442932
 20
298.686157
 11
518.442932
 21
297.686157
  0
LINE
  8
0
  6
CONTINUOUS
 10
525.442932
 20
306.686157
 11
526.442932
 21
305.686157
  0
LINE
  8
0
  6
CONTINUOUS
 10
518.442932
 20
354.686157
 11
518.442932
 21
359.686157
  0
LINE
  8
0
  6
CONTINUOUS
 10
521.442932
 20
351.686157
 11
526.442932
 21
351.686157
  0
CIRCLE
  8
0
  6
CONTINUOUS
 10
522.442932
 20
355.686157
 40
2.250000
  0
ARC
  8
0
  6
CONTINUOUS
 10
521.442932
 20
354.686157
 40
3.000000
 50
180.000000
 51
270.000000
  0
LINE
  8
0
  6
CONTINUOUS
 10
521.442932
 20
350.686157
 11
525.442932
 21
350.686157
  0
ARC
  8
0
  6
CONTINUOUS
 10
521.442932
 20
354.686157
 40
4.000000
 50
180.000000
 51
270.000000
  0
LINE
  8
0
  6
CONTINUOUS
 10
517.442932
 20
358.686157
 11
517.442932
 21
354.686157
  0
LINE
  8
0
  6
CONTINUOUS
 10
525.442932
 20
350.686157
 11
526.442932
 21
351.686157
  0
LINE
  8
0
  6
CONTINUOUS
 10
517.442932
 20
358.686157
 11
518.442932
 21
359.686157
  0
LINE
  8
0
  6
CONTINUOUS
 10
469.442902
 20
351.686157
 11
464.442902
 21
351.686157
  0
LINE
  8
0
  6
CONTINUOUS
 10
472.442902
 20
354.686157
 11
472.442902
 21
359.686157
  0
CIRCLE
  8
0
  6
CONTINUOUS
 10
468.442902
 20
355.686157
 40
2.250000
  0
ARC
  8
0
  6
CONTINUOUS
 10
469.442902
 20
354.686157
 40
3.000000
 50
-90.000000
 51
0.000000
  0
LINE
  8
0
  6
CONTINUOUS
 10
473.442902
 20
354.686157
 11
473.442902
 21
358.686157
  0
ARC
  8
0
  6
CONTINUOUS
 10
469.442902
 20
354.686157
 40
4.000000
 50
-90.000000
 51
0.000000
  0
LINE
  8
0
  6
CONTINUOUS
 10
465.442902
 20
350.686157
 11
469.442902
 21
350.686157
  0
LINE
  8
0
  6
CONTINUOUS
 10
473.442902
 20
358.686157
 11
472.442902
 21
359.686157
  0
LINE
  8
0
  6
CONTINUOUS
 10
465.442902
 20
350.686157
 11
464.442902
 21
351.686157
  0
LINE
  8
0
  6
CONTINUOUS
 10
517.442932
 20
358.686157
 11
473.442902
 21
358.686157
  0
LINE
  8
0
  6
CONTINUOUS
 10
525.442932
 20
306.686157
 11
525.442932
 21
350.686157
  0
TEXT
  8
0
 10
-52.000000
 20
0.000000
 40
4.000000
 41
1.000000
  1
HLMN-22L-300~900-T25WC
 50
0.000000
  0
ENDSEC
  0
EOF
