  0
SECTION
  2
HEADER
  9
$CLAYER
  8
1
  9
$LTSCALE
 40
3.0
  0
ENDSEC
  0
SECTION
  2
TABLES
  0
TABLE
  2
LTYPE
 70
     4
  0
LTYPE
  2
CONTINUOUS
  3
solid line
 70
    64
 72
    65
 73
     0
 40
0.0
  0
LTYPE
  2
DASHED
  3
__ __ __ __ __ __ __ __ __ __ __ __ __ __ __
 70
    64
 72
    65
 73
     2
 40
0.75
 49
0.5
 49
-0.25
  0
LTYPE
  2
CENTER
  3
____ _ ____ _ ____ _ ____ _ ____ _ ____ _ ____
 70
    64
 72
    65
 73
     4
 40
2.0
 49
1.25
 49
-0.25
 49
0.25
 49
-0.25
  0
LTYPE
  2
PHANTOM
  3
_____ _ _ _____ _ _ _____ _ _ _____ _ _ ____
 70
    64
 72
    65
 73
     6
 40
2.5
 49
1.25
 49
-0.25
 49
0.25
 49
-0.25
 49
0.25
 49
-0.25
  0
ENDTAB
  0
TABLE
  2
LAYER
 70
     1
  0
LAYER
  2
0
 70
    64
 62
     7
  6
CONTINUOUS
  0
ENDTAB
  0
TABLE
  2
STYLE
 70
     1
  0
STYLE
  2
STANDARD
 70
     0
 40
0.000000
 41
1.000000
 50
0.000000
 71
     0
 42
3.000000
  3
txt
  4
BIGFONT
  0
ENDTAB
  0
ENDSEC
  0
SECTION
  2
BLOCKS
  0
ENDSEC
  0
SECTION
  2
ENTITIES
  0
LINE
  8
0
  6
CENTER
 10
137.141251
 20
85.620941
 11
256.953278
 21
85.620941
  0
LINE
  8
0
  6
CENTER
 10
288.953278
 20
168.370941
 11
288.953278
 21
4.870937
  0
LINE
  8
0
  6
CENTER
 10
242.382874
 20
116.120941
 11
333.691254
 21
116.120941
  0
LINE
  8
0
  6
CONTINUOUS
 10
235.953278
 20
11.120937
 11
341.953278
 21
11.120937
  0
LINE
  8
0
  6
CONTINUOUS
 10
270.523895
 20
161.120941
 11
307.382690
 21
161.120941
  0
LINE
  8
0
  6
CONTINUOUS
 10
341.953278
 20
135.511185
 11
341.953278
 21
11.120958
  0
LINE
  8
0
  6
CONTINUOUS
 10
235.953278
 20
36.120937
 11
235.953278
 21
11.120937
  0
LINE
  8
0
  6
CONTINUOUS
 10
224.203278
 20
142.870941
 11
241.826279
 21
142.870941
  0
LINE
  8
0
  6
CONTINUOUS
 10
224.203278
 20
28.370937
 11
230.953308
 21
28.370937
  0
LINE
  8
0
  6
CONTINUOUS
 10
232.203278
 20
40.120937
 11
232.203278
 21
131.120941
  0
LINE
  8
0
  6
CONTINUOUS
 10
339.812286
 20
139.613174
 11
310.241669
 21
160.222916
  0
LINE
  8
0
  6
CONTINUOUS
 10
238.094284
 20
139.613174
 11
267.664886
 21
160.222916
  0
LINE
  8
0
  6
CONTINUOUS
 10
269.891693
 20
23.120937
 11
235.953278
 21
23.120937
  0
LINE
  8
0
  6
CONTINUOUS
 10
275.514893
 20
33.120937
 11
302.391693
 21
33.120937
  0
LINE
  8
0
  6
CONTINUOUS
 10
303.953278
 20
31.683437
 11
303.953278
 21
24.120937
  0
LINE
  8
0
  6
CONTINUOUS
 10
273.953278
 20
31.495937
 11
273.953278
 21
24.120937
  0
LINE
  8
0
  6
CONTINUOUS
 10
271.832092
 20
24.635857
 11
273.574493
 21
31.606018
  0
LINE
  8
0
  6
CONTINUOUS
 10
306.074493
 20
24.635857
 11
304.332092
 21
31.605997
  0
LINE
  8
0
  6
CONTINUOUS
 10
241.953278
 20
22.058437
 11
241.953278
 21
11.120937
  0
LINE
  8
0
  6
CONTINUOUS
 10
335.953278
 20
22.058437
 11
335.953278
 21
11.120937
  0
LINE
  8
0
  6
CENTER
 10
253.953278
 20
26.870937
 11
253.953278
 21
6.870937
  0
LINE
  8
0
  6
CENTER
 10
323.953278
 20
27.870937
 11
323.953278
 21
7.370937
  0
LINE
  8
0
  6
DASHED
 10
248.453278
 20
23.120937
 11
248.453278
 21
11.120937
  0
LINE
  8
0
  6
DASHED
 10
259.453278
 20
23.120937
 11
259.453278
 21
11.120937
  0
LINE
  8
0
  6
DASHED
 10
318.453278
 20
23.120937
 11
318.453278
 21
11.120937
  0
LINE
  8
0
  6
DASHED
 10
329.453278
 20
23.120937
 11
329.453278
 21
11.120937
  0
ARC
  8
0
  6
CONTINUOUS
 10
307.382690
 20
156.120941
 40
5.000000
 50
55.124809
 51
90.000000
  0
ARC
  8
0
  6
CONTINUOUS
 10
270.523895
 20
156.120941
 40
5.000000
 50
90.000000
 51
124.875603
  0
ARC
  8
0
  6
CONTINUOUS
 10
336.953278
 20
135.511185
 40
5.000000
 50
0.000000
 51
55.124851
  0
ARC
  8
0
  6
CONTINUOUS
 10
240.953278
 20
135.511200
 40
5.000000
 50
124.875702
 51
180.000000
  0
LINE
  8
0
  6
CONTINUOUS
 10
224.203278
 20
133.120941
 11
233.953278
 21
133.120941
  0
LINE
  8
0
  6
CONTINUOUS
 10
230.203278
 20
38.120937
 11
224.203278
 21
38.120937
  0
LINE
  8
0
  6
CONTINUOUS
 10
224.203278
 20
117.580940
 11
231.078278
 21
117.580940
  0
LINE
  8
0
  6
CONTINUOUS
 10
224.203278
 20
53.660938
 11
231.203278
 21
53.660938
  0
ARC
  8
0
  6
CONTINUOUS
 10
241.826080
 20
145.870941
 40
3.000000
 50
270.000000
 51
304.875397
  0
ARC
  8
0
  6
CONTINUOUS
 10
230.203308
 20
131.120941
 40
2.000000
 50
0.000000
 51
90.000000
  0
ARC
  8
0
  6
CONTINUOUS
 10
233.953278
 20
135.120941
 40
2.000000
 50
-90.000000
 51
0.000000
  0
LINE
  8
0
  6
CONTINUOUS
 10
235.953308
 20
135.511200
 11
235.953278
 21
135.120941
  0
ARC
  8
0
  6
CONTINUOUS
 10
233.953278
 20
36.120937
 40
2.000000
 50
0.000000
 51
90.000000
  0
LINE
  8
0
  6
CONTINUOUS
 10
230.203278
 20
38.120937
 11
233.953278
 21
38.120937
  0
ARC
  8
0
  6
CONTINUOUS
 10
230.203278
 20
40.120937
 40
2.000000
 50
-90.000000
 51
0.000000
  0
ARC
  8
0
  6
CONTINUOUS
 10
230.953308
 20
23.370916
 40
5.000000
 50
0.000000
 51
90.000000
  0
ARC
  8
0
  6
CONTINUOUS
 10
302.391693
 20
31.120937
 40
2.000000
 50
14.036440
 51
90.000000
  0
ARC
  8
0
  6
CONTINUOUS
 10
275.514893
 20
31.120937
 40
2.000000
 50
90.000000
 51
165.963898
  0
LINE
  8
0
  6
CONTINUOUS
 10
308.014893
 20
23.120937
 11
341.953278
 21
23.120937
  0
ARC
  8
0
  6
CONTINUOUS
 10
269.891693
 20
25.120937
 40
2.000000
 50
270.000000
 51
345.963715
  0
LINE
  8
0
  6
CONTINUOUS
 10
308.014893
 20
23.120937
 11
269.891693
 21
23.120937
  0
ARC
  8
0
  6
CONTINUOUS
 10
308.014893
 20
25.120937
 40
2.000000
 50
194.036194
 51
270.000000
  0
ARC
  8
0
  6
CONTINUOUS
 10
272.953278
 20
24.120937
 40
1.000000
 50
-90.000000
 51
0.000000
  0
ARC
  8
0
  6
CONTINUOUS
 10
304.953278
 20
24.120937
 40
1.000000
 50
180.000000
 51
270.000000
  0
CIRCLE
  8
0
  6
CONTINUOUS
 10
288.953278
 20
116.120941
 40
27.500000
  0
ARC
  8
0
  6
CONTINUOUS
 10
288.953278
 20
116.120941
 40
31.750000
 50
7.552697
 51
172.447403
  0
ARC
  8
0
  6
CONTINUOUS
 10
272.203278
 20
74.620941
 40
20.600000
 50
172.447403
 51
270.000000
  0
ARC
  8
0
  6
CONTINUOUS
 10
305.703278
 20
74.620941
 40
20.600000
 50
-90.000000
 51
7.552700
  0
LINE
  8
0
  6
CONTINUOUS
 10
320.427887
 20
120.294098
 11
326.124481
 21
77.328568
  0
LINE
  8
0
  6
CONTINUOUS
 10
251.782074
 20
77.328529
 11
257.478668
 21
120.294037
  0
LINE
  8
0
  6
CONTINUOUS
 10
272.203278
 20
54.020939
 11
305.703278
 21
54.020939
  0
ARC
  8
0
  6
CONTINUOUS
 10
272.203278
 20
74.620941
 40
19.000000
 50
172.447601
 51
270.000000
  0
ARC
  8
0
  6
CONTINUOUS
 10
305.703278
 20
74.620941
 40
19.000000
 50
-90.000000
 51
7.552700
  0
ARC
  8
0
  6
CONTINUOUS
 10
288.953278
 20
116.120941
 40
30.150000
 50
-187.552597
 51
7.552697
  0
LINE
  8
0
  6
CONTINUOUS
 10
253.368088
 20
77.118225
 11
259.064880
 21
120.083755
  0
LINE
  8
0
  6
CONTINUOUS
 10
318.841675
 20
120.083794
 11
324.538483
 21
77.118263
  0
LINE
  8
0
  6
CONTINUOUS
 10
272.203278
 20
55.620937
 11
305.703278
 21
55.620937
  0
LINE
  8
0
  6
CONTINUOUS
 10
278.656891
 20
63.120937
 11
274.496490
 21
63.120937
  0
LINE
  8
0
  6
CONTINUOUS
 10
280.953278
 20
70.089691
 11
280.953278
 21
63.120937
  0
LINE
  8
0
  6
CONTINUOUS
 10
284.953278
 20
72.620941
 11
284.953278
 21
75.120941
  0
LINE
  8
0
  6
CONTINUOUS
 10
292.953278
 20
72.620941
 11
292.953278
 21
75.120941
  0
LINE
  8
0
  6
CONTINUOUS
 10
288.172089
 20
73.652191
 11
288.172089
 21
64.433441
  0
LINE
  8
0
  6
CONTINUOUS
 10
289.672089
 20
73.652191
 11
289.672089
 21
64.433441
  0
LINE
  8
0
  6
CONTINUOUS
 10
297.547089
 20
73.652191
 11
297.547089
 21
64.370941
  0
LINE
  8
0
  6
CONTINUOUS
 10
298.922089
 20
68.730309
 11
298.922089
 21
64.370941
  0
LINE
  8
0
  6
CONTINUOUS
 10
279.055267
 20
73.527191
 11
275.200287
 21
73.527191
  0
LINE
  8
0
  6
CONTINUOUS
 10
275.200287
 20
73.527191
 11
274.297089
 21
72.407188
  0
LINE
  8
0
  6
CONTINUOUS
 10
274.405670
 20
75.120941
 11
272.953278
 21
73.261177
  0
LINE
  8
0
  6
CONTINUOUS
 10
274.297089
 20
65.493858
 11
275.214691
 21
64.527176
  0
LINE
  8
0
  6
CONTINUOUS
 10
272.953278
 20
64.678101
 11
274.496490
 21
63.120937
  0
LINE
  8
0
  6
CONTINUOUS
 10
272.953278
 20
73.261177
 11
272.953278
 21
64.678101
  0
LINE
  8
0
  6
CONTINUOUS
 10
274.297089
 20
72.407188
 11
274.297089
 21
65.493858
  0
LINE
  8
0
  6
CONTINUOUS
 10
279.797089
 20
72.810081
 11
279.040070
 21
73.527191
  0
LINE
  8
0
  6
CONTINUOUS
 10
279.785095
 20
75.120941
 11
280.953278
 21
73.824448
  0
LINE
  8
0
  6
CONTINUOUS
 10
279.797089
 20
72.620941
 11
280.953278
 21
72.620941
  0
LINE
  8
0
  6
CONTINUOUS
 10
274.405670
 20
75.120941
 11
279.785095
 21
75.120941
  0
LINE
  8
0
  6
CONTINUOUS
 10
277.703278
 20
70.089691
 11
280.953278
 21
70.089691
  0
LINE
  8
0
  6
CONTINUOUS
 10
279.797089
 20
68.777191
 11
277.703278
 21
68.777191
  0
LINE
  8
0
  6
CONTINUOUS
 10
277.297089
 20
64.527176
 11
275.214691
 21
64.527176
  0
LINE
  8
0
  6
CONTINUOUS
 10
279.797089
 20
67.527191
 11
279.797089
 21
68.527191
  0
ARC
  8
0
  6
CONTINUOUS
 10
277.297089
 20
67.027184
 40
2.500000
 50
-89.999786
 51
0.000109
  0
LINE
  8
0
  6
CONTINUOUS
 10
279.797089
 20
64.077499
 11
279.797089
 21
63.120937
  0
LINE
  8
0
  6
CONTINUOUS
 10
280.953278
 20
73.824448
 11
280.953278
 21
72.620941
  0
LINE
  8
0
  6
CONTINUOUS
 10
279.797089
 20
68.777191
 11
279.797089
 21
67.027184
  0
LINE
  8
0
  6
CONTINUOUS
 10
277.703278
 20
70.089691
 11
277.703278
 21
68.777191
  0
LINE
  8
0
  6
CONTINUOUS
 10
279.797089
 20
63.120937
 11
280.953278
 21
63.120937
  0
LINE
  8
0
  6
CONTINUOUS
 10
279.797089
 20
64.077499
 11
278.656891
 21
63.120937
  0
LINE
  8
0
  6
CONTINUOUS
 10
289.672089
 20
64.433441
 11
290.172089
 21
64.433441
  0
LINE
  8
0
  6
CONTINUOUS
 10
287.578278
 20
64.433441
 11
287.578278
 21
63.120937
  0
LINE
  8
0
  6
CONTINUOUS
 10
290.172089
 20
64.433441
 11
290.172089
 21
63.120937
  0
LINE
  8
0
  6
CONTINUOUS
 10
292.118866
 20
72.620941
 11
292.953278
 21
72.620941
  0
LINE
  8
0
  6
CONTINUOUS
 10
284.953278
 20
72.620941
 11
285.841278
 21
72.620941
  0
LINE
  8
0
  6
CONTINUOUS
 10
284.953278
 20
75.120941
 11
292.953278
 21
75.120941
  0
LINE
  8
0
  6
CONTINUOUS
 10
287.578278
 20
63.120937
 11
290.172089
 21
63.120937
  0
LINE
  8
0
  6
CONTINUOUS
 10
287.578278
 20
64.433441
 11
288.172089
 21
64.433441
  0
ARC
  8
0
  6
CONTINUOUS
 10
301.750275
 20
71.917816
 40
3.203126
 50
-73.981873
 51
90.003510
  0
ARC
  8
0
  6
CONTINUOUS
 10
301.750275
 20
71.917816
 40
1.954125
 50
-82.585274
 51
62.411850
  0
LINE
  8
0
  6
CONTINUOUS
 10
296.953278
 20
75.120941
 11
301.750275
 21
75.120941
  0
LINE
  8
0
  6
CONTINUOUS
 10
302.002289
 20
69.980026
 11
298.922089
 21
69.980026
  0
LINE
  8
0
  6
CONTINUOUS
 10
296.953278
 20
75.120941
 11
296.953278
 21
73.652191
  0
LINE
  8
0
  6
CONTINUOUS
 10
298.922089
 20
73.652191
 11
298.922089
 21
69.980026
  0
LINE
  8
0
  6
CONTINUOUS
 10
302.634094
 20
68.839050
 11
304.616486
 21
64.370941
  0
LINE
  8
0
  6
CONTINUOUS
 10
301.482483
 20
68.730309
 11
303.358673
 21
64.370941
  0
LINE
  8
0
  6
CONTINUOUS
 10
296.953278
 20
64.370941
 11
297.547089
 21
64.370941
  0
LINE
  8
0
  6
CONTINUOUS
 10
298.922089
 20
64.370941
 11
299.468872
 21
64.370941
  0
LINE
  8
0
  6
CONTINUOUS
 10
299.468872
 20
63.120937
 11
296.953278
 21
63.120937
  0
LINE
  8
0
  6
CONTINUOUS
 10
303.109467
 20
64.370941
 11
303.358673
 21
64.370941
  0
LINE
  8
0
  6
CONTINUOUS
 10
304.616486
 20
64.370941
 11
304.953278
 21
64.370941
  0
LINE
  8
0
  6
CONTINUOUS
 10
303.109467
 20
63.120937
 11
304.953278
 21
63.120937
  0
LINE
  8
0
  6
CONTINUOUS
 10
304.953278
 20
64.370941
 11
304.953278
 21
63.120937
  0
LINE
  8
0
  6
CONTINUOUS
 10
303.109467
 20
64.370941
 11
303.109467
 21
63.120937
  0
LINE
  8
0
  6
CONTINUOUS
 10
299.468872
 20
64.370941
 11
299.468872
 21
63.120937
  0
LINE
  8
0
  6
CONTINUOUS
 10
296.953278
 20
64.370941
 11
296.953278
 21
63.120937
  0
LINE
  8
0
  6
CONTINUOUS
 10
286.271088
 20
73.652191
 11
285.841278
 21
72.620941
  0
LINE
  8
0
  6
CONTINUOUS
 10
291.756470
 20
73.652191
 11
292.118866
 21
72.620941
  0
LINE
  8
0
  6
CONTINUOUS
 10
289.672089
 20
73.652191
 11
291.756470
 21
73.652191
  0
LINE
  8
0
  6
CONTINUOUS
 10
288.172089
 20
73.652191
 11
286.271088
 21
73.652191
  0
LINE
  8
0
  6
CONTINUOUS
 10
298.922089
 20
68.730309
 11
301.482483
 21
68.730309
  0
LINE
  8
0
  6
CONTINUOUS
 10
296.953278
 20
73.652191
 11
297.547089
 21
73.652191
  0
LINE
  8
0
  6
CONTINUOUS
 10
298.922089
 20
73.652191
 11
302.655090
 21
73.649757
  0
LINE
  8
0
  6
CONTINUOUS
 10
279.797089
 20
72.810081
 11
279.797089
 21
72.620941
  0
LINE
  8
0
  6
CONTINUOUS
 10
224.203308
 20
143.120941
 11
224.203278
 21
28.120937
  0
LINE
  8
0
  6
CONTINUOUS
 10
58.203281
 20
112.620918
 11
172.203278
 21
112.620918
  0
LINE
  8
0
  6
CONTINUOUS
 10
58.203281
 20
36.620956
 11
172.203278
 21
36.620956
  0
LINE
  8
0
  6
CONTINUOUS
 10
58.203281
 20
104.869919
 11
164.203278
 21
104.869919
  0
LINE
  8
0
  6
CONTINUOUS
 10
58.203281
 20
44.371960
 11
164.203278
 21
44.371960
  0
LINE
  8
0
  6
CONTINUOUS
 10
164.203278
 20
110.620918
 11
164.203278
 21
38.620937
  0
ARC
  8
0
  6
CONTINUOUS
 10
166.203278
 20
110.620941
 40
2.000000
 50
90.000000
 51
180.000000
  0
ARC
  8
0
  6
CONTINUOUS
 10
166.203278
 20
38.620956
 40
2.000000
 50
180.000000
 51
270.000000
  0
LINE
  8
0
  6
CENTER
 10
508.863739
 20
-4.504083
 11
508.863739
 21
175.045944
  0
LINE
  8
0
  6
CENTER
 10
438.638763
 20
85.620941
 11
577.763733
 21
85.620941
  0
LINE
  8
0
  6
CENTER
 10
407.113739
 20
116.120941
 11
570.736694
 21
116.120941
  0
LINE
  8
0
  6
CONTINUOUS
 10
450.863739
 20
11.120937
 11
483.863739
 21
11.120937
  0
LINE
  8
0
  6
CONTINUOUS
 10
450.863739
 20
21.747337
 11
450.863739
 21
11.120937
  0
LINE
  8
0
  6
CONTINUOUS
 10
566.863770
 20
21.747337
 11
566.863770
 21
11.120937
  0
LINE
  8
0
  6
CONTINUOUS
 10
452.863739
 20
23.120937
 11
473.863739
 21
23.120937
  0
LINE
  8
0
  6
CONTINUOUS
 10
564.863770
 20
23.120937
 11
543.863770
 21
23.120937
  0
LINE
  8
0
  6
CONTINUOUS
 10
476.863739
 20
34.494537
 11
476.863739
 21
158.596863
  0
LINE
  8
0
  6
CONTINUOUS
 10
540.863770
 20
34.494537
 11
540.863770
 21
158.597214
  0
LINE
  8
0
  6
CONTINUOUS
 10
538.898560
 20
160.596924
 11
508.863739
 21
161.120941
  0
LINE
  8
0
  6
CONTINUOUS
 10
478.828735
 20
160.596573
 11
508.863739
 21
161.120941
  0
ARC
  8
0
  6
CONTINUOUS
 10
478.863739
 20
158.596878
 40
2.000000
 50
91.000580
 51
180.000000
  0
ARC
  8
0
  6
CONTINUOUS
 10
538.863770
 20
158.597214
 40
2.000000
 50
0.000000
 51
89.000519
  0
LINE
  8
0
  6
CONTINUOUS
 10
540.863770
 20
26.120937
 11
540.863770
 21
11.120937
  0
ARC
  8
0
  6
CONTINUOUS
 10
543.863770
 20
26.120937
 40
3.000000
 50
180.000000
 51
270.000000
  0
LINE
  8
0
  6
CONTINUOUS
 10
476.863739
 20
26.120937
 11
476.863739
 21
11.120937
  0
ARC
  8
0
  6
CONTINUOUS
 10
473.863739
 20
26.120916
 40
3.000000
 50
-90.000000
 51
0.000000
  0
ARC
  8
0
  6
CONTINUOUS
 10
452.863739
 20
21.120937
 40
2.000000
 50
90.000000
 51
180.000000
  0
ARC
  8
0
  6
CONTINUOUS
 10
564.863770
 20
21.120937
 40
2.000000
 50
0.000000
 51
90.000000
  0
LINE
  8
0
  6
CENTER
 10
463.863739
 20
27.410938
 11
463.863739
 21
7.010938
  0
LINE
  8
0
  6
CENTER
 10
553.863770
 20
28.430939
 11
553.863770
 21
6.500937
  0
LINE
  8
0
  6
CONTINUOUS
 10
475.581757
 20
32.627857
 11
452.145752
 21
23.614038
  0
ARC
  8
0
  6
CONTINUOUS
 10
452.863739
 20
21.747356
 40
2.000000
 50
111.037903
 51
180.000000
  0
LINE
  8
0
  6
CONTINUOUS
 10
476.863739
 20
34.494537
 11
476.863739
 21
26.120937
  0
ARC
  8
0
  6
CONTINUOUS
 10
474.863739
 20
34.494537
 40
2.000000
 50
-68.962189
 51
0.000000
  0
LINE
  8
0
  6
CONTINUOUS
 10
542.145752
 20
32.627838
 11
565.581726
 21
23.614038
  0
ARC
  8
0
  6
CONTINUOUS
 10
564.863770
 20
21.747337
 40
2.000000
 50
0.000000
 51
68.962646
  0
LINE
  8
0
  6
CONTINUOUS
 10
540.863770
 20
34.494537
 11
540.863770
 21
26.120937
  0
ARC
  8
0
  6
CONTINUOUS
 10
542.863770
 20
34.494556
 40
2.000000
 50
180.000000
 51
248.962799
  0
LINE
  8
0
  6
CONTINUOUS
 10
460.863739
 20
90.928085
 11
460.863739
 21
141.313782
  0
LINE
  8
0
  6
CONTINUOUS
 10
556.863770
 20
90.928093
 11
556.863770
 21
141.313782
  0
LINE
  8
0
  6
CONTINUOUS
 10
546.863770
 20
57.925777
 11
546.863770
 21
118.190941
  0
LINE
  8
0
  6
CONTINUOUS
 10
470.863739
 20
57.925777
 11
470.863739
 21
118.190941
  0
LINE
  8
0
  6
CONTINUOUS
 10
554.633972
 20
144.213242
 11
543.093567
 21
147.278641
  0
LINE
  8
0
  6
CONTINUOUS
 10
554.633972
 20
88.028633
 11
549.093567
 21
86.556984
  0
LINE
  8
0
  6
CONTINUOUS
 10
544.636780
 20
55.027077
 11
543.090759
 21
54.614796
  0
LINE
  8
0
  6
CONTINUOUS
 10
473.090759
 20
55.027058
 11
474.636749
 21
54.614796
  0
LINE
  8
0
  6
CONTINUOUS
 10
463.093536
 20
88.028633
 11
468.633942
 21
86.556984
  0
LINE
  8
0
  6
CONTINUOUS
 10
463.093536
 20
144.213242
 11
474.633942
 21
147.278641
  0
ARC
  8
0
  6
CONTINUOUS
 10
463.863739
 20
141.313797
 40
3.000000
 50
104.876099
 51
180.000000
  0
ARC
  8
0
  6
CONTINUOUS
 10
463.863739
 20
90.928108
 40
3.000000
 50
180.000000
 51
255.124603
  0
ARC
  8
0
  6
CONTINUOUS
 10
553.863770
 20
141.313782
 40
3.000000
 50
0.000000
 51
75.124413
  0
ARC
  8
0
  6
CONTINUOUS
 10
553.863770
 20
90.928085
 40
3.000000
 50
-75.124207
 51
0.000000
  0
ARC
  8
0
  6
CONTINUOUS
 10
473.863739
 20
57.925797
 40
3.000000
 50
180.000000
 51
255.069000
  0
ARC
  8
0
  6
CONTINUOUS
 10
543.863770
 20
57.925777
 40
3.000000
 50
-75.068420
 51
0.000000
  0
ARC
  8
0
  6
CONTINUOUS
 10
543.863770
 20
150.178116
 40
3.000000
 50
180.000000
 51
255.124603
  0
ARC
  8
0
  6
CONTINUOUS
 10
549.863770
 20
83.657547
 40
3.000000
 50
104.876099
 51
180.000000
  0
ARC
  8
0
  6
CONTINUOUS
 10
543.863770
 20
51.716118
 40
3.000000
 50
104.931801
 51
180.000000
  0
ARC
  8
0
  6
CONTINUOUS
 10
473.863739
 20
51.716099
 40
3.000000
 50
0.000000
 51
75.068779
  0
ARC
  8
0
  6
CONTINUOUS
 10
467.863739
 20
83.657516
 40
3.000000
 50
0.000000
 51
75.124496
  0
ARC
  8
0
  6
CONTINUOUS
 10
473.863739
 20
150.178085
 40
3.000000
 50
-75.124153
 51
0.000000
  0
LINE
  8
0
  6
DASHED
 10
458.363739
 20
23.120937
 11
458.363739
 21
11.120937
  0
LINE
  8
0
  6
DASHED
 10
469.363739
 20
23.120937
 11
469.363739
 21
11.120937
  0
LINE
  8
0
  6
DASHED
 10
548.363770
 20
23.120937
 11
548.363770
 21
11.120937
  0
LINE
  8
0
  6
DASHED
 10
559.363770
 20
23.120937
 11
559.363770
 21
11.120937
  0
LINE
  8
0
  6
CONTINUOUS
 10
479.093750
 20
138.120941
 11
538.763733
 21
138.120941
  0
LINE
  8
0
  6
CONTINUOUS
 10
461.363739
 20
43.120937
 11
461.363739
 21
52.172279
  0
LINE
  8
0
  6
CONTINUOUS
 10
556.363770
 20
43.120937
 11
556.363770
 21
52.172279
  0
LINE
  8
0
  6
CONTINUOUS
 10
466.363739
 20
38.120937
 11
475.394958
 21
38.120937
  0
LINE
  8
0
  6
CONTINUOUS
 10
551.363770
 20
38.120937
 11
542.312378
 21
38.120937
  0
ARC
  8
0
  6
CONTINUOUS
 10
508.863739
 20
85.620941
 40
57.250000
 50
-32.501888
 51
33.025517
  0
ARC
  8
0
  6
CONTINUOUS
 10
508.863739
 20
85.620941
 40
57.250000
 50
160.085907
 51
212.501907
  0
ARC
  8
0
  6
CONTINUOUS
 10
466.363739
 20
43.120937
 40
5.000000
 50
180.000000
 51
270.000000
  0
ARC
  8
0
  6
CONTINUOUS
 10
551.363770
 20
43.120937
 40
5.000000
 50
-90.000000
 51
0.000000
  0
ARC
  8
0
  6
CONTINUOUS
 10
475.415161
 20
33.120937
 40
5.000000
 50
73.928284
 51
90.230461
  0
ARC
  8
0
  6
CONTINUOUS
 10
542.312378
 20
33.120937
 40
5.000000
 50
90.000000
 51
106.071800
  0
ARC
  8
0
  6
CONTINUOUS
 10
456.363739
 20
52.172279
 40
5.000000
 50
0.000000
 51
32.499691
  0
ARC
  8
0
  6
CONTINUOUS
 10
561.363770
 20
52.172279
 40
5.000000
 50
147.498306
 51
180.000000
  0
LINE
  8
0
  6
CONTINUOUS
 10
542.863770
 20
36.620937
 11
540.863770
 21
36.620937
  0
LINE
  8
0
  6
CONTINUOUS
 10
474.863739
 20
36.620937
 11
476.863739
 21
36.620937
  0
ARC
  8
0
  6
CONTINUOUS
 10
542.863770
 20
40.620937
 40
4.000000
 50
270.000000
 51
322.311005
  0
ARC
  8
0
  6
CONTINUOUS
 10
474.863739
 20
40.620937
 40
4.000000
 50
218.645996
 51
270.000000
  0
LINE
  8
0
  6
CONTINUOUS
 10
296.453278
 20
113.120956
 11
296.453278
 21
119.120956
  0
LINE
  8
0
  6
CONTINUOUS
 10
302.453278
 20
113.120979
 11
302.453278
 21
119.120979
  0
LINE
  8
0
  6
CONTINUOUS
 10
302.453278
 20
113.120979
 11
296.453278
 21
113.120956
  0
LINE
  8
0
  6
CONTINUOUS
 10
302.453278
 20
119.120979
 11
296.453278
 21
119.120956
  0
ARC
  8
0
  6
CONTINUOUS
 10
288.953278
 20
116.120941
 40
11.000000
 50
15.826600
 51
344.173401
  0
LINE
  8
0
  6
CONTINUOUS
 10
418.863739
 20
105.120941
 11
418.863739
 21
127.120941
  0
LINE
  8
0
  6
CONTINUOUS
 10
458.863739
 20
127.120941
 11
418.863739
 21
127.120941
  0
LINE
  8
0
  6
CONTINUOUS
 10
458.863739
 20
105.120941
 11
418.863739
 21
105.120941
  0
LINE
  8
0
  6
CONTINUOUS
 10
458.863739
 20
128.620941
 11
458.863739
 21
103.620941
  0
LINE
  8
0
  6
CONTINUOUS
 10
460.863739
 20
128.620941
 11
458.863739
 21
128.620941
  0
LINE
  8
0
  6
CONTINUOUS
 10
460.863739
 20
103.620941
 11
458.863739
 21
103.620941
  0
ARC
  8
0
  6
CONTINUOUS
 10
450.863739
 20
116.120941
 40
3.000000
 50
-90.000000
 51
90.000000
  0
LINE
  8
0
  6
CONTINUOUS
 10
450.863739
 20
119.120941
 11
418.863739
 21
119.120941
  0
LINE
  8
0
  6
CONTINUOUS
 10
450.863739
 20
113.120941
 11
418.863739
 21
113.120941
  0
LINE
  8
0
  6
CENTER
 10
-12.281250
 20
74.620941
 11
256.953278
 21
74.620941
  0
LINE
  8
0
  6
CONTINUOUS
 10
213.790527
 20
114.073196
 11
172.203278
 21
112.620941
  0
LINE
  8
0
  6
CONTINUOUS
 10
224.203278
 20
34.805058
 11
172.203278
 21
36.620937
  0
LINE
  8
0
  6
CONTINUOUS
 10
216.203278
 20
142.120941
 11
216.203278
 21
115.120941
  0
LINE
  8
0
  6
CONTINUOUS
 10
217.203278
 20
143.120941
 11
224.203308
 21
143.120941
  0
LINE
  8
0
  6
CONTINUOUS
 10
218.703278
 20
28.120937
 11
224.203278
 21
28.120937
  0
LINE
  8
0
  6
CONTINUOUS
 10
216.203278
 20
115.620941
 11
216.203278
 21
44.708282
  0
LINE
  8
0
  6
CONTINUOUS
 10
172.203278
 20
112.620941
 11
172.203278
 21
36.620937
  0
LINE
  8
0
  6
CONTINUOUS
 10
214.790146
 20
125.938744
 11
188.846725
 21
113.414330
  0
LINE
  8
0
  6
CENTER
 10
288.953278
 20
390.621368
 11
288.953278
 21
220.437286
  0
LINE
  8
0
  6
CENTER
 10
-12.281250
 20
320.661255
 11
358.292755
 21
320.661255
  0
LINE
  8
0
  6
CONTINUOUS
 10
237.735260
 20
352.661255
 11
336.481232
 21
352.661255
  0
LINE
  8
0
  6
CONTINUOUS
 10
237.735260
 20
288.661255
 11
336.481232
 21
288.661255
  0
LINE
  8
0
  6
CONTINUOUS
 10
331.891388
 20
378.661255
 11
288.953278
 21
378.661255
  0
LINE
  8
0
  6
CONTINUOUS
 10
246.015182
 20
262.661255
 11
277.953278
 21
262.661255
  0
LINE
  8
0
  6
CONTINUOUS
 10
341.953278
 20
320.661255
 11
341.394714
 21
352.661255
  0
LINE
  8
0
  6
CONTINUOUS
 10
336.785339
 20
374.685486
 11
341.394714
 21
352.661255
  0
ARC
  8
0
  6
CONTINUOUS
 10
331.891388
 20
373.661255
 40
5.000000
 50
11.820596
 51
90.000000
  0
LINE
  8
0
  6
CONTINUOUS
 10
341.953278
 20
320.661255
 11
341.394714
 21
288.661255
  0
LINE
  8
0
  6
CONTINUOUS
 10
336.785339
 20
266.637024
 11
341.394714
 21
288.661255
  0
ARC
  8
0
  6
CONTINUOUS
 10
331.891388
 20
267.661255
 40
5.000000
 50
-90.000000
 51
-11.820596
  0
LINE
  8
0
  6
CONTINUOUS
 10
308.953278
 20
290.661255
 11
308.953278
 21
350.661255
  0
LINE
  8
0
  6
CONTINUOUS
 10
268.953278
 20
290.661255
 11
268.953278
 21
350.661255
  0
ARC
  8
0
  6
CONTINUOUS
 10
336.481232
 20
347.661255
 40
5.000000
 50
1.000000
 51
90.000000
  0
ARC
  8
0
  6
CONTINUOUS
 10
336.481232
 20
293.661255
 40
5.000000
 50
270.000000
 51
359.000000
  0
LINE
  8
0
  6
CONTINUOUS
 10
232.279785
 20
266.332733
 11
232.736969
 21
283.792145
  0
LINE
  8
0
  6
CONTINUOUS
 10
224.203278
 20
378.161255
 11
224.203278
 21
263.161255
  0
LINE
  8
0
  6
CONTINUOUS
 10
242.768280
 20
338.661255
 11
242.768280
 21
302.661255
  0
LINE
  8
0
  6
CONTINUOUS
 10
224.203278
 20
377.911255
 11
229.280807
 21
377.911255
  0
LINE
  8
0
  6
CONTINUOUS
 10
229.280807
 20
263.411255
 11
224.203278
 21
263.411255
  0
ARC
  8
0
  6
CONTINUOUS
 10
237.735260
 20
283.661255
 40
5.000000
 50
90.000000
 51
178.500000
  0
ARC
  8
0
  6
CONTINUOUS
 10
229.280807
 20
266.411255
 40
3.000000
 50
270.000000
 51
358.500000
  0
LINE
  8
0
  6
CONTINUOUS
 10
232.279785
 20
374.989777
 11
232.736969
 21
357.530365
  0
ARC
  8
0
  6
CONTINUOUS
 10
237.735260
 20
357.661255
 40
5.000000
 50
-178.500000
 51
-90.000000
  0
ARC
  8
0
  6
CONTINUOUS
 10
229.280807
 20
374.911255
 40
3.000000
 50
-358.500000
 51
-270.000000
  0
LINE
  8
0
  6
CONTINUOUS
 10
241.121216
 20
374.685486
 11
236.542068
 21
352.805695
  0
ARC
  8
0
  6
CONTINUOUS
 10
246.015182
 20
373.661255
 40
5.000000
 50
90.000000
 51
168.179398
  0
LINE
  8
0
  6
CONTINUOUS
 10
241.121216
 20
266.637024
 11
236.542068
 21
288.516785
  0
ARC
  8
0
  6
CONTINUOUS
 10
246.015182
 20
267.661255
 40
5.000000
 50
-168.179398
 51
-90.000000
  0
LINE
  8
0
  6
CENTER
 10
313.503693
 20
275.661255
 11
334.357849
 21
275.661255
  0
LINE
  8
0
  6
CENTER
 10
323.953278
 20
283.218536
 11
323.953278
 21
266.447693
  0
CIRCLE
  8
0
  6
CONTINUOUS
 10
323.953278
 20
275.661255
 40
5.500000
  0
LINE
  8
0
  6
CENTER
 10
264.402893
 20
275.661255
 11
243.548721
 21
275.661255
  0
LINE
  8
0
  6
CENTER
 10
253.953278
 20
283.218536
 11
253.953278
 21
266.447693
  0
CIRCLE
  8
0
  6
CONTINUOUS
 10
253.953278
 20
275.661255
 40
5.500000
  0
LINE
  8
0
  6
CENTER
 10
313.503693
 20
365.661255
 11
334.357849
 21
365.661255
  0
LINE
  8
0
  6
CENTER
 10
323.953278
 20
358.103973
 11
323.953278
 21
374.874786
  0
CIRCLE
  8
0
  6
CONTINUOUS
 10
323.953278
 20
365.661255
 40
5.500000
  0
LINE
  8
0
  6
CENTER
 10
264.402893
 20
365.661255
 11
243.548721
 21
365.661255
  0
LINE
  8
0
  6
CENTER
 10
253.953278
 20
358.103973
 11
253.953278
 21
374.874786
  0
CIRCLE
  8
0
  6
CONTINUOUS
 10
253.953278
 20
365.661255
 40
5.500000
  0
LINE
  8
0
  6
CONTINUOUS
 10
263.760437
 20
272.661255
 11
314.146118
 21
272.661255
  0
LINE
  8
0
  6
CONTINUOUS
 10
319.109528
 20
282.661255
 11
322.396362
 21
282.661255
  0
ARC
  8
0
  6
CONTINUOUS
 10
314.146118
 20
275.661255
 40
3.000000
 50
270.000000
 51
345.124329
  0
LINE
  8
0
  6
CONTINUOUS
 10
325.295837
 20
284.891083
 11
325.704987
 21
286.431427
  0
ARC
  8
0
  6
CONTINUOUS
 10
322.396362
 20
285.661255
 40
3.000000
 50
270.000000
 51
345.124329
  0
ARC
  8
0
  6
CONTINUOUS
 10
328.604431
 20
285.661255
 40
3.000000
 50
90.000000
 51
165.124313
  0
LINE
  8
0
  6
CONTINUOUS
 10
319.109528
 20
282.661255
 11
317.045593
 21
274.891083
  0
LINE
  8
0
  6
CONTINUOUS
 10
252.610733
 20
284.891083
 11
252.201584
 21
286.431427
  0
ARC
  8
0
  6
CONTINUOUS
 10
255.510193
 20
285.661255
 40
3.000000
 50
-165.124313
 51
-90.000000
  0
ARC
  8
0
  6
CONTINUOUS
 10
249.302124
 20
285.661255
 40
3.000000
 50
14.875682
 51
90.000000
  0
LINE
  8
0
  6
CONTINUOUS
 10
258.797028
 20
282.661255
 11
255.510193
 21
282.661255
  0
ARC
  8
0
  6
CONTINUOUS
 10
263.760437
 20
275.661255
 40
3.000000
 50
-165.124313
 51
-90.000000
  0
LINE
  8
0
  6
CONTINUOUS
 10
258.797028
 20
282.661255
 11
260.860992
 21
274.891083
  0
CIRCLE
  8
0
  6
CONTINUOUS
 10
323.953278
 20
365.661255
 40
5.500000
  0
LINE
  8
0
  6
CONTINUOUS
 10
263.760437
 20
368.661255
 11
314.146118
 21
368.661255
  0
LINE
  8
0
  6
CONTINUOUS
 10
319.109528
 20
358.661255
 11
322.396362
 21
358.661255
  0
ARC
  8
0
  6
CONTINUOUS
 10
314.146118
 20
365.661255
 40
3.000000
 50
-345.124329
 51
-270.000000
  0
LINE
  8
0
  6
CONTINUOUS
 10
325.295837
 20
356.431427
 11
325.704987
 21
354.891083
  0
ARC
  8
0
  6
CONTINUOUS
 10
322.396362
 20
355.661255
 40
3.000000
 50
-345.124329
 51
-270.000000
  0
ARC
  8
0
  6
CONTINUOUS
 10
328.604431
 20
355.661255
 40
3.000000
 50
-165.124313
 51
-90.000000
  0
LINE
  8
0
  6
CONTINUOUS
 10
319.109528
 20
358.661255
 11
317.045593
 21
366.431427
  0
LINE
  8
0
  6
CONTINUOUS
 10
252.610733
 20
356.431427
 11
252.201584
 21
354.891083
  0
ARC
  8
0
  6
CONTINUOUS
 10
255.510193
 20
355.661255
 40
3.000000
 50
90.000000
 51
165.124313
  0
ARC
  8
0
  6
CONTINUOUS
 10
249.302124
 20
355.661255
 40
3.000000
 50
-90.000000
 51
-14.875682
  0
LINE
  8
0
  6
CONTINUOUS
 10
258.797028
 20
358.661255
 11
255.510193
 21
358.661255
  0
ARC
  8
0
  6
CONTINUOUS
 10
263.760437
 20
365.661255
 40
3.000000
 50
90.000000
 51
165.124313
  0
LINE
  8
0
  6
CONTINUOUS
 10
258.797028
 20
358.661255
 11
260.860992
 21
366.431427
  0
LINE
  8
0
  6
CONTINUOUS
 10
277.953278
 20
230.661255
 11
302.453278
 21
230.661255
  0
LINE
  8
0
  6
CONTINUOUS
 10
299.953278
 20
270.661255
 11
299.953278
 21
265.661255
  0
LINE
  8
0
  6
CONTINUOUS
 10
277.953278
 20
270.661255
 11
277.953278
 21
230.661255
  0
LINE
  8
0
  6
CONTINUOUS
 10
301.453278
 20
272.661255
 11
301.453278
 21
270.661255
  0
LINE
  8
0
  6
CONTINUOUS
 10
276.453278
 20
272.661255
 11
276.453278
 21
270.661255
  0
LINE
  8
0
  6
CONTINUOUS
 10
276.453278
 20
270.661255
 11
301.453278
 21
270.661255
  0
LINE
  8
0
  6
CONTINUOUS
 10
302.453278
 20
262.661255
 11
331.891388
 21
262.661255
  0
LINE
  8
0
  6
CONTINUOUS
 10
302.453278
 20
265.661255
 11
302.453278
 21
230.661255
  0
LINE
  8
0
  6
CONTINUOUS
 10
299.536285
 20
230.661255
 11
299.536285
 21
265.661255
  0
LINE
  8
0
  6
CONTINUOUS
 10
299.536285
 20
265.661255
 11
302.453278
 21
265.661255
  0
LINE
  8
0
  6
CONTINUOUS
 10
288.953278
 20
378.661255
 11
245.837006
 21
378.661255
  0
LINE
  8
0
  6
CONTINUOUS
 10
224.203278
 20
368.161255
 11
229.536118
 21
368.161255
  0
ARC
  8
0
  6
CONTINUOUS
 10
229.536118
 20
365.161255
 40
3.000000
 50
1.500000
 51
90.000000
  0
LINE
  8
0
  6
CONTINUOUS
 10
232.493759
 20
352.661255
 11
224.203278
 21
352.661255
  0
LINE
  8
0
  6
CONTINUOUS
 10
232.493759
 20
288.661255
 11
224.203278
 21
288.661255
  0
LINE
  8
0
  6
CONTINUOUS
 10
224.203278
 20
273.161255
 11
229.536118
 21
273.161255
  0
ARC
  8
0
  6
CONTINUOUS
 10
229.536118
 20
276.161255
 40
3.000000
 50
-90.000000
 51
-1.500000
  0
LINE
  8
0
  6
CONTINUOUS
 10
484.863739
 20
12.120937
 11
532.863770
 21
12.120937
  0
LINE
  8
0
  6
CONTINUOUS
 10
533.863770
 20
11.120937
 11
532.863770
 21
12.120937
  0
LINE
  8
0
  6
CONTINUOUS
 10
483.863739
 20
11.120937
 11
484.863739
 21
12.120937
  0
LINE
  8
0
  6
CONTINUOUS
 10
533.863770
 20
11.120937
 11
566.863770
 21
11.120937
  0
LINE
  8
0
  6
CONTINUOUS
 10
218.703278
 20
263.161255
 11
224.203278
 21
263.161255
  0
LINE
  8
0
  6
CONTINUOUS
 10
218.703278
 20
378.161255
 11
224.203278
 21
378.161255
  0
LINE
  8
0
  6
CONTINUOUS
 10
216.203278
 20
265.661255
 11
216.203278
 21
375.661255
  0
LINE
  8
0
  6
CONTINUOUS
 10
172.203278
 20
358.661255
 11
172.203278
 21
282.661255
  0
LINE
  8
0
  6
CONTINUOUS
 10
213.790527
 20
360.113495
 11
172.203278
 21
358.661255
  0
LINE
  8
0
  6
CONTINUOUS
 10
213.790527
 20
281.208984
 11
172.203278
 21
282.661255
  0
ARC
  8
0
  6
CONTINUOUS
 10
218.703278
 20
375.661255
 40
2.500000
 50
90.000000
 51
180.000000
  0
ARC
  8
0
  6
CONTINUOUS
 10
218.703278
 20
265.661255
 40
2.500000
 50
180.000000
 51
270.000000
  0
ARC
  8
0
  6
CONTINUOUS
 10
217.203278
 20
142.120941
 40
1.000000
 50
90.000000
 51
180.000000
  0
ARC
  8
0
  6
CONTINUOUS
 10
213.703278
 20
128.190125
 40
2.500000
 50
-64.230675
 51
0.000000
  0
ARC
  8
0
  6
CONTINUOUS
 10
213.703278
 20
116.571671
 40
2.500000
 50
-88.000000
 51
0.000000
  0
ARC
  8
0
  6
CONTINUOUS
 10
187.759857
 20
115.665710
 40
2.500000
 50
272.000000
 51
295.769318
  0
LINE
  8
0
  6
CONTINUOUS
 10
172.203278
 20
358.661255
 11
172.203278
 21
282.661255
  0
LINE
  8
0
  6
CONTINUOUS
 10
58.203403
 20
358.661224
 11
172.203400
 21
358.661224
  0
LINE
  8
0
  6
CONTINUOUS
 10
58.203403
 20
282.661255
 11
172.203400
 21
282.661255
  0
LINE
  8
0
  6
CONTINUOUS
 10
164.203400
 20
356.661224
 11
164.203400
 21
343.661255
  0
ARC
  8
0
  6
CONTINUOUS
 10
166.203400
 20
356.661255
 40
2.000000
 50
90.000000
 51
180.000000
  0
ARC
  8
0
  6
CONTINUOUS
 10
166.203400
 20
284.661255
 40
2.000000
 50
180.000000
 51
270.000000
  0
LINE
  8
0
  6
CONTINUOUS
 10
111.203270
 20
343.661255
 11
164.203400
 21
343.661255
  0
LINE
  8
0
  6
CONTINUOUS
 10
111.203270
 20
297.661255
 11
164.203400
 21
297.661255
  0
LINE
  8
0
  6
CONTINUOUS
 10
164.203400
 20
297.661255
 11
164.203400
 21
284.661255
  0
ARC
  8
0
  6
CONTINUOUS
 10
203.372910
 20
320.661255
 40
15.000000
 50
130.747620
 51
229.252380
  0
LINE
  8
0
  6
CONTINUOUS
 10
215.335098
 20
350.767242
 11
193.581985
 21
332.025116
  0
LINE
  8
0
  6
CONTINUOUS
 10
215.335098
 20
290.555267
 11
193.581985
 21
309.297363
  0
ARC
  8
0
  6
CONTINUOUS
 10
213.703278
 20
352.661224
 40
2.500000
 50
-49.252373
 51
0.000000
  0
ARC
  8
0
  6
CONTINUOUS
 10
213.703278
 20
362.612000
 40
2.500000
 50
-88.000000
 51
0.000000
  0
ARC
  8
0
  6
CONTINUOUS
 10
213.703278
 20
288.661285
 40
2.500000
 50
0.000000
 51
49.252373
  0
ARC
  8
0
  6
CONTINUOUS
 10
213.703278
 20
278.710510
 40
2.500000
 50
0.000000
 51
88.000000
  0
LINE
  8
0
  6
CONTINUOUS
 10
217.328354
 20
42.466938
 11
224.203278
 21
42.466938
  0
LINE
  8
0
  6
CONTINUOUS
 10
216.203278
 20
30.620937
 11
216.203278
 21
32.670200
  0
ARC
  8
0
  6
CONTINUOUS
 10
218.703278
 20
30.620937
 40
2.500000
 50
180.000000
 51
270.000000
  0
ARC
  8
0
  6
CONTINUOUS
 10
213.703278
 20
32.670200
 40
2.500000
 50
0.000000
 51
88.000000
  0
ARC
  8
0
  6
CONTINUOUS
 10
508.863739
 20
85.620941
 40
57.500000
 50
236.002823
 51
236.184402
  0
ARC
  8
0
  6
CONTINUOUS
 10
508.863739
 20
85.620941
 40
57.500000
 50
303.815582
 51
303.997162
  0
ARC
  8
0
  6
CONTINUOUS
 10
508.863739
 20
85.620941
 40
57.500000
 50
-33.997124
 51
33.406792
  0
ARC
  8
0
  6
CONTINUOUS
 10
508.863739
 20
85.620941
 40
57.500000
 50
160.176102
 51
213.997131
  0
LINE
  8
0
  6
CONTINUOUS
 10
58.203403
 20
358.661224
 11
58.203403
 21
351.661255
  0
LINE
  8
0
  6
CONTINUOUS
 10
58.203403
 20
358.661224
 11
48.703403
 21
358.661224
  0
LINE
  8
0
  6
CONTINUOUS
 10
58.203403
 20
282.661224
 11
48.703403
 21
282.661224
  0
LINE
  8
0
  6
CONTINUOUS
 10
49.203270
 20
297.661224
 11
48.703403
 21
297.661224
  0
LINE
  8
0
  6
CONTINUOUS
 10
49.203270
 20
343.661224
 11
48.703403
 21
343.661224
  0
LINE
  8
0
  6
CONTINUOUS
 10
58.203403
 20
289.661255
 11
58.203403
 21
282.661224
  0
LINE
  8
0
  6
CONTINUOUS
 10
48.703403
 20
280.661224
 11
48.703403
 21
360.661224
  0
LINE
  8
0
  6
CONTINUOUS
 10
4.703403
 20
360.661224
 11
48.703403
 21
360.661224
  0
LINE
  8
0
  6
CONTINUOUS
 10
4.703403
 20
280.661224
 11
48.703403
 21
280.661224
  0
LINE
  8
0
  6
CONTINUOUS
 10
-0.296597
 20
285.661224
 11
-0.296597
 21
355.661224
  0
ARC
  8
0
  6
CONTINUOUS
 10
4.703403
 20
355.661224
 40
5.000000
 50
90.000000
 51
180.000000
  0
ARC
  8
0
  6
CONTINUOUS
 10
4.703403
 20
285.661224
 40
5.000000
 50
180.000000
 51
270.000000
  0
LINE
  8
0
  6
CONTINUOUS
 10
2.203403
 20
344.661224
 11
48.703403
 21
344.661224
  0
LINE
  8
0
  6
CONTINUOUS
 10
2.203403
 20
294.661224
 11
48.703403
 21
294.661224
  0
LINE
  8
0
  6
CONTINUOUS
 10
48.703281
 20
112.620918
 11
58.203281
 21
112.620918
  0
LINE
  8
0
  6
CONTINUOUS
 10
48.703281
 20
36.620918
 11
58.203281
 21
36.620918
  0
LINE
  8
0
  6
CONTINUOUS
 10
48.703281
 20
34.620918
 11
48.703281
 21
114.620918
  0
LINE
  8
0
  6
CONTINUOUS
 10
48.703281
 20
104.869919
 11
58.203281
 21
104.869919
  0
LINE
  8
0
  6
CONTINUOUS
 10
48.703281
 20
44.371918
 11
58.203281
 21
44.371918
  0
LINE
  8
0
  6
CONTINUOUS
 10
4.703281
 20
114.620918
 11
48.703281
 21
114.620918
  0
LINE
  8
0
  6
CONTINUOUS
 10
4.703281
 20
34.620918
 11
48.703281
 21
34.620918
  0
LINE
  8
0
  6
CONTINUOUS
 10
-0.296719
 20
39.620918
 11
-0.296719
 21
109.620918
  0
ARC
  8
0
  6
CONTINUOUS
 10
4.703281
 20
109.620918
 40
5.000000
 50
90.000000
 51
180.000000
  0
ARC
  8
0
  6
CONTINUOUS
 10
4.703281
 20
39.620918
 40
5.000000
 50
180.000000
 51
270.000000
  0
LINE
  8
0
  6
CONTINUOUS
 10
2.203281
 20
100.620918
 11
48.703281
 21
100.620918
  0
LINE
  8
0
  6
CONTINUOUS
 10
2.203281
 20
50.620918
 11
48.703281
 21
50.620918
  0
LINE
  8
0
  6
CONTINUOUS
 10
58.203281
 20
36.620937
 11
58.203281
 21
112.620918
  0
LINE
  8
0
  6
CONTINUOUS
 10
172.203278
 20
65.220940
 11
216.203278
 21
65.220940
  0
LINE
  8
0
  6
CONTINUOUS
 10
172.203278
 20
55.020939
 11
216.203278
 21
55.020939
  0
LINE
  8
0
  6
CONTINUOUS
 10
539.863770
 20
163.120911
 11
539.863770
 21
160.329285
  0
LINE
  8
0
  6
CONTINUOUS
 10
477.863739
 20
163.120911
 11
477.863739
 21
160.328918
  0
LINE
  8
0
  6
CONTINUOUS
 10
478.863739
 20
164.120911
 11
538.863770
 21
164.120911
  0
LINE
  8
0
  6
CONTINUOUS
 10
538.863770
 20
164.120911
 11
539.863770
 21
163.120911
  0
LINE
  8
0
  6
CONTINUOUS
 10
478.863739
 20
164.120911
 11
477.863739
 21
163.120911
  0
LINE
  8
0
  6
CONTINUOUS
 10
477.863739
 20
163.120911
 11
539.863770
 21
163.120911
  0
LINE
  8
0
  6
CONTINUOUS
 10
50.703281
 20
114.120941
 11
109.203278
 21
114.120941
  0
LINE
  8
0
  6
CONTINUOUS
 10
50.703281
 20
114.120941
 11
50.703281
 21
112.620941
  0
LINE
  8
0
  6
CONTINUOUS
 10
96.703278
 20
114.120941
 11
96.703278
 21
112.620941
  0
LINE
  8
0
  6
CONTINUOUS
 10
49.203281
 20
163.120941
 11
49.203281
 21
116.120941
  0
LINE
  8
0
  6
CONTINUOUS
 10
111.203278
 20
163.120956
 11
111.203278
 21
116.120941
  0
LINE
  8
0
  6
CONTINUOUS
 10
111.203278
 20
116.120941
 11
109.203278
 21
114.120941
  0
LINE
  8
0
  6
CONTINUOUS
 10
49.203281
 20
116.120941
 11
51.203281
 21
114.120941
  0
LINE
  8
0
  6
CONTINUOUS
 10
49.203281
 20
116.120941
 11
111.203278
 21
116.120941
  0
LINE
  8
0
  6
CONTINUOUS
 10
49.203281
 20
126.120956
 11
111.203278
 21
126.120956
  0
LINE
  8
0
  6
CENTER
 10
80.203278
 20
167.549942
 11
80.203278
 21
109.526917
  0
LINE
  8
0
  6
CONTINUOUS
 10
49.203281
 20
127.120956
 11
111.203278
 21
127.120956
  0
LINE
  8
0
  6
CONTINUOUS
 10
50.203281
 20
164.120941
 11
110.203278
 21
164.120956
  0
LINE
  8
0
  6
CONTINUOUS
 10
110.203278
 20
164.120956
 11
111.203278
 21
163.120956
  0
LINE
  8
0
  6
CONTINUOUS
 10
49.203281
 20
163.120941
 11
50.203281
 21
164.120941
  0
LINE
  8
0
  6
CONTINUOUS
 10
49.203281
 20
163.120941
 11
111.203278
 21
163.120956
  0
LINE
  8
0
  6
CENTER
 10
46.578281
 20
147.120956
 11
52.328281
 21
147.120956
  0
LINE
  8
0
  6
CONTINUOUS
 10
48.078281
 20
157.620956
 11
51.203281
 21
157.620956
  0
LINE
  8
0
  6
CONTINUOUS
 10
48.078281
 20
136.620956
 11
51.203281
 21
136.620956
  0
LINE
  8
0
  6
CONTINUOUS
 10
49.203270
 20
291.661255
 11
49.203270
 21
349.661255
  0
LINE
  8
0
  6
CONTINUOUS
 10
111.203270
 20
349.661255
 11
111.203270
 21
291.661255
  0
LINE
  8
0
  6
CONTINUOUS
 10
51.203270
 20
289.661255
 11
109.203270
 21
289.661255
  0
LINE
  8
0
  6
CONTINUOUS
 10
51.203270
 20
351.661255
 11
109.203270
 21
351.661255
  0
LINE
  8
0
  6
CONTINUOUS
 10
109.203270
 20
289.661255
 11
111.203270
 21
291.661255
  0
LINE
  8
0
  6
CONTINUOUS
 10
111.203270
 20
349.661255
 11
109.203270
 21
351.661255
  0
LINE
  8
0
  6
CONTINUOUS
 10
49.203270
 20
349.661255
 11
51.203270
 21
351.661255
  0
LINE
  8
0
  6
CONTINUOUS
 10
49.203270
 20
291.661255
 11
51.203270
 21
289.661255
  0
LINE
  8
0
  6
CONTINUOUS
 10
103.203270
 20
294.661255
 11
103.203270
 21
289.661255
  0
LINE
  8
0
  6
CONTINUOUS
 10
106.203270
 20
297.661255
 11
111.203270
 21
297.661255
  0
CIRCLE
  8
0
  6
CONTINUOUS
 10
107.203270
 20
293.661255
 40
2.250000
  0
ARC
  8
0
  6
CONTINUOUS
 10
106.203270
 20
294.661255
 40
3.000000
 50
90.000000
 51
180.000000
  0
LINE
  8
0
  6
CONTINUOUS
 10
110.203270
 20
298.661255
 11
110.203270
 21
342.661255
  0
LINE
  8
0
  6
CONTINUOUS
 10
106.203270
 20
298.661255
 11
110.203270
 21
298.661255
  0
ARC
  8
0
  6
CONTINUOUS
 10
106.203270
 20
294.661255
 40
4.000000
 50
90.000000
 51
180.000000
  0
LINE
  8
0
  6
CONTINUOUS
 10
102.203270
 20
290.661255
 11
102.203270
 21
294.661255
  0
LINE
  8
0
  6
CONTINUOUS
 10
110.203270
 20
298.661255
 11
111.203270
 21
297.661255
  0
LINE
  8
0
  6
CONTINUOUS
 10
58.203270
 20
290.661255
 11
102.203270
 21
290.661255
  0
LINE
  8
0
  6
CONTINUOUS
 10
102.203270
 20
290.661255
 11
103.203270
 21
289.661255
  0
LINE
  8
0
  6
CONTINUOUS
 10
54.203270
 20
297.661255
 11
49.203270
 21
297.661255
  0
LINE
  8
0
  6
CONTINUOUS
 10
57.203270
 20
294.661255
 11
57.203270
 21
289.661255
  0
CIRCLE
  8
0
  6
CONTINUOUS
 10
53.203270
 20
293.661255
 40
2.250000
  0
ARC
  8
0
  6
CONTINUOUS
 10
54.203270
 20
294.661255
 40
3.000000
 50
0.000000
 51
90.000000
  0
LINE
  8
0
  6
CONTINUOUS
 10
58.203270
 20
294.661255
 11
58.203270
 21
290.661255
  0
ARC
  8
0
  6
CONTINUOUS
 10
54.203270
 20
294.661255
 40
4.000000
 50
0.000000
 51
90.000000
  0
LINE
  8
0
  6
CONTINUOUS
 10
50.203270
 20
298.661255
 11
54.203270
 21
298.661255
  0
LINE
  8
0
  6
CONTINUOUS
 10
58.203270
 20
290.661255
 11
57.203270
 21
289.661255
  0
LINE
  8
0
  6
CONTINUOUS
 10
50.203270
 20
298.661255
 11
49.203270
 21
297.661255
  0
LINE
  8
0
  6
CONTINUOUS
 10
57.203270
 20
346.661255
 11
57.203270
 21
351.661255
  0
LINE
  8
0
  6
CONTINUOUS
 10
54.203270
 20
343.661255
 11
49.203270
 21
343.661255
  0
CIRCLE
  8
0
  6
CONTINUOUS
 10
53.203270
 20
347.661255
 40
2.250000
  0
ARC
  8
0
  6
CONTINUOUS
 10
54.203270
 20
346.661255
 40
3.000000
 50
-90.000000
 51
0.000000
  0
LINE
  8
0
  6
CONTINUOUS
 10
54.203270
 20
342.661255
 11
50.203270
 21
342.661255
  0
ARC
  8
0
  6
CONTINUOUS
 10
54.203270
 20
346.661255
 40
4.000000
 50
-90.000000
 51
0.000000
  0
LINE
  8
0
  6
CONTINUOUS
 10
58.203270
 20
350.661255
 11
58.203270
 21
346.661255
  0
LINE
  8
0
  6
CONTINUOUS
 10
50.203270
 20
342.661255
 11
49.203270
 21
343.661255
  0
LINE
  8
0
  6
CONTINUOUS
 10
58.203270
 20
350.661255
 11
57.203270
 21
351.661255
  0
LINE
  8
0
  6
CONTINUOUS
 10
106.203270
 20
343.661255
 11
111.203270
 21
343.661255
  0
LINE
  8
0
  6
CONTINUOUS
 10
103.203270
 20
346.661255
 11
103.203270
 21
351.661255
  0
CIRCLE
  8
0
  6
CONTINUOUS
 10
107.203270
 20
347.661255
 40
2.250000
  0
ARC
  8
0
  6
CONTINUOUS
 10
106.203270
 20
346.661255
 40
3.000000
 50
180.000000
 51
270.000000
  0
LINE
  8
0
  6
CONTINUOUS
 10
102.203270
 20
346.661255
 11
102.203270
 21
350.661255
  0
ARC
  8
0
  6
CONTINUOUS
 10
106.203270
 20
346.661255
 40
4.000000
 50
180.000000
 51
270.000000
  0
LINE
  8
0
  6
CONTINUOUS
 10
110.203270
 20
342.661255
 11
106.203270
 21
342.661255
  0
LINE
  8
0
  6
CONTINUOUS
 10
102.203270
 20
350.661255
 11
103.203270
 21
351.661255
  0
LINE
  8
0
  6
CONTINUOUS
 10
110.203270
 20
342.661255
 11
111.203270
 21
343.661255
  0
LINE
  8
0
  6
CONTINUOUS
 10
58.203270
 20
350.661255
 11
102.203270
 21
350.661255
  0
LINE
  8
0
  6
CONTINUOUS
 10
50.203270
 20
298.661255
 11
50.203270
 21
342.661255
  0
LINE
  8
0
  6
CENTER
 10
80.203270
 20
284.415009
 11
80.203270
 21
357.107819
  0
TEXT
  8
0
 10
-12.000000
 20
-4.000000
 40
4.000000
 41
1.000000
  1
HLMN-22R-300~450-S40WC
 50
0.000000
  0
ENDSEC
  0
EOF
