  0
SECTION
  2
HEADER
  9
$ACADVER
  1
AC1014
  9
$ACADMAINTVER
 70
     9
  9
$DWGCODEPAGE
  3
ANSI_932
  9
$INSBASE
 10
0.0
 20
0.0
 30
0.0
  9
$EXTMIN
 10
58.76308766780335
 20
61.71794735534916
 30
0.0
  9
$EXTMAX
 10
722.7295499644704
 20
485.5216826955357
 30
0.0
  9
$LIMMIN
 10
0.0
 20
0.0
  9
$LIMMAX
 10
297.0
 20
210.0
  9
$ORTHOMODE
 70
     1
  9
$REGENMODE
 70
     1
  9
$FILLMODE
 70
     1
  9
$QTEXTMODE
 70
     0
  9
$MIRRTEXT
 70
     0
  9
$DRAGMODE
 70
     2
  9
$LTSCALE
 40
3.0
  9
$OSMODE
 70
    37
  9
$ATTMODE
 70
     1
  9
$TEXTSIZE
 40
2.0
  9
$TRACEWID
 40
1.0
  9
$TEXTSTYLE
  7
STANDARD
  9
$CLAYER
  8
0
  9
$CELTYPE
  6
BYLAYER
  9
$CECOLOR
 62
   256
  9
$CELTSCALE
 40
1.0
  9
$DELOBJ
 70
     1
  9
$DISPSILH
 70
     0
  9
$DIMSCALE
 40
3.0
  9
$DIMASZ
 40
1.8
  9
$DIMEXO
 40
0.625
  9
$DIMDLI
 40
3.75
  9
$DIMRND
 40
0.0
  9
$DIMDLE
 40
0.0
  9
$DIMEXE
 40
0.8
  9
$DIMTP
 40
0.0
  9
$DIMTM
 40
0.0
  9
$DIMTXT
 40
1.8
  9
$DIMCEN
 40
2.5
  9
$DIMTSZ
 40
0.0
  9
$DIMTOL
 70
     0
  9
$DIMLIM
 70
     0
  9
$DIMTIH
 70
     0
  9
$DIMTOH
 70
     0
  9
$DIMSE1
 70
     0
  9
$DIMSE2
 70
     0
  9
$DIMTAD
 70
     1
  9
$DIMZIN
 70
     8
  9
$DIMBLK
  1

  9
$DIMASO
 70
     1
  9
$DIMSHO
 70
     1
  9
$DIMPOST
  1

  9
$DIMAPOST
  1

  9
$DIMALT
 70
     0
  9
$DIMALTD
 70
     4
  9
$DIMALTF
 40
0.0394
  9
$DIMLFAC
 40
1.0
  9
$DIMTOFL
 70
     1
  9
$DIMTVP
 40
0.0
  9
$DIMTIX
 70
     0
  9
$DIMSOXD
 70
     0
  9
$DIMSAH
 70
     0
  9
$DIMBLK1
  1

  9
$DIMBLK2
  1

  9
$DIMSTYLE
  2
STANDARD
  9
$DIMCLRD
 70
     0
  9
$DIMCLRE
 70
     0
  9
$DIMCLRT
 70
     0
  9
$DIMTFAC
 40
1.0
  9
$DIMGAP
 40
0.75
  9
$DIMJUST
 70
     0
  9
$DIMSD1
 70
     0
  9
$DIMSD2
 70
     0
  9
$DIMTOLJ
 70
     1
  9
$DIMTZIN
 70
     0
  9
$DIMALTZ
 70
     0
  9
$DIMALTTZ
 70
     0
  9
$DIMFIT
 70
     3
  9
$DIMUPT
 70
     0
  9
$DIMUNIT
 70
     8
  9
$DIMDEC
 70
     2
  9
$DIMTDEC
 70
     2
  9
$DIMALTU
 70
     8
  9
$DIMALTTD
 70
     4
  9
$DIMTXSTY
  7
STANDARD
  9
$DIMAUNIT
 70
     0
  9
$LUNITS
 70
     2
  9
$LUPREC
 70
     3
  9
$SKETCHINC
 40
1.0
  9
$FILLETRAD
 40
10.0
  9
$AUNITS
 70
     0
  9
$AUPREC
 70
     2
  9
$MENU
  1
.
  9
$ELEVATION
 40
0.0
  9
$PELEVATION
 40
0.0
  9
$THICKNESS
 40
0.0
  9
$LIMCHECK
 70
     0
  9
$BLIPMODE
 70
     0
  9
$CHAMFERA
 40
0.0
  9
$CHAMFERB
 40
0.0
  9
$CHAMFERC
 40
20.0
  9
$CHAMFERD
 40
0.0
  9
$SKPOLY
 70
     0
  9
$TDCREATE
 40
2453753.553389386
  9
$TDUPDATE
 40
2453832.472165613
  9
$TDINDWG
 40
0.3262333681
  9
$TDUSRTIMER
 40
0.3262333681
  9
$USRTIMER
 70
     1
  9
$ANGBASE
 50
0.0
  9
$ANGDIR
 70
     0
  9
$PDMODE
 70
     0
  9
$PDSIZE
 40
-10.0
  9
$PLINEWID
 40
0.0
  9
$COORDS
 70
     0
  9
$SPLFRAME
 70
     0
  9
$SPLINETYPE
 70
     6
  9
$SPLINESEGS
 70
     8
  9
$ATTDIA
 70
     0
  9
$ATTREQ
 70
     1
  9
$HANDLING
 70
-16383
  9
$HANDSEED
  5
2002
  9
$SURFTAB1
 70
     6
  9
$SURFTAB2
 70
     6
  9
$SURFTYPE
 70
     6
  9
$SURFU
 70
     6
  9
$SURFV
 70
     6
  9
$UCSNAME
  2

  9
$UCSORG
 10
0.0
 20
0.0
 30
0.0
  9
$UCSXDIR
 10
1.0
 20
0.0
 30
0.0
  9
$UCSYDIR
 10
0.0
 20
1.0
 30
0.0
  9
$PUCSNAME
  2

  9
$PUCSORG
 10
0.0
 20
0.0
 30
0.0
  9
$PUCSXDIR
 10
1.0
 20
0.0
 30
0.0
  9
$PUCSYDIR
 10
0.0
 20
1.0
 30
0.0
  9
$USERI1
 70
     0
  9
$USERI2
 70
     0
  9
$USERI3
 70
     0
  9
$USERI4
 70
     0
  9
$USERI5
 70
     0
  9
$USERR1
 40
0.0
  9
$USERR2
 40
0.0
  9
$USERR3
 40
0.0
  9
$USERR4
 40
0.0
  9
$USERR5
 40
0.0
  9
$WORLDVIEW
 70
     1
  9
$SHADEDGE
 70
     3
  9
$SHADEDIF
 70
    70
  9
$TILEMODE
 70
     1
  9
$MAXACTVP
 70
    48
  9
$PINSBASE
 10
0.0
 20
0.0
 30
0.0
  9
$PLIMCHECK
 70
     0
  9
$PEXTMIN
 10
3.0
 20
3.999999999999998
 30
0.0
  9
$PEXTMAX
 10
280.0
 20
194.0
 30
0.0
  9
$PLIMMIN
 10
-5.873748779296875
 20
-5.873749732971191
  9
$PLIMMAX
 10
291.05224609375
 20
204.0995779037475
  9
$UNITMODE
 70
     0
  9
$VISRETAIN
 70
     1
  9
$PLINEGEN
 70
     0
  9
$PSLTSCALE
 70
     0
  9
$TREEDEPTH
 70
  3020
  9
$PICKSTYLE
 70
     1
  9
$CMLSTYLE
  2
STANDARD
  9
$CMLJUST
 70
     0
  9
$CMLSCALE
 40
1.0
  9
$PROXYGRAPHICS
 70
     1
  9
$MEASUREMENT
 70
     0
  0
ENDSEC
  0
SECTION
  2
CLASSES
  0
CLASS
  1
DICTIONARYVAR
  2
AcDbDictionaryVar
  3
AutoCAD 2000
 90
        0
280
     0
281
     0
  0
CLASS
  1
ACDBDICTIONARYWDFLT
  2
AcDbDictionaryWithDefault
  3
AutoCAD 2000
 90
        0
280
     0
281
     0
  0
CLASS
  1
ACDBPLACEHOLDER
  2
AcDbPlaceHolder
  3
AutoCAD 2000
 90
        0
280
     0
281
     0
  0
CLASS
  1
LAYOUT
  2
AcDbLayout
  3
AutoCAD 2000
 90
        0
280
     0
281
     0
  0
CLASS
  1
LONG_TRANSACTION
  2
AcDbLongTransaction
  3
AutoCAD 2000
 90
        0
280
     0
281
     0
  0
CLASS
  1
LWPOLYLINE
  2
AcDbPolyline
  3
AutoCAD 2000
 90
        0
280
     0
281
     1
  0
CLASS
  1
HATCH
  2
AcDbHatch
  3
AutoCAD 2000
 90
        0
280
     0
281
     1
  0
CLASS
  1
XRECORD
  2
AcDbXrecord
  3
AutoCAD 2000
 90
        0
280
     0
281
     0
  0
ENDSEC
  0
SECTION
  2
TABLES
  0
TABLE
  2
VPORT
  5
6E
330
0
100
AcDbSymbolTable
 70
     2
  0
VPORT
  5
1FD7
330
6E
100
AcDbSymbolTableRecord
100
AcDbViewportTableRecord
  2
*ACTIVE
 70
     0
 10
0.0
 20
0.0
 11
1.0
 21
1.0
 12
379.9033735717121
 22
255.7149531168602
 13
0.0
 23
0.0
 14
10.0
 24
10.0
 15
10.0
 25
10.0
 16
0.0
 26
0.0
 36
1.0
 17
0.0
 27
0.0
 37
0.0
 40
463.2781165518074
 41
1.566970091027308
 42
50.0
 43
0.0
 44
0.0
 50
0.0
 51
0.0
 71
     0
 72
   100
 73
     1
 74
     3
 75
     0
 76
     0
 77
     0
 78
     0
  0
ENDTAB
  0
TABLE
  2
LTYPE
  5
69
330
0
100
AcDbSymbolTable
 70
     4
  0
LTYPE
  5
6A
330
69
100
AcDbSymbolTableRecord
100
AcDbLinetypeTableRecord
  2
BYBLOCK
 70
     0
  3

 72
    65
 73
     0
 40
0.0
  0
LTYPE
  5
6B
330
69
100
AcDbSymbolTableRecord
100
AcDbLinetypeTableRecord
  2
BYLAYER
 70
     0
  3

 72
    65
 73
     0
 40
0.0
  0
LTYPE
  5
8
330
69
100
AcDbSymbolTableRecord
100
AcDbLinetypeTableRecord
  2
CONTINUOUS
 70
     0
  3
Solid line
 72
    65
 73
     0
 40
0.0
  0
LTYPE
  5
27C
330
69
100
AcDbSymbolTableRecord
100
AcDbLinetypeTableRecord
  2
SEKKEI_A2_
 70
     0
  3
center(A2)  ____ _ ____ _ ____ _ ____ _ ____ _ 
 72
    65
 73
     4
 40
14.28749999999999
 49
9.525
 74
     0
 49
-1.587499999999999
 74
     0
 49
1.587499999999999
 74
     0
 49
-1.587499999999999
 74
     0
  0
LTYPE
  5
2B4
330
69
100
AcDbSymbolTableRecord
100
AcDbLinetypeTableRecord
  2
HIDDEN2
 70
     0
  3
Hidden (.5x) _ _ _ _ _ _ _ _ _ _ _ _ _ _ _ _ _
 72
    65
 73
     2
 40
4.762499999999999
 49
3.174999999999999
 74
     0
 49
-1.587499999999999
 74
     0
  0
LTYPE
  5
48F
330
69
100
AcDbSymbolTableRecord
100
AcDbLinetypeTableRecord
  2
SEKKEI_H
 70
     0
  3
Hidden-S _ _ _ _ _ _ _ _ _ _ _ _ _ _ _ _ _
 72
    65
 73
     2
 40
2.381249999999999
 49
1.587499999999999
 74
     0
 49
-0.79375
 74
     0
  0
ENDTAB
  0
TABLE
  2
LAYER
  5
66
330
0
100
AcDbSymbolTable
 70
     9
  0
LAYER
  5
5E
330
66
100
AcDbSymbolTableRecord
100
AcDbLayerTableRecord
  2
0
 70
     0
 62
     7
  6
CONTINUOUS
  0
LAYER
  5
3E
330
66
100
AcDbSymbolTableRecord
100
AcDbLayerTableRecord
  2
CENTER
 70
     0
 62
     3
  6
SEKKEI_A2_
  0
LAYER
  5
4
330
66
100
AcDbSymbolTableRecord
100
AcDbLayerTableRecord
  2
WAKU
 70
     0
 62
     5
  6
CONTINUOUS
  0
LAYER
  5
E4
330
66
100
AcDbSymbolTableRecord
100
AcDbLayerTableRecord
  2
TEXT
 70
     0
 62
     4
  6
CONTINUOUS
  0
LAYER
  5
135
330
66
100
AcDbSymbolTableRecord
100
AcDbLayerTableRecord
  2
DEFPOINTS
 70
     0
 62
     7
  6
CONTINUOUS
  0
LAYER
  5
2B5
330
66
100
AcDbSymbolTableRecord
100
AcDbLayerTableRecord
  2
HIDS
 70
     0
 62
     1
  6
HIDDEN2
  0
LAYER
  5
2BA
330
66
100
AcDbSymbolTableRecord
100
AcDbLayerTableRecord
  2
HOJO
 70
     0
 62
     4
  6
CONTINUOUS
  0
LAYER
  5
3FA
330
66
100
AcDbSymbolTableRecord
100
AcDbLayerTableRecord
  2
TITLE
 70
     0
 62
     4
  6
CONTINUOUS
  0
ENDTAB
  0
TABLE
  2
STYLE
  5
67
330
0
100
AcDbSymbolTable
 70
     1
  0
STYLE
  5
16
330
67
100
AcDbSymbolTableRecord
100
AcDbTextStyleTableRecord
  2
STANDARD
 70
     0
 40
0.0
 41
1.0
 50
0.0
 71
     0
 42
2.0
  3
simplex.shx
  4
extfont.shx
  0
ENDTAB
  0
TABLE
  2
VIEW
  5
6C
330
0
100
AcDbSymbolTable
 70
     0
  0
ENDTAB
  0
TABLE
  2
UCS
  5
6D
330
0
100
AcDbSymbolTable
 70
     0
  0
ENDTAB
  0
TABLE
  2
APPID
  5
70
330
0
100
AcDbSymbolTable
 70
     2
  0
APPID
  5
71
330
70
100
AcDbSymbolTableRecord
100
AcDbRegAppTableRecord
  2
ACAD
 70
     0
  0
APPID
  5
1FFB
330
70
100
AcDbSymbolTableRecord
100
AcDbRegAppTableRecord
  2
CONTENTBLOCKICON
 70
     0
  0
ENDTAB
  0
TABLE
  2
DIMSTYLE
  5
72
330
0
100
AcDbSymbolTable
 70
     1
  0
DIMSTYLE
105
73
330
72
100
AcDbSymbolTableRecord
100
AcDbDimStyleTableRecord
  2
STANDARD
 70
     0
  3

  4

  5

  6

  7

 40
3.0
 41
1.8
 42
0.625
 43
3.75
 44
0.8
 45
0.0
 46
0.0
 47
0.0
 48
0.0
140
1.8
141
2.5
142
0.0
143
0.0394
144
1.0
145
0.0
146
1.0
147
0.75
 71
     0
 72
     0
 73
     0
 74
     0
 75
     0
 76
     0
 77
     1
 78
     8
170
     0
171
     4
172
     1
173
     0
174
     0
175
     0
176
     0
177
     0
178
     0
270
     8
271
     2
272
     2
273
     8
274
     4
340
16
275
     0
280
     0
281
     0
282
     0
283
     1
284
     0
285
     0
286
     0
287
     3
288
     0
  0
ENDTAB
  0
TABLE
  2
BLOCK_RECORD
  5
1
330
0
100
AcDbSymbolTable
 70
    67
  0
BLOCK_RECORD
  5
2
102
{ACAD_XDICTIONARY
360
1FF9
102
}
330
1
100
AcDbSymbolTableRecord
100
AcDbBlockTableRecord
  2
*MODEL_SPACE
  0
BLOCK_RECORD
  5
13A8
102
{ACAD_XDICTIONARY
360
1FFC
102
}
330
1
100
AcDbSymbolTableRecord
100
AcDbBlockTableRecord
  2
*PAPER_SPACE
  0
BLOCK_RECORD
  5
40C
330
1
100
AcDbSymbolTableRecord
100
AcDbBlockTableRecord
  2
外寸枠A4テンプレート
1001
CONTENTBLOCKICON
1071
        0
1004
2800000020000000200000000100080000000000000400000000000000000000000000000000000000000000000080000080000000808000800000008000800080800000C0C0C000C0DCC000F0CAA6000020400000206000002080000020A0000020C0000020E00000400000004020000040400000406000004080000040A0
1004
000040C0000040E00000600000006020000060400000606000006080000060A0000060C0000060E00000800000008020000080400000806000008080000080A0000080C0000080E00000A0000000A0200000A0400000A0600000A0800000A0A00000A0C00000A0E00000C0000000C0200000C0400000C0600000C0800000C0
1004
A00000C0C00000C0E00000E0000000E0200000E0400000E0600000E0800000E0A00000E0C00000E0E00040000000400020004000400040006000400080004000A0004000C0004000E00040200000402020004020400040206000402080004020A0004020C0004020E000404000004040200040404000404060004040800040
1004
40A0004040C0004040E00040600000406020004060400040606000406080004060A0004060C0004060E00040800000408020004080400040806000408080004080A0004080C0004080E00040A0000040A0200040A0400040A0600040A0800040A0A00040A0C00040A0E00040C0000040C0200040C0400040C0600040C08000
1004
40C0A00040C0C00040C0E00040E0000040E0200040E0400040E0600040E0800040E0A00040E0C00040E0E00080000000800020008000400080006000800080008000A0008000C0008000E00080200000802020008020400080206000802080008020A0008020C0008020E00080400000804020008040400080406000804080
1004
008040A0008040C0008040E00080600000806020008060400080606000806080008060A0008060C0008060E00080800000808020008080400080806000808080008080A0008080C0008080E00080A0000080A0200080A0400080A0600080A0800080A0A00080A0C00080A0E00080C0000080C0200080C0400080C0600080C0
1004
800080C0A00080C0C00080C0E00080E0000080E0200080E0400080E0600080E0800080E0A00080E0C00080E0E000C0000000C0002000C0004000C0006000C0008000C000A000C000C000C000E000C0200000C0202000C0204000C0206000C0208000C020A000C020C000C020E000C0400000C0402000C0404000C0406000C0
1004
408000C040A000C040C000C040E000C0600000C0602000C0604000C0606000C0608000C060A000C060C000C060E000C0800000C0802000C0804000C0806000C0808000C080A000C080C000C080E000C0A00000C0A02000C0A04000C0A06000C0A08000C0A0A000C0A0C000C0A0E000C0C00000C0C02000C0C04000C0C06000
1004
C0C08000C0C0A000F0FBFF00A4A0A000808080000000FF0000FF000000FFFF00FF000000FF00FF00FFFF0000FFFFFF0000000000000000000000000000000000000000000000000000000000000000000000000000000000000000000000000000000000000000000000000000000000000000000000000000000000000000
1004
000000000000000000000000000000000000000000000000000000000000000000000000000000000000000000000000000000000000000000000000000000000000000000000000000000000000000000000000000000000000000000000000000000000000000000000000000000000000FCFCFCFCFCFCFCFCFCFCFCFCFC
1004
FCFCFCFCFCFCFCFCFEFEFEFDFDFCFDFDFD0000FC0000000000000000000000000000000000000000FDFDFDFDFDFDFDFDFD0000FC0000000000000000000000000000000000000000FDFDFEFEFEFEFDFDFD0000FC0000000000000000000000000000000000000000FDFCFEFEFEFEFCFCFC0000FC0000000000000000000000
1004
0000000000000000000000000000000000FC0000FC00000000000000000000000000000000000000000000000000000000FC0000FC00000000000000000000000000000000000000000000000000000000FC0000FC00000000000000000000000000000000000000000000000000000000FC0000FC00000000000000000000
1004
000000000000000000000000000000000000FC0000FC00000000000000000000000000000000000000000000000000000000FC0000FC00000000000000000000000000000000000000000000000000000000FC0000FC00000000000000000000000000000000000000000000000000000000FC0000FC000000000000000000
1004
00000000000000000000000000000000000000FC0000FC00000000000000000000000000000000000000000000000000000000FC0000FC00000000000000000000000000000000000000000000000000000000FC0000FC00000000000000000000000000000000000000000000000000000000FC0000FC0000000000000000
1004
0000000000000000000000000000000000000000FC0000FC00000000000000000000000000000000000000000000000000000000FC0000FC00000000000000000000000000000000000000000000FCFCFCFCFCFCFC0000FCFCFCFCFCFCFCFCFCFCFCFCFCFCFCFCFCFCFCFCFCFCFCFCFDFCFCFCFCFC00000000000000000000
1004
00000000000000000000000000000000000000000000000000000000000000000000000000000000000000000000000000000000000000000000000000000000000000000000000000000000000000000000000000000000000000000000000000000000000000000000000000000000000000000000000000000000000000
1004
0000000000000000000000000000000000000000000000000000000000000000000000000000000000000000000000000000000000000000
  0
BLOCK_RECORD
  5
4DC
330
1
100
AcDbSymbolTableRecord
100
AcDbBlockTableRecord
  2
1
  0
BLOCK_RECORD
  5
14EA
330
1
100
AcDbSymbolTableRecord
100
AcDbBlockTableRecord
  2
GSPEC_H-22R-300-450
  0
BLOCK_RECORD
  5
175B
330
1
100
AcDbSymbolTableRecord
100
AcDbBlockTableRecord
  2
MSPEC_S40WF-75
  0
BLOCK_RECORD
  5
1785
330
1
100
AcDbSymbolTableRecord
100
AcDbBlockTableRecord
  2
MSPEC_S60F-75
  0
BLOCK_RECORD
  5
17AB
330
1
100
AcDbSymbolTableRecord
100
AcDbBlockTableRecord
  2
MSPEC_S60WF-75
  0
BLOCK_RECORD
  5
17E7
330
1
100
AcDbSymbolTableRecord
100
AcDbBlockTableRecord
  2
BSPEC_90-45-0038
  0
BLOCK_RECORD
  5
1831
330
1
100
AcDbSymbolTableRecord
100
AcDbBlockTableRecord
  2
BSPEC_90-90-0038
  0
ENDTAB
  0
ENDSEC
  0
SECTION
  2
BLOCKS
  0
BLOCK
  5
5D
330
2
100
AcDbEntity
  8
0
100
AcDbBlockBegin
  2
*MODEL_SPACE
 70
     0
 10
0.0
 20
0.0
 30
0.0
  3
*MODEL_SPACE
  1

  0
ENDBLK
  5
5F
330
2
100
AcDbEntity
  8
0
100
AcDbBlockEnd
  0
BLOCK
  5
13B5
330
13A8
100
AcDbEntity
 67
     1
  8
0
100
AcDbBlockBegin
  2
*PAPER_SPACE
 70
     0
 10
0.0
 20
0.0
 30
0.0
  3
*PAPER_SPACE
  1

  0
ENDBLK
  5
13B6
330
13A8
100
AcDbEntity
 67
     1
  8
0
100
AcDbBlockEnd
  0
BLOCK
  5
463
330
40C
100
AcDbEntity
  8
0
100
AcDbBlockBegin
  2
外寸枠A4テンプレート
 70
     2
 10
0.0
 20
0.0
 30
0.0
  3
外寸枠A4テンプレート
  1

  0
LWPOLYLINE
  5
40D
330
40C
100
AcDbEntity
  8
WAKU
100
AcDbPolyline
 90
        4
 70
     1
 43
0.0
 10
3.0
 20
4.0
 10
280.0
 20
4.0
 10
280.0
 20
194.0
 10
3.0
 20
194.0
  0
LWPOLYLINE
  5
40E
330
40C
100
AcDbEntity
  8
WAKU
100
AcDbPolyline
 90
        4
 70
     1
 43
0.0
 10
3.0
 20
4.0
 10
280.0
 20
4.0
 10
280.0
 20
194.0
 10
3.0
 20
194.0
  0
LINE
  5
40F
330
40C
100
AcDbEntity
  8
WAKU
100
AcDbLine
 10
280.0
 20
182.0
 30
0.0
 11
226.4018178786999
 21
182.0
 31
0.0
  0
TEXT
  5
410
330
40C
100
AcDbEntity
  8
WAKU
 62
     6
100
AcDbText
 10
228.3816999999999
 20
190.11095
 30
0.0
 40
2.1213
  1
REVISIONS
 41
0.7
100
AcDbText
  0
LINE
  5
411
330
40C
100
AcDbEntity
  8
WAKU
100
AcDbLine
 10
226.4018178786999
 20
194.0
 30
0.0
 11
226.4018178786999
 21
181.9999999999999
 31
0.0
  0
LINE
  5
412
330
40C
100
AcDbEntity
  8
WAKU
 62
     6
100
AcDbLine
 10
203.6331999999998
 20
29.0030567071
 30
0.0
 11
280.0
 21
29.0030567071
 31
0.0
  0
LINE
  5
413
330
40C
100
AcDbEntity
  8
WAKU
 62
     6
100
AcDbLine
 10
203.6331999999998
 20
24.47761529289999
 30
0.0
 11
280.0
 21
24.47761529289999
 31
0.0
  0
LINE
  5
414
330
40C
100
AcDbEntity
  8
WAKU
 62
     6
100
AcDbLine
 10
203.6331999999998
 20
19.9521752929
 30
0.0
 11
280.0
 21
19.9521752929
 31
0.0
  0
LINE
  5
415
330
40C
100
AcDbEntity
  8
WAKU
 62
     6
100
AcDbLine
 10
203.6331999999998
 20
15.42673599999999
 30
0.0
 11
280.0
 21
15.42673599999999
 31
0.0
  0
LINE
  5
416
330
40C
100
AcDbEntity
  8
WAKU
 62
     6
100
AcDbLine
 10
203.6331999999998
 20
29.0030567071
 30
0.0
 11
280.0
 21
29.0030567071
 31
0.0
  0
LINE
  5
417
330
40C
100
AcDbEntity
  8
WAKU
 62
     6
100
AcDbLine
 10
203.6331999999998
 20
24.47761529289999
 30
0.0
 11
280.0
 21
24.47761529289999
 31
0.0
  0
LINE
  5
418
330
40C
100
AcDbEntity
  8
WAKU
 62
     6
100
AcDbLine
 10
203.6331999999998
 20
19.9521752929
 30
0.0
 11
280.0
 21
19.9521752929
 31
0.0
  0
LINE
  5
419
330
40C
100
AcDbEntity
  8
WAKU
 62
     6
100
AcDbLine
 10
203.6331999999998
 20
15.42673599999999
 30
0.0
 11
280.0
 21
15.42673599999999
 31
0.0
  0
LINE
  5
41A
330
40C
100
AcDbEntity
  8
WAKU
 62
     6
100
AcDbLine
 10
203.6331999999998
 20
29.0030567071
 30
0.0
 11
280.0
 21
29.0030567071
 31
0.0
  0
LINE
  5
41B
330
40C
100
AcDbEntity
  8
WAKU
 62
     6
100
AcDbLine
 10
203.6331999999998
 20
24.47761529289999
 30
0.0
 11
280.0
 21
24.47761529289999
 31
0.0
  0
LINE
  5
41C
330
40C
100
AcDbEntity
  8
WAKU
 62
     6
100
AcDbLine
 10
203.6331999999998
 20
19.9521752929
 30
0.0
 11
280.0
 21
19.9521752929
 31
0.0
  0
LINE
  5
41D
330
40C
100
AcDbEntity
  8
WAKU
 62
     6
100
AcDbLine
 10
203.6331999999998
 20
15.42673599999999
 30
0.0
 11
280.0
 21
15.42673599999999
 31
0.0
  0
LINE
  5
41E
330
40C
100
AcDbEntity
  8
WAKU
100
AcDbLine
 10
203.6331999999998
 20
38.053936
 30
0.0
 11
280.0
 21
38.053936
 31
0.0
  0
LINE
  5
41F
330
40C
100
AcDbEntity
  8
WAKU
100
AcDbLine
 10
203.6331999999998
 20
38.053936
 30
0.0
 11
280.0
 21
38.053936
 31
0.0
  0
LINE
  5
420
330
40C
100
AcDbEntity
  8
WAKU
100
AcDbLine
 10
203.6331999999998
 20
38.053936
 30
0.0
 11
280.0
 21
38.053936
 31
0.0
  0
TEXT
  5
421
330
40C
100
AcDbEntity
  8
WAKU
 62
     6
100
AcDbText
 10
231.4464545235218
 20
12.856420429
 30
0.0
 40
1.76775
  1
SCALE
 41
0.7
100
AcDbText
  0
TEXT
  5
422
330
40C
100
AcDbEntity
  8
TEXT
100
AcDbText
 10
228.8293221750166
 20
29.96641277760619
 30
0.0
 40
2.5
  1
外　形　寸　法　図
100
AcDbText
  0
ATTDEF
  5
423
330
40C
100
AcDbEntity
  8
TEXT
100
AcDbText
 10
241.8165999999999
 20
35.58735183158626
 30
0.0
 40
2.500000000000001
  1

 72
     4
 11
241.8165999999999
 21
35.58735183158626
 31
0.0
100
AcDbAttributeDefinition
  3
タイトル
  2
T　I　T　L　E
 70
     0
  0
LINE
  5
424
330
40C
100
AcDbEntity
  8
WAKU
100
AcDbLine
 10
203.6331999999998
 20
38.053936
 30
0.0
 11
203.6331999999998
 21
3.999999999999998
 31
0.0
  0
LINE
  5
425
330
40C
100
AcDbEntity
  8
WAKU
100
AcDbLine
 10
203.6331999999998
 20
38.053936
 30
0.0
 11
203.6331999999998
 21
3.999999999999998
 31
0.0
  0
LINE
  5
426
330
40C
100
AcDbEntity
  8
WAKU
100
AcDbLine
 10
203.6331999999998
 20
38.053936
 30
0.0
 11
203.6331999999998
 21
3.999999999999998
 31
0.0
  0
TEXT
  5
427
330
40C
100
AcDbEntity
  8
WAKU
 62
     6
100
AcDbText
 10
204.7645642425999
 20
25.805189179
 30
0.0
 40
2.1213
  1
DRAWING  NO.
 41
0.7
100
AcDbText
  0
TEXT
  5
428
330
40C
100
AcDbEntity
  8
WAKU
 62
     6
100
AcDbText
 10
204.7645642425999
 20
16.75430988609998
 30
0.0
 40
2.1213
  1
NOTICE
 41
0.7
100
AcDbText
  0
TEXT
  5
429
330
40C
100
AcDbEntity
  8
WAKU
 62
     6
100
AcDbText
 10
204.8446469479863
 20
12.674695729
 30
0.0
 40
1.8097340625
  1
APPROVE
 41
0.512174
100
AcDbText
  0
TEXT
  5
42A
330
40C
100
AcDbEntity
  8
WAKU
 62
     6
100
AcDbText
 10
204.7645642425999
 20
21.279749179
 30
0.0
 40
2.1213
  1
USER
 41
0.7
100
AcDbText
  0
TEXT
  5
42B
330
40C
100
AcDbEntity
  8
WAKU
 62
     6
100
AcDbText
 10
222.3147516895863
 20
12.6973292929
 30
0.0
 40
1.7832163983
  1
DESIGN
 41
0.5729449999999999
100
AcDbText
  0
LINE
  5
42C
330
40C
100
AcDbEntity
  8
WAKU
 62
     6
100
AcDbLine
 10
212.3823646725999
 20
15.42673599999999
 30
0.0
 11
212.3823646725999
 21
3.999999999999998
 31
0.0
  0
LINE
  5
42D
330
40C
100
AcDbEntity
  8
WAKU
 62
     6
100
AcDbLine
 10
212.3823646725999
 20
15.42673599999999
 30
0.0
 11
212.3823646725999
 21
3.999999999999998
 31
0.0
  0
LINE
  5
42E
330
40C
100
AcDbEntity
  8
WAKU
 62
     6
100
AcDbLine
 10
212.3823646725999
 20
15.42673599999999
 30
0.0
 11
212.3823646725999
 21
3.999999999999998
 31
0.0
  0
LINE
  5
42F
330
40C
100
AcDbEntity
  8
WAKU
 62
     6
100
AcDbLine
 10
221.1033047415999
 20
15.42673599999999
 30
0.0
 11
221.1033047415999
 21
3.999999999999998
 31
0.0
  0
LINE
  5
430
330
40C
100
AcDbEntity
  8
WAKU
 62
     6
100
AcDbLine
 10
221.1033047415999
 20
15.42673599999999
 30
0.0
 11
221.1033047415999
 21
3.999999999999998
 31
0.0
  0
LINE
  5
431
330
40C
100
AcDbEntity
  8
WAKU
 62
     6
100
AcDbLine
 10
221.1033047415999
 20
15.42673599999999
 30
0.0
 11
221.1033047415999
 21
3.999999999999998
 31
0.0
  0
TEXT
  5
432
330
40C
100
AcDbEntity
  8
WAKU
 62
     6
100
AcDbText
 10
213.5938010140863
 20
12.674695729
 30
0.0
 40
1.76775
  1
CHECK
 41
0.7
100
AcDbText
  0
LINE
  5
433
330
40C
100
AcDbEntity
  8
WAKU
 62
     6
100
AcDbLine
 10
229.8241790502999
 20
15.42673599999999
 30
0.0
 11
229.8241790502999
 21
3.999999999999998
 31
0.0
  0
LINE
  5
434
330
40C
100
AcDbEntity
  8
WAKU
 62
     6
100
AcDbLine
 10
229.8241790502999
 20
15.42673599999999
 30
0.0
 11
229.8241790502999
 21
3.999999999999998
 31
0.0
  0
LINE
  5
435
330
40C
100
AcDbEntity
  8
WAKU
 62
     6
100
AcDbLine
 10
229.8241790502999
 20
15.42673599999999
 30
0.0
 11
229.8241790502999
 21
3.999999999999998
 31
0.0
  0
TEXT
  5
436
330
40C
100
AcDbEntity
  8
WAKU
 62
     6
100
AcDbText
 10
204.7645642425999
 20
35.31568488609999
 30
0.0
 40
2.1213
  1
TITLE
 41
0.7
100
AcDbText
  0
ATTDEF
  5
437
330
40C
100
AcDbEntity
  8
TEXT
100
AcDbText
 10
234.056163734276
 20
8.134449518875573
 30
0.0
 40
2.0
  1

 72
     4
 11
234.056163734276
 21
8.134449518875573
 31
0.0
100
AcDbAttributeDefinition
  3
SCALE
  2
FREE
 70
     0
  0
ATTDEF
  5
438
330
40C
100
AcDbEntity
  8
TEXT
100
AcDbText
 10
207.865184683976
 20
8.134449518875573
 30
0.0
 40
2.500000000000004
  1

 72
     4
 11
207.865184683976
 21
8.134449518875573
 31
0.0
100
AcDbAttributeDefinition
  3
承認
  2
海野
 70
     0
  0
ATTDEF
  5
439
330
40C
100
AcDbEntity
  8
TEXT
100
AcDbText
 10
225.335289425576
 20
8.134449518875575
 30
0.0
 40
2.500000000000004
  1

 72
     4
 11
225.335289425576
 21
8.134449518875575
 31
0.0
100
AcDbAttributeDefinition
  3
作成
  2
鳥居
 70
     0
  0
ATTDEF
  5
43A
330
40C
100
AcDbEntity
  8
TEXT
100
AcDbText
 10
216.614349356576
 20
8.134449518875575
 30
0.0
 40
2.500000000000004
  1

 72
     4
 11
216.614349356576
 21
8.134449518875575
 31
0.0
100
AcDbAttributeDefinition
  3
確認
  2
永坂
 70
     0
  0
LINE
  5
43B
330
40C
100
AcDbEntity
  8
WAKU
 62
     6
100
AcDbLine
 10
238.6487948283999
 20
8.638576
 30
0.0
 11
280.0
 21
8.638576
 31
0.0
  0
LINE
  5
43C
330
40C
100
AcDbEntity
  8
WAKU
 62
     6
100
AcDbLine
 10
238.6487948283999
 20
8.638576
 30
0.0
 11
280.0
 21
8.638576
 31
0.0
  0
LINE
  5
43D
330
40C
100
AcDbEntity
  8
WAKU
 62
     6
100
AcDbLine
 10
238.6487948283999
 20
8.638576
 30
0.0
 11
280.0
 21
8.638576
 31
0.0
  0
TEXT
  5
43E
330
40C
100
AcDbEntity
  8
WAKU
 62
     6
100
AcDbText
 10
241.15294501234
 20
5.246258800300003
 30
0.0
 40
2.1213
  1
NISSEI  CORPORATION
100
AcDbText
  0
LINE
  5
43F
330
40C
100
AcDbEntity
  8
WAKU
100
AcDbLine
 10
246.5683127070999
 20
13.02259600000001
 30
0.0
 11
250.5280769496998
 21
14.01253599999999
 31
0.0
  0
LINE
  5
440
330
40C
100
AcDbEntity
  8
WAKU
100
AcDbLine
 10
246.5683127070999
 20
13.02259600000001
 30
0.0
 11
250.5280769496998
 21
14.01253599999999
 31
0.0
  0
LINE
  5
441
330
40C
100
AcDbEntity
  8
WAKU
100
AcDbLine
 10
246.5683127070999
 20
13.02259600000001
 30
0.0
 11
250.5280769496998
 21
14.01253599999999
 31
0.0
  0
LINE
  5
442
330
40C
100
AcDbEntity
  8
WAKU
100
AcDbLine
 10
246.5683127070999
 20
11.0427152929
 30
0.0
 11
250.5280769496998
 21
10.052776
 31
0.0
  0
LINE
  5
443
330
40C
100
AcDbEntity
  8
WAKU
100
AcDbLine
 10
246.5683127070999
 20
11.0427152929
 30
0.0
 11
250.5280769496998
 21
10.052776
 31
0.0
  0
LINE
  5
444
330
40C
100
AcDbEntity
  8
WAKU
100
AcDbLine
 10
246.5683127070999
 20
11.0427152929
 30
0.0
 11
250.5280769496998
 21
10.052776
 31
0.0
  0
LINE
  5
445
330
40C
100
AcDbEntity
  8
CENTER
 62
     6
100
AcDbLine
 10
239.4478107573998
 20
12.0326567071
 30
0.0
 11
251.3624499999998
 21
12.0326567071
 31
0.0
  0
LINE
  5
446
330
40C
100
AcDbEntity
  8
CENTER
 62
     6
100
AcDbLine
 10
239.4478107573998
 20
12.0326567071
 30
0.0
 11
251.3624499999998
 21
12.0326567071
 31
0.0
  0
LINE
  5
447
330
40C
100
AcDbEntity
  8
CENTER
 62
     6
100
AcDbLine
 10
239.4478107573998
 20
12.0326567071
 30
0.0
 11
251.3624499999998
 21
12.0326567071
 31
0.0
  0
LINE
  5
448
330
40C
100
AcDbEntity
  8
WAKU
 62
     6
100
AcDbLine
 10
238.6487948283999
 20
15.42673599999999
 30
0.0
 11
238.6487948283999
 21
3.999999999999998
 31
0.0
  0
LINE
  5
449
330
40C
100
AcDbEntity
  8
WAKU
 62
     6
100
AcDbLine
 10
238.6487948283999
 20
15.42673599999999
 30
0.0
 11
238.6487948283999
 21
3.999999999999998
 31
0.0
  0
LINE
  5
44A
330
40C
100
AcDbEntity
  8
WAKU
 62
     6
100
AcDbLine
 10
238.6487948283999
 20
15.42673599999999
 30
0.0
 11
238.6487948283999
 21
3.999999999999998
 31
0.0
  0
CIRCLE
  5
44B
330
40C
100
AcDbEntity
  8
WAKU
100
AcDbCircle
 10
242.0428769496999
 20
12.0326567071
 30
0.0
 40
0.9899399999999999
  0
CIRCLE
  5
44C
330
40C
100
AcDbEntity
  8
WAKU
100
AcDbCircle
 10
242.0428769496999
 20
12.0326567071
 30
0.0
 40
0.9899399999999999
  0
CIRCLE
  5
44D
330
40C
100
AcDbEntity
  8
WAKU
100
AcDbCircle
 10
242.0428769496999
 20
12.0326567071
 30
0.0
 40
0.9899399999999999
  0
CIRCLE
  5
44E
330
40C
100
AcDbEntity
  8
WAKU
100
AcDbCircle
 10
242.0428769496999
 20
12.0326567071
 30
0.0
 40
1.979879999999999
  0
CIRCLE
  5
44F
330
40C
100
AcDbEntity
  8
WAKU
100
AcDbCircle
 10
242.0428769496999
 20
12.0326567071
 30
0.0
 40
1.979879999999999
  0
CIRCLE
  5
450
330
40C
100
AcDbEntity
  8
WAKU
100
AcDbCircle
 10
242.0428769496999
 20
12.0326567071
 30
0.0
 40
1.979879999999999
  0
LINE
  5
451
330
40C
100
AcDbEntity
  8
WAKU
100
AcDbLine
 10
246.5683127070999
 20
13.02259600000001
 30
0.0
 11
246.5683127070999
 21
11.0427152929
 31
0.0
  0
LINE
  5
452
330
40C
100
AcDbEntity
  8
WAKU
100
AcDbLine
 10
246.5683127070999
 20
13.02259600000001
 30
0.0
 11
246.5683127070999
 21
11.0427152929
 31
0.0
  0
LINE
  5
453
330
40C
100
AcDbEntity
  8
WAKU
100
AcDbLine
 10
246.5683127070999
 20
13.02259600000001
 30
0.0
 11
246.5683127070999
 21
11.0427152929
 31
0.0
  0
LINE
  5
454
330
40C
100
AcDbEntity
  8
CENTER
 62
     6
100
AcDbLine
 10
242.0428769496999
 20
14.96005
 30
0.0
 11
242.0428769496999
 21
9.267895000000009
 31
0.0
  0
LINE
  5
455
330
40C
100
AcDbEntity
  8
CENTER
 62
     6
100
AcDbLine
 10
242.0428769496999
 20
14.96005
 30
0.0
 11
242.0428769496999
 21
9.267895000000009
 31
0.0
  0
LINE
  5
456
330
40C
100
AcDbEntity
  8
CENTER
 62
     6
100
AcDbLine
 10
242.0428769496999
 20
14.96005
 30
0.0
 11
242.0428769496999
 21
9.267895000000009
 31
0.0
  0
TEXT
  5
457
330
40C
100
AcDbEntity
  8
TEXT
100
AcDbText
 10
257.3078171288039
 20
9.492177985111482
 30
0.0
 40
2.0
  1
mm
100
AcDbText
  0
LINE
  5
458
330
40C
100
AcDbEntity
  8
WAKU
 62
     6
100
AcDbLine
 10
252.2251127070999
 20
15.42673599999999
 30
0.0
 11
252.2251127070999
 21
8.638576
 31
0.0
  0
LINE
  5
459
330
40C
100
AcDbEntity
  8
WAKU
 62
     6
100
AcDbLine
 10
252.2251127070999
 20
15.42673599999999
 30
0.0
 11
252.2251127070999
 21
8.638576
 31
0.0
  0
LINE
  5
45A
330
40C
100
AcDbEntity
  8
WAKU
 62
     6
100
AcDbLine
 10
252.2251127070999
 20
15.42673599999999
 30
0.0
 11
252.2251127070999
 21
8.638576
 31
0.0
  0
LINE
  5
45B
330
40C
100
AcDbEntity
  8
WAKU
100
AcDbLine
 10
250.5280769496998
 20
14.01253599999999
 30
0.0
 11
250.5280769496998
 21
10.052776
 31
0.0
  0
LINE
  5
45C
330
40C
100
AcDbEntity
  8
WAKU
100
AcDbLine
 10
250.5280769496998
 20
14.01253599999999
 30
0.0
 11
250.5280769496998
 21
10.052776
 31
0.0
  0
LINE
  5
45D
330
40C
100
AcDbEntity
  8
WAKU
100
AcDbLine
 10
250.5280769496998
 20
14.01253599999999
 30
0.0
 11
250.5280769496998
 21
10.052776
 31
0.0
  0
TEXT
  5
45E
330
40C
100
AcDbEntity
  8
WAKU
 62
     6
100
AcDbText
 10
253.4130357573999
 20
13.0508792929
 30
0.0
 40
1.76775
  1
UNIT
 41
0.7
100
AcDbText
  0
TEXT
  5
45F
330
40C
100
AcDbEntity
  8
WAKU
 62
     6
100
AcDbText
 10
266.9893642426
 20
13.0508792929
 30
0.0
 40
1.76775
  1
DATE
 41
0.7
100
AcDbText
  0
LINE
  5
460
330
40C
100
AcDbEntity
  8
WAKU
 62
     6
100
AcDbLine
 10
265.7448611715999
 20
15.42673599999999
 30
0.0
 11
265.7448611715999
 21
8.638576
 31
0.0
  0
LINE
  5
461
330
40C
100
AcDbEntity
  8
WAKU
 62
     6
100
AcDbLine
 10
265.7448611715999
 20
15.42673599999999
 30
0.0
 11
265.7448611715999
 21
8.638576
 31
0.0
  0
LINE
  5
462
330
40C
100
AcDbEntity
  8
WAKU
 62
     6
100
AcDbLine
 10
265.7448611715999
 20
15.42673599999999
 30
0.0
 11
265.7448611715999
 21
8.638576
 31
0.0
  0
ENDBLK
  5
464
330
40C
100
AcDbEntity
  8
0
100
AcDbBlockEnd
  0
BLOCK
  5
4DE
330
4DC
100
AcDbEntity
  8
0
100
AcDbBlockBegin
  2
1
 70
     0
 10
0.0
 20
0.0
 30
0.0
  3
1
  1

  0
TEXT
  5
4DD
330
4DC
100
AcDbEntity
  8
0
100
AcDbText
 10
0.0
 20
0.0
 30
0.0
 40
2.0
  1
注。出力軸キーは JIS B 1301-1976平行キーに依ります。
100
AcDbText
  0
ENDBLK
  5
4DF
330
4DC
100
AcDbEntity
  8
0
100
AcDbBlockEnd
  0
BLOCK
  5
1502
330
14EA
100
AcDbEntity
  8
0
100
AcDbBlockBegin
  2
GSPEC_H-22R-300-450
 70
     0
 10
0.0
 20
0.0
 30
0.0
  3
GSPEC_H-22R-300-450
  1

  0
LINE
  5
14EB
330
14EA
100
AcDbEntity
  8
0
100
AcDbLine
 10
131.0
 20
20.32249999999996
 30
0.0
 11
183.0
 21
20.32249999999996
 31
0.0
  0
LINE
  5
14EC
330
14EA
100
AcDbEntity
  8
0
100
AcDbLine
 10
131.0
 20
16.78699999999997
 30
0.0
 11
183.0
 21
16.78699999999997
 31
0.0
  0
LINE
  5
14ED
330
14EA
100
AcDbEntity
  8
0
100
AcDbLine
 10
131.0
 20
23.85799999999994
 30
0.0
 11
183.0
 21
23.85799999999994
 31
0.0
  0
LINE
  5
14EE
330
14EA
100
AcDbEntity
  8
0
100
AcDbLine
 10
131.0
 20
34.46450000000001
 30
0.0
 11
183.0
 21
34.46450000000001
 31
0.0
  0
LINE
  5
14EF
330
14EA
100
AcDbEntity
  8
0
100
AcDbLine
 10
131.0
 20
30.929
 30
0.0
 11
183.0
 21
30.92899999999997
 31
0.0
  0
LINE
  5
14F0
330
14EA
100
AcDbEntity
  8
0
100
AcDbLine
 10
131.0
 20
38.0
 30
0.0
 11
183.0
 21
38.0
 31
0.0
  0
LINE
  5
14F1
330
14EA
100
AcDbEntity
  8
0
100
AcDbLine
 10
131.0
 20
16.78699999999997
 30
0.0
 11
131.0
 21
38.0
 31
0.0
  0
TEXT
  5
14F2
330
14EA
100
AcDbEntity
  8
0
100
AcDbText
 10
131.6780944417463
 20
21.02959999999995
 30
0.0
 40
2.0
  1
潤滑
100
AcDbText
  0
TEXT
  5
14F3
330
14EA
100
AcDbEntity
  8
0
100
AcDbText
 10
131.6780944417462
 20
17.4005422092805
 30
0.0
 40
2.0
  1
塗色
100
AcDbText
  0
TEXT
  5
14F4
330
14EA
100
AcDbEntity
  8
0
100
AcDbText
 10
131.6780944417462
 20
26.15579327977821
 30
0.0
 40
2.0
  1
減速比
100
AcDbText
  0
TEXT
  5
14F5
330
14EA
100
AcDbEntity
  8
0
100
AcDbText
 10
131.6780944417462
 20
31.6361
 30
0.0
 40
2.0
  1
枠番
100
AcDbText
  0
TEXT
  5
14F6
330
14EA
100
AcDbEntity
  8
0
100
AcDbText
 10
131.6780944417462
 20
35.17159999999998
 30
0.0
 40
2.0
  1
名称
100
AcDbText
  0
LINE
  5
14F7
330
14EA
100
AcDbEntity
  8
0
100
AcDbLine
 10
183.0
 20
16.78699999999997
 30
0.0
 11
183.0
 21
38.0
 31
0.0
  0
LINE
  5
14F8
330
14EA
100
AcDbEntity
  8
0
100
AcDbLine
 10
142.5
 20
16.78699999999997
 30
0.0
 11
142.5
 21
38.0
 31
0.0
  0
TEXT
  5
14F9
330
14EA
100
AcDbEntity
  8
0
100
AcDbText
 10
143.3531994322572
 20
28.10060000000001
 30
0.0
 40
2.0
  1
1/300 1/375 1/450 
100
AcDbText
  0
TEXT
  5
14FA
330
14EA
100
AcDbEntity
  8
0
100
AcDbText
 10
143.3531994322572
 20
17.49409999999994
 30
0.0
 40
2.0
  1
グレー（マンセル値 9B6/0.5）
100
AcDbText
  0
LINE
  5
14FB
330
14EA
100
AcDbEntity
  8
0
100
AcDbLine
 10
142.5
 20
27.39349999999999
 30
0.0
 11
183.0
 21
27.39349999999999
 31
0.0
  0
TEXT
  5
14FC
330
14EA
100
AcDbEntity
  8
0
100
AcDbText
 10
143.3531994322572
 20
21.02959999999995
 30
0.0
 40
2.0
  1
グリース
100
AcDbText
  0
LINE
  5
14FD
330
14EA
100
AcDbEntity
  8
0
100
AcDbLine
 10
150.4725366217368
 20
39.41419999999999
 30
0.0
 11
163.5274633782631
 21
39.41419999999999
 31
0.0
  0
LINE
  5
14FE
330
14EA
100
AcDbEntity
  8
0
100
AcDbLine
 10
150.4725366217368
 20
40.12129999999999
 30
0.0
 11
163.5274633782631
 21
40.12129999999999
 31
0.0
  0
TEXT
  5
14FF
330
14EA
100
AcDbEntity
  8
0
100
AcDbText
 10
151.1299348544099
 20
40.47485
 30
0.0
 40
2.0
  1
減速機仕様
100
AcDbText
  0
TEXT
  5
1500
330
14EA
100
AcDbEntity
  8
0
100
AcDbText
 10
143.3531994322572
 20
31.6361
 30
0.0
 40
2.0
  1
22R
100
AcDbText
  0
TEXT
  5
1501
330
14EA
100
AcDbEntity
  8
0
100
AcDbText
 10
143.3531994322572
 20
35.17159999999998
 30
0.0
 40
2.0
  1
GTR
100
AcDbText
  0
ENDBLK
  5
1503
330
14EA
100
AcDbEntity
  8
0
100
AcDbBlockEnd
  0
BLOCK
  5
177E
330
175B
100
AcDbEntity
  8
0
100
AcDbBlockBegin
  2
MSPEC_S40WF-75
 70
     0
 10
0.0
 20
0.0
 30
0.0
  3
MSPEC_S40WF-75
  1

  0
LINE
  5
175C
330
175B
100
AcDbEntity
  8
0
100
AcDbLine
 10
126.0
 20
6.180499999999994
 30
0.0
 11
126.0
 21
37.99999999999997
 31
0.0
  0
TEXT
  5
175D
330
175B
100
AcDbEntity
  8
0
100
AcDbText
 10
86.35319943225727
 20
28.10060000000001
 30
0.0
 40
2.0
  1
40 W
100
AcDbText
  0
TEXT
  5
175E
330
175B
100
AcDbEntity
  8
0
100
AcDbText
 10
74.67809444174623
 20
28.10059999999998
 30
0.0
 40
2.0
  1
出力
100
AcDbText
  0
LINE
  5
175F
330
175B
100
AcDbEntity
  8
0
100
AcDbLine
 10
85.5
 20
6.180499999999994
 30
0.0
 11
85.5
 21
38.0
 31
0.0
  0
LINE
  5
1760
330
175B
100
AcDbEntity
  8
0
100
AcDbLine
 10
73.99999999999998
 20
6.180500000000023
 30
0.0
 11
74.0
 21
38.0
 31
0.0
  0
TEXT
  5
1761
330
175B
100
AcDbEntity
  8
0
100
AcDbText
 10
86.35319943225727
 20
13.95859999999993
 30
0.0
 40
2.0
  1
1500/1800 rpm
100
AcDbText
  0
LINE
  5
1762
330
175B
100
AcDbEntity
  8
0
100
AcDbLine
 10
74.0
 20
6.180500000000023
 30
0.0
 11
126.0
 21
6.180499999999994
 31
0.0
  0
LINE
  5
1763
330
175B
100
AcDbEntity
  8
0
100
AcDbLine
 10
74.0
 20
9.716000000000008
 30
0.0
 11
126.0
 21
9.715999999999979
 31
0.0
  0
LINE
  5
1764
330
175B
100
AcDbEntity
  8
0
100
AcDbLine
 10
74.0
 20
13.25149999999999
 30
0.0
 11
126.0
 21
13.25149999999996
 31
0.0
  0
LINE
  5
1765
330
175B
100
AcDbEntity
  8
0
100
AcDbLine
 10
74.0
 20
23.85799999999994
 30
0.0
 11
126.0
 21
23.85799999999992
 31
0.0
  0
LINE
  5
1766
330
175B
100
AcDbEntity
  8
0
100
AcDbLine
 10
74.0
 20
16.78699999999997
 30
0.0
 11
126.0
 21
16.78699999999994
 31
0.0
  0
LINE
  5
1767
330
175B
100
AcDbEntity
  8
0
100
AcDbLine
 10
74.0
 20
20.32249999999996
 30
0.0
 11
126.0
 21
20.32249999999993
 31
0.0
  0
LINE
  5
1768
330
175B
100
AcDbEntity
  8
0
100
AcDbLine
 10
74.0
 20
27.39349999999999
 30
0.0
 11
126.0
 21
27.39349999999996
 31
0.0
  0
TEXT
  5
1769
330
175B
100
AcDbEntity
  8
0
100
AcDbText
 10
86.35319943225727
 20
24.56510000000003
 30
0.0
 40
2.0
  1
200 V
100
AcDbText
  0
TEXT
  5
176A
330
175B
100
AcDbEntity
  8
0
100
AcDbText
 10
86.35319943225727
 20
21.02959999999995
 30
0.0
 40
2.0
  1
50/60 Hz
100
AcDbText
  0
TEXT
  5
176B
330
175B
100
AcDbEntity
  8
0
100
AcDbText
 10
74.67809444174623
 20
10.3295422092805
 30
0.0
 40
2.0
  1
定格
100
AcDbText
  0
TEXT
  5
176C
330
175B
100
AcDbEntity
  8
0
100
AcDbText
 10
74.67809444174623
 20
6.794042209280519
 30
0.0
 40
2.0
  1
絶縁
100
AcDbText
  0
TEXT
  5
176D
330
175B
100
AcDbEntity
  8
0
100
AcDbText
 10
86.35319943225727
 20
10.42309999999994
 30
0.0
 40
2.0
  1
連続
100
AcDbText
  0
TEXT
  5
176E
330
175B
100
AcDbEntity
  8
0
100
AcDbText
 10
86.35319943225727
 20
6.887599999999963
 30
0.0
 40
2.0
  1
E種
100
AcDbText
  0
TEXT
  5
176F
330
175B
100
AcDbEntity
  8
0
100
AcDbText
 10
74.67809444174623
 20
13.86504220928048
 30
0.0
 40
2.0
  1
回転速度
100
AcDbText
  0
TEXT
  5
1770
330
175B
100
AcDbEntity
  8
0
100
AcDbText
 10
74.67809444174633
 20
21.02959999999995
 30
0.0
 40
2.0
  1
周波数
100
AcDbText
  0
TEXT
  5
1771
330
175B
100
AcDbEntity
  8
0
100
AcDbText
 10
74.67809444174623
 20
17.4005422092805
 30
0.0
 40
2.0
  1
極数
100
AcDbText
  0
TEXT
  5
1772
330
175B
100
AcDbEntity
  8
0
100
AcDbText
 10
74.67809444174623
 20
24.56509999999997
 30
0.0
 40
2.0
  1
電圧
100
AcDbText
  0
TEXT
  5
1773
330
175B
100
AcDbEntity
  8
0
100
AcDbText
 10
86.35319943225727
 20
17.49409999999994
 30
0.0
 40
2.0
  1
4
100
AcDbText
  0
TEXT
  5
1774
330
175B
100
AcDbEntity
  8
0
100
AcDbText
 10
86.35319943225727
 20
31.6361
 30
0.0
 40
2.0
  1
全閉外扇形（ｺﾝﾃﾞﾝｻﾗﾝ）DS-75
100
AcDbText
  0
LINE
  5
1775
330
175B
100
AcDbEntity
  8
0
100
AcDbLine
 10
74.0
 20
38.0
 30
0.0
 11
126.0
 21
37.99999999999997
 31
0.0
  0
LINE
  5
1776
330
175B
100
AcDbEntity
  8
0
100
AcDbLine
 10
74.0
 20
30.929
 30
0.0
 11
126.0
 21
30.92899999999994
 31
0.0
  0
LINE
  5
1777
330
175B
100
AcDbEntity
  8
0
100
AcDbLine
 10
74.0
 20
34.46450000000001
 30
0.0
 11
126.0
 21
34.46449999999998
 31
0.0
  0
TEXT
  5
1778
330
175B
100
AcDbEntity
  8
0
100
AcDbText
 10
86.35319943225727
 20
35.17159999999998
 30
0.0
 40
2.0
  1
単相誘導電動機
100
AcDbText
  0
TEXT
  5
1779
330
175B
100
AcDbEntity
  8
0
100
AcDbText
 10
74.67809444174623
 20
31.6361
 30
0.0
 40
2.0
  1
型式
100
AcDbText
  0
TEXT
  5
177A
330
175B
100
AcDbEntity
  8
0
100
AcDbText
 10
74.67809444174623
 20
35.17159999999998
 30
0.0
 40
2.0
  1
名称
100
AcDbText
  0
LINE
  5
177B
330
175B
100
AcDbEntity
  8
0
100
AcDbLine
 10
93.80123573807338
 20
40.12129999999999
 30
0.0
 11
106.1987642619266
 21
40.12129999999999
 31
0.0
  0
LINE
  5
177C
330
175B
100
AcDbEntity
  8
0
100
AcDbLine
 10
93.80123573807338
 20
39.41419999999999
 30
0.0
 11
106.1987642619266
 21
39.41419999999999
 31
0.0
  0
TEXT
  5
177D
330
175B
100
AcDbEntity
  8
0
100
AcDbText
 10
93.99902987649658
 20
40.47485
 30
0.0
 40
2.0
  1
モータ仕様
100
AcDbText
  0
ENDBLK
  5
177F
330
175B
100
AcDbEntity
  8
0
100
AcDbBlockEnd
  0
BLOCK
  5
17A8
330
1785
100
AcDbEntity
  8
0
100
AcDbBlockBegin
  2
MSPEC_S60F-75
 70
     0
 10
0.0
 20
0.0
 30
0.0
  3
MSPEC_S60F-75
  1

  0
LINE
  5
1786
330
1785
100
AcDbEntity
  8
0
100
AcDbLine
 10
126.0
 20
6.180499999999994
 30
0.0
 11
126.0
 21
37.99999999999997
 31
0.0
  0
TEXT
  5
1787
330
1785
100
AcDbEntity
  8
0
100
AcDbText
 10
86.35319943225727
 20
28.10060000000001
 30
0.0
 40
2.0
  1
60 W
100
AcDbText
  0
TEXT
  5
1788
330
1785
100
AcDbEntity
  8
0
100
AcDbText
 10
74.67809444174623
 20
28.10059999999998
 30
0.0
 40
2.0
  1
出力
100
AcDbText
  0
LINE
  5
1789
330
1785
100
AcDbEntity
  8
0
100
AcDbLine
 10
85.5
 20
6.180499999999994
 30
0.0
 11
85.5
 21
38.0
 31
0.0
  0
LINE
  5
178A
330
1785
100
AcDbEntity
  8
0
100
AcDbLine
 10
73.99999999999998
 20
6.180500000000023
 30
0.0
 11
74.0
 21
38.0
 31
0.0
  0
TEXT
  5
178B
330
1785
100
AcDbEntity
  8
0
100
AcDbText
 10
86.35319943225727
 20
13.95859999999993
 30
0.0
 40
2.0
  1
1500/1800 rpm
100
AcDbText
  0
LINE
  5
178C
330
1785
100
AcDbEntity
  8
0
100
AcDbLine
 10
74.0
 20
6.180500000000023
 30
0.0
 11
126.0
 21
6.180499999999994
 31
0.0
  0
LINE
  5
178D
330
1785
100
AcDbEntity
  8
0
100
AcDbLine
 10
74.0
 20
9.716000000000008
 30
0.0
 11
126.0
 21
9.715999999999979
 31
0.0
  0
LINE
  5
178E
330
1785
100
AcDbEntity
  8
0
100
AcDbLine
 10
74.0
 20
13.25149999999999
 30
0.0
 11
126.0
 21
13.25149999999996
 31
0.0
  0
LINE
  5
178F
330
1785
100
AcDbEntity
  8
0
100
AcDbLine
 10
74.0
 20
23.85799999999994
 30
0.0
 11
126.0
 21
23.85799999999992
 31
0.0
  0
LINE
  5
1790
330
1785
100
AcDbEntity
  8
0
100
AcDbLine
 10
74.0
 20
16.78699999999997
 30
0.0
 11
126.0
 21
16.78699999999994
 31
0.0
  0
LINE
  5
1791
330
1785
100
AcDbEntity
  8
0
100
AcDbLine
 10
74.0
 20
20.32249999999996
 30
0.0
 11
126.0
 21
20.32249999999993
 31
0.0
  0
LINE
  5
1792
330
1785
100
AcDbEntity
  8
0
100
AcDbLine
 10
74.0
 20
27.39349999999999
 30
0.0
 11
126.0
 21
27.39349999999996
 31
0.0
  0
TEXT
  5
1793
330
1785
100
AcDbEntity
  8
0
100
AcDbText
 10
86.35319943225727
 20
24.56510000000003
 30
0.0
 40
2.0
  1
100 V
100
AcDbText
  0
TEXT
  5
1794
330
1785
100
AcDbEntity
  8
0
100
AcDbText
 10
86.35319943225727
 20
21.02959999999995
 30
0.0
 40
2.0
  1
50/60 Hz
100
AcDbText
  0
TEXT
  5
1795
330
1785
100
AcDbEntity
  8
0
100
AcDbText
 10
74.67809444174623
 20
10.3295422092805
 30
0.0
 40
2.0
  1
定格
100
AcDbText
  0
TEXT
  5
1796
330
1785
100
AcDbEntity
  8
0
100
AcDbText
 10
74.67809444174623
 20
6.794042209280519
 30
0.0
 40
2.0
  1
絶縁
100
AcDbText
  0
TEXT
  5
1797
330
1785
100
AcDbEntity
  8
0
100
AcDbText
 10
86.35319943225727
 20
10.42309999999994
 30
0.0
 40
2.0
  1
連続
100
AcDbText
  0
TEXT
  5
1798
330
1785
100
AcDbEntity
  8
0
100
AcDbText
 10
86.35319943225727
 20
6.887599999999963
 30
0.0
 40
2.0
  1
E種
100
AcDbText
  0
TEXT
  5
1799
330
1785
100
AcDbEntity
  8
0
100
AcDbText
 10
74.67809444174623
 20
13.86504220928048
 30
0.0
 40
2.0
  1
回転速度
100
AcDbText
  0
TEXT
  5
179A
330
1785
100
AcDbEntity
  8
0
100
AcDbText
 10
74.67809444174633
 20
21.02959999999995
 30
0.0
 40
2.0
  1
周波数
100
AcDbText
  0
TEXT
  5
179B
330
1785
100
AcDbEntity
  8
0
100
AcDbText
 10
74.67809444174623
 20
17.4005422092805
 30
0.0
 40
2.0
  1
極数
100
AcDbText
  0
TEXT
  5
179C
330
1785
100
AcDbEntity
  8
0
100
AcDbText
 10
74.67809444174623
 20
24.56509999999997
 30
0.0
 40
2.0
  1
電圧
100
AcDbText
  0
TEXT
  5
179D
330
1785
100
AcDbEntity
  8
0
100
AcDbText
 10
86.35319943225727
 20
17.49409999999994
 30
0.0
 40
2.0
  1
4
100
AcDbText
  0
TEXT
  5
179E
330
1785
100
AcDbEntity
  8
0
100
AcDbText
 10
86.35319943225727
 20
31.6361
 30
0.0
 40
2.0
  1
全閉外扇形（ｺﾝﾃﾞﾝｻﾗﾝ）DS-75
100
AcDbText
  0
LINE
  5
179F
330
1785
100
AcDbEntity
  8
0
100
AcDbLine
 10
74.0
 20
38.0
 30
0.0
 11
126.0
 21
37.99999999999997
 31
0.0
  0
LINE
  5
17A0
330
1785
100
AcDbEntity
  8
0
100
AcDbLine
 10
74.0
 20
30.929
 30
0.0
 11
126.0
 21
30.92899999999994
 31
0.0
  0
LINE
  5
17A1
330
1785
100
AcDbEntity
  8
0
100
AcDbLine
 10
74.0
 20
34.46450000000001
 30
0.0
 11
126.0
 21
34.46449999999998
 31
0.0
  0
TEXT
  5
17A2
330
1785
100
AcDbEntity
  8
0
100
AcDbText
 10
86.35319943225727
 20
35.17159999999998
 30
0.0
 40
2.0
  1
単相誘導電動機
100
AcDbText
  0
TEXT
  5
17A3
330
1785
100
AcDbEntity
  8
0
100
AcDbText
 10
74.67809444174623
 20
31.6361
 30
0.0
 40
2.0
  1
型式
100
AcDbText
  0
TEXT
  5
17A4
330
1785
100
AcDbEntity
  8
0
100
AcDbText
 10
74.67809444174623
 20
35.17159999999998
 30
0.0
 40
2.0
  1
名称
100
AcDbText
  0
LINE
  5
17A5
330
1785
100
AcDbEntity
  8
0
100
AcDbLine
 10
93.80123573807338
 20
40.12129999999999
 30
0.0
 11
106.1987642619266
 21
40.12129999999999
 31
0.0
  0
LINE
  5
17A6
330
1785
100
AcDbEntity
  8
0
100
AcDbLine
 10
93.80123573807338
 20
39.41419999999999
 30
0.0
 11
106.1987642619266
 21
39.41419999999999
 31
0.0
  0
TEXT
  5
17A7
330
1785
100
AcDbEntity
  8
0
100
AcDbText
 10
93.99902987649658
 20
40.47485
 30
0.0
 40
2.0
  1
モータ仕様
100
AcDbText
  0
ENDBLK
  5
17A9
330
1785
100
AcDbEntity
  8
0
100
AcDbBlockEnd
  0
BLOCK
  5
17CE
330
17AB
100
AcDbEntity
  8
0
100
AcDbBlockBegin
  2
MSPEC_S60WF-75
 70
     0
 10
0.0
 20
0.0
 30
0.0
  3
MSPEC_S60WF-75
  1

  0
LINE
  5
17AC
330
17AB
100
AcDbEntity
  8
0
100
AcDbLine
 10
126.0
 20
6.180499999999994
 30
0.0
 11
126.0
 21
37.99999999999997
 31
0.0
  0
TEXT
  5
17AD
330
17AB
100
AcDbEntity
  8
0
100
AcDbText
 10
86.35319943225727
 20
28.10060000000001
 30
0.0
 40
2.0
  1
60 W
100
AcDbText
  0
TEXT
  5
17AE
330
17AB
100
AcDbEntity
  8
0
100
AcDbText
 10
74.67809444174623
 20
28.10059999999998
 30
0.0
 40
2.0
  1
出力
100
AcDbText
  0
LINE
  5
17AF
330
17AB
100
AcDbEntity
  8
0
100
AcDbLine
 10
85.5
 20
6.180499999999994
 30
0.0
 11
85.5
 21
38.0
 31
0.0
  0
LINE
  5
17B0
330
17AB
100
AcDbEntity
  8
0
100
AcDbLine
 10
73.99999999999998
 20
6.180500000000023
 30
0.0
 11
74.0
 21
38.0
 31
0.0
  0
TEXT
  5
17B1
330
17AB
100
AcDbEntity
  8
0
100
AcDbText
 10
86.35319943225727
 20
13.95859999999993
 30
0.0
 40
2.0
  1
1500/1800 rpm
100
AcDbText
  0
LINE
  5
17B2
330
17AB
100
AcDbEntity
  8
0
100
AcDbLine
 10
74.0
 20
6.180500000000023
 30
0.0
 11
126.0
 21
6.180499999999994
 31
0.0
  0
LINE
  5
17B3
330
17AB
100
AcDbEntity
  8
0
100
AcDbLine
 10
74.0
 20
9.716000000000008
 30
0.0
 11
126.0
 21
9.715999999999979
 31
0.0
  0
LINE
  5
17B4
330
17AB
100
AcDbEntity
  8
0
100
AcDbLine
 10
74.0
 20
13.25149999999999
 30
0.0
 11
126.0
 21
13.25149999999996
 31
0.0
  0
LINE
  5
17B5
330
17AB
100
AcDbEntity
  8
0
100
AcDbLine
 10
74.0
 20
23.85799999999994
 30
0.0
 11
126.0
 21
23.85799999999992
 31
0.0
  0
LINE
  5
17B6
330
17AB
100
AcDbEntity
  8
0
100
AcDbLine
 10
74.0
 20
16.78699999999997
 30
0.0
 11
126.0
 21
16.78699999999994
 31
0.0
  0
LINE
  5
17B7
330
17AB
100
AcDbEntity
  8
0
100
AcDbLine
 10
74.0
 20
20.32249999999996
 30
0.0
 11
126.0
 21
20.32249999999993
 31
0.0
  0
LINE
  5
17B8
330
17AB
100
AcDbEntity
  8
0
100
AcDbLine
 10
74.0
 20
27.39349999999999
 30
0.0
 11
126.0
 21
27.39349999999996
 31
0.0
  0
TEXT
  5
17B9
330
17AB
100
AcDbEntity
  8
0
100
AcDbText
 10
86.35319943225727
 20
24.56510000000003
 30
0.0
 40
2.0
  1
200 V
100
AcDbText
  0
TEXT
  5
17BA
330
17AB
100
AcDbEntity
  8
0
100
AcDbText
 10
86.35319943225727
 20
21.02959999999995
 30
0.0
 40
2.0
  1
50/60 Hz
100
AcDbText
  0
TEXT
  5
17BB
330
17AB
100
AcDbEntity
  8
0
100
AcDbText
 10
74.67809444174623
 20
10.3295422092805
 30
0.0
 40
2.0
  1
定格
100
AcDbText
  0
TEXT
  5
17BC
330
17AB
100
AcDbEntity
  8
0
100
AcDbText
 10
74.67809444174623
 20
6.794042209280519
 30
0.0
 40
2.0
  1
絶縁
100
AcDbText
  0
TEXT
  5
17BD
330
17AB
100
AcDbEntity
  8
0
100
AcDbText
 10
86.35319943225727
 20
10.42309999999994
 30
0.0
 40
2.0
  1
連続
100
AcDbText
  0
TEXT
  5
17BE
330
17AB
100
AcDbEntity
  8
0
100
AcDbText
 10
86.35319943225727
 20
6.887599999999963
 30
0.0
 40
2.0
  1
E種
100
AcDbText
  0
TEXT
  5
17BF
330
17AB
100
AcDbEntity
  8
0
100
AcDbText
 10
74.67809444174623
 20
13.86504220928048
 30
0.0
 40
2.0
  1
回転速度
100
AcDbText
  0
TEXT
  5
17C0
330
17AB
100
AcDbEntity
  8
0
100
AcDbText
 10
74.67809444174633
 20
21.02959999999995
 30
0.0
 40
2.0
  1
周波数
100
AcDbText
  0
TEXT
  5
17C1
330
17AB
100
AcDbEntity
  8
0
100
AcDbText
 10
74.67809444174623
 20
17.4005422092805
 30
0.0
 40
2.0
  1
極数
100
AcDbText
  0
TEXT
  5
17C2
330
17AB
100
AcDbEntity
  8
0
100
AcDbText
 10
74.67809444174623
 20
24.56509999999997
 30
0.0
 40
2.0
  1
電圧
100
AcDbText
  0
TEXT
  5
17C3
330
17AB
100
AcDbEntity
  8
0
100
AcDbText
 10
86.35319943225727
 20
17.49409999999994
 30
0.0
 40
2.0
  1
4
100
AcDbText
  0
TEXT
  5
17C4
330
17AB
100
AcDbEntity
  8
0
100
AcDbText
 10
86.35319943225727
 20
31.6361
 30
0.0
 40
2.0
  1
全閉外扇形（ｺﾝﾃﾞﾝｻﾗﾝ）DS-75
100
AcDbText
  0
LINE
  5
17C5
330
17AB
100
AcDbEntity
  8
0
100
AcDbLine
 10
74.0
 20
38.0
 30
0.0
 11
126.0
 21
37.99999999999997
 31
0.0
  0
LINE
  5
17C6
330
17AB
100
AcDbEntity
  8
0
100
AcDbLine
 10
74.0
 20
30.929
 30
0.0
 11
126.0
 21
30.92899999999994
 31
0.0
  0
LINE
  5
17C7
330
17AB
100
AcDbEntity
  8
0
100
AcDbLine
 10
74.0
 20
34.46450000000001
 30
0.0
 11
126.0
 21
34.46449999999998
 31
0.0
  0
TEXT
  5
17C8
330
17AB
100
AcDbEntity
  8
0
100
AcDbText
 10
86.35319943225727
 20
35.17159999999998
 30
0.0
 40
2.0
  1
単相誘導電動機
100
AcDbText
  0
TEXT
  5
17C9
330
17AB
100
AcDbEntity
  8
0
100
AcDbText
 10
74.67809444174623
 20
31.6361
 30
0.0
 40
2.0
  1
型式
100
AcDbText
  0
TEXT
  5
17CA
330
17AB
100
AcDbEntity
  8
0
100
AcDbText
 10
74.67809444174623
 20
35.17159999999998
 30
0.0
 40
2.0
  1
名称
100
AcDbText
  0
LINE
  5
17CB
330
17AB
100
AcDbEntity
  8
0
100
AcDbLine
 10
93.80123573807338
 20
40.12129999999999
 30
0.0
 11
106.1987642619266
 21
40.12129999999999
 31
0.0
  0
LINE
  5
17CC
330
17AB
100
AcDbEntity
  8
0
100
AcDbLine
 10
93.80123573807338
 20
39.41419999999999
 30
0.0
 11
106.1987642619266
 21
39.41419999999999
 31
0.0
  0
TEXT
  5
17CD
330
17AB
100
AcDbEntity
  8
0
100
AcDbText
 10
93.99902987649658
 20
40.47485
 30
0.0
 40
2.0
  1
モータ仕様
100
AcDbText
  0
ENDBLK
  5
17CF
330
17AB
100
AcDbEntity
  8
0
100
AcDbBlockEnd
  0
BLOCK
  5
17FE
330
17E7
100
AcDbEntity
  8
0
100
AcDbBlockBegin
  2
BSPEC_90-45-0038
 70
     0
 10
0.0
 20
0.0
 30
0.0
  3
BSPEC_90-45-0038
  1

  0
TEXT
  5
17E8
330
17E7
100
AcDbEntity
  8
0
100
AcDbText
 10
35.94757247309064
 20
40.47485
 30
0.0
 40
2.0
  1
ブレーキ仕様
100
AcDbText
  0
LINE
  5
17E9
330
17E7
100
AcDbEntity
  8
0
100
AcDbLine
 10
35.94757247309064
 20
40.12129999999999
 30
0.0
 11
50.05242752690936
 21
40.12129999999999
 31
0.0
  0
LINE
  5
17EA
330
17E7
100
AcDbEntity
  8
0
100
AcDbLine
 10
35.94757247309064
 20
39.41419999999999
 30
0.0
 11
50.05242752690936
 21
39.41419999999999
 31
0.0
  0
TEXT
  5
17EB
330
17E7
100
AcDbEntity
  8
0
100
AcDbText
 10
29.35319943225727
 20
21.29776682820352
 30
0.0
 40
2.0
  1
0.37N・m（0.038kgf・m）
100
AcDbText
  0
TEXT
  5
17EC
330
17E7
100
AcDbEntity
  8
0
100
AcDbText
 10
29.35319943225727
 20
24.56510000000003
 30
0.0
 40
2.0
  1
10 W （於75℃）
100
AcDbText
  0
TEXT
  5
17ED
330
17E7
100
AcDbEntity
  8
0
100
AcDbText
 10
29.35319943225727
 20
31.6361
 30
0.0
 40
2.0
  1
無励磁作動形（スプリングクローズ）
100
AcDbText
  0
LINE
  5
17EE
330
17E7
100
AcDbEntity
  8
0
100
AcDbLine
 10
17.0
 20
20.32249999999996
 30
0.0
 11
69.0
 21
20.32249999999996
 31
0.0
  0
LINE
  5
17EF
330
17E7
100
AcDbEntity
  8
0
100
AcDbLine
 10
17.0
 20
23.85799999999994
 30
0.0
 11
69.0
 21
23.85799999999994
 31
0.0
  0
LINE
  5
17F0
330
17E7
100
AcDbEntity
  8
0
100
AcDbLine
 10
17.0
 20
27.39349999999999
 30
0.0
 11
69.0
 21
27.39349999999999
 31
0.0
  0
LINE
  5
17F1
330
17E7
100
AcDbEntity
  8
0
100
AcDbLine
 10
17.0
 20
30.929
 30
0.0
 11
69.0
 21
30.92899999999997
 31
0.0
  0
LINE
  5
17F2
330
17E7
100
AcDbEntity
  8
0
100
AcDbLine
 10
17.0
 20
34.46450000000001
 30
0.0
 11
69.0
 21
34.46450000000001
 31
0.0
  0
LINE
  5
17F3
330
17E7
100
AcDbEntity
  8
0
100
AcDbLine
 10
17.0
 20
38.0
 30
0.0
 11
69.0
 21
38.0
 31
0.0
  0
TEXT
  5
17F4
330
17E7
100
AcDbEntity
  8
0
100
AcDbText
 10
29.35319943225727
 20
28.10060000000001
 30
0.0
 40
2.0
  1
DC 45V
100
AcDbText
  0
TEXT
  5
17F5
330
17E7
100
AcDbEntity
  8
0
100
AcDbText
 10
17.67809444174622
 20
28.10059999999998
 30
0.0
 40
2.0
  1
入力電圧
100
AcDbText
  0
LINE
  5
17F6
330
17E7
100
AcDbEntity
  8
0
100
AcDbLine
 10
28.5
 20
20.32249999999996
 30
0.0
 11
28.5
 21
38.0
 31
0.0
  0
LINE
  5
17F7
330
17E7
100
AcDbEntity
  8
0
100
AcDbLine
 10
17.0
 20
20.32249999999996
 30
0.0
 11
17.0
 21
38.0
 31
0.0
  0
TEXT
  5
17F8
330
17E7
100
AcDbEntity
  8
0
100
AcDbText
 10
17.67809444174622
 20
20.93604220928048
 30
0.0
 40
2.0
  1
定格トルク
 41
0.85
100
AcDbText
  0
TEXT
  5
17F9
330
17E7
100
AcDbEntity
  8
0
100
AcDbText
 10
17.67809444174622
 20
24.56509999999994
 30
0.0
 40
2.0
  1
容量
100
AcDbText
  0
TEXT
  5
17FA
330
17E7
100
AcDbEntity
  8
0
100
AcDbText
 10
17.67809444174622
 20
35.17159999999998
 30
0.0
 40
2.0
  1
型式
100
AcDbText
  0
TEXT
  5
17FB
330
17E7
100
AcDbEntity
  8
0
100
AcDbText
 10
17.67809444174622
 20
31.6361
 30
0.0
 40
2.0
  1
方式
100
AcDbText
  0
TEXT
  5
17FC
330
17E7
100
AcDbEntity
  8
0
100
AcDbText
 10
29.35319943225727
 20
35.17159999999998
 30
0.0
 40
2.0
  1
BS-90
100
AcDbText
  0
LINE
  5
17FD
330
17E7
100
AcDbEntity
  8
0
100
AcDbLine
 10
69.0
 20
20.32249999999996
 30
0.0
 11
69.0
 21
38.0
 31
0.0
  0
ENDBLK
  5
17FF
330
17E7
100
AcDbEntity
  8
0
100
AcDbBlockEnd
  0
BLOCK
  5
1848
330
1831
100
AcDbEntity
  8
0
100
AcDbBlockBegin
  2
BSPEC_90-90-0038
 70
     0
 10
0.0
 20
0.0
 30
0.0
  3
BSPEC_90-90-0038
  1

  0
TEXT
  5
1832
330
1831
100
AcDbEntity
  8
0
100
AcDbText
 10
35.94757247309064
 20
40.47485
 30
0.0
 40
2.0
  1
ブレーキ仕様
100
AcDbText
  0
LINE
  5
1833
330
1831
100
AcDbEntity
  8
0
100
AcDbLine
 10
35.94757247309064
 20
40.12129999999999
 30
0.0
 11
50.05242752690936
 21
40.12129999999999
 31
0.0
  0
LINE
  5
1834
330
1831
100
AcDbEntity
  8
0
100
AcDbLine
 10
35.94757247309064
 20
39.41419999999999
 30
0.0
 11
50.05242752690936
 21
39.41419999999999
 31
0.0
  0
TEXT
  5
1835
330
1831
100
AcDbEntity
  8
0
100
AcDbText
 10
29.35319943225727
 20
21.29776682820352
 30
0.0
 40
2.0
  1
0.37N・m（0.038kgf・m）
100
AcDbText
  0
TEXT
  5
1836
330
1831
100
AcDbEntity
  8
0
100
AcDbText
 10
29.35319943225727
 20
24.56510000000003
 30
0.0
 40
2.0
  1
12 W （於75℃）
100
AcDbText
  0
TEXT
  5
1837
330
1831
100
AcDbEntity
  8
0
100
AcDbText
 10
29.35319943225727
 20
31.6361
 30
0.0
 40
2.0
  1
無励磁作動形（スプリングクローズ）
100
AcDbText
  0
LINE
  5
1838
330
1831
100
AcDbEntity
  8
0
100
AcDbLine
 10
17.0
 20
20.32249999999996
 30
0.0
 11
69.0
 21
20.32249999999996
 31
0.0
  0
LINE
  5
1839
330
1831
100
AcDbEntity
  8
0
100
AcDbLine
 10
17.0
 20
23.85799999999994
 30
0.0
 11
69.0
 21
23.85799999999994
 31
0.0
  0
LINE
  5
183A
330
1831
100
AcDbEntity
  8
0
100
AcDbLine
 10
17.0
 20
27.39349999999999
 30
0.0
 11
69.0
 21
27.39349999999999
 31
0.0
  0
LINE
  5
183B
330
1831
100
AcDbEntity
  8
0
100
AcDbLine
 10
17.0
 20
30.929
 30
0.0
 11
69.0
 21
30.92899999999997
 31
0.0
  0
LINE
  5
183C
330
1831
100
AcDbEntity
  8
0
100
AcDbLine
 10
17.0
 20
34.46450000000001
 30
0.0
 11
69.0
 21
34.46450000000001
 31
0.0
  0
LINE
  5
183D
330
1831
100
AcDbEntity
  8
0
100
AcDbLine
 10
17.0
 20
38.0
 30
0.0
 11
69.0
 21
38.0
 31
0.0
  0
TEXT
  5
183E
330
1831
100
AcDbEntity
  8
0
100
AcDbText
 10
29.35319943225727
 20
28.10060000000001
 30
0.0
 40
2.0
  1
DC 90V
100
AcDbText
  0
TEXT
  5
183F
330
1831
100
AcDbEntity
  8
0
100
AcDbText
 10
17.67809444174622
 20
28.10059999999998
 30
0.0
 40
2.0
  1
入力電圧
100
AcDbText
  0
LINE
  5
1840
330
1831
100
AcDbEntity
  8
0
100
AcDbLine
 10
28.5
 20
20.32249999999996
 30
0.0
 11
28.5
 21
38.0
 31
0.0
  0
LINE
  5
1841
330
1831
100
AcDbEntity
  8
0
100
AcDbLine
 10
17.0
 20
20.32249999999996
 30
0.0
 11
17.0
 21
38.0
 31
0.0
  0
TEXT
  5
1842
330
1831
100
AcDbEntity
  8
0
100
AcDbText
 10
17.67809444174622
 20
20.93604220928048
 30
0.0
 40
2.0
  1
定格トルク
 41
0.85
100
AcDbText
  0
TEXT
  5
1843
330
1831
100
AcDbEntity
  8
0
100
AcDbText
 10
17.67809444174622
 20
24.56509999999994
 30
0.0
 40
2.0
  1
容量
100
AcDbText
  0
TEXT
  5
1844
330
1831
100
AcDbEntity
  8
0
100
AcDbText
 10
17.67809444174622
 20
35.17159999999998
 30
0.0
 40
2.0
  1
型式
100
AcDbText
  0
TEXT
  5
1845
330
1831
100
AcDbEntity
  8
0
100
AcDbText
 10
17.67809444174622
 20
31.6361
 30
0.0
 40
2.0
  1
方式
100
AcDbText
  0
TEXT
  5
1846
330
1831
100
AcDbEntity
  8
0
100
AcDbText
 10
29.35319943225727
 20
35.17159999999998
 30
0.0
 40
2.0
  1
BS-90
100
AcDbText
  0
LINE
  5
1847
330
1831
100
AcDbEntity
  8
0
100
AcDbLine
 10
69.0
 20
20.32249999999996
 30
0.0
 11
69.0
 21
38.0
 31
0.0
  0
ENDBLK
  5
1849
330
1831
100
AcDbEntity
  8
0
100
AcDbBlockEnd
  0
ENDSEC
  0
SECTION
  2
ENTITIES
  0
LINE
  5
6A5
330
2
100
AcDbEntity
  8
0
100
AcDbLine
 10
345.5130916678033
 20
367.5216676955357
 30
0.0
 11
370.5130916678033
 21
367.5216676955357
 31
0.0
  0
LINE
  5
6A6
330
2
100
AcDbEntity
  8
0
100
AcDbLine
 10
347.0130916678033
 20
327.5216676955356
 30
0.0
 11
371.5130916678033
 21
327.5216676955356
 31
0.0
  0
LINE
  5
6A7
330
2
100
AcDbEntity
  8
0
100
AcDbLine
 10
332.8202506678033
 20
465.5216826955356
 30
0.0
 11
383.2059316678033
 21
465.5216826955356
 31
0.0
  0
LINE
  5
6A8
330
2
100
AcDbEntity
  8
0
100
AcDbLine
 10
332.8202506678033
 20
369.5216676955357
 30
0.0
 11
383.2059316678033
 21
369.5216676955357
 31
0.0
  0
LINE
  5
6AA
330
2
100
AcDbEntity
  8
0
100
AcDbLine
 10
306.7950586678033
 20
385.5216826955356
 30
0.0
 11
405.5410456678033
 21
385.5216826955356
 31
0.0
  0
LINE
  5
6AB
330
2
100
AcDbEntity
  8
0
100
AcDbLine
 10
306.7950586678033
 20
449.5216826955356
 30
0.0
 11
405.5410456678033
 21
449.5216826955356
 31
0.0
  0
LINE
  5
6AC
330
2
100
AcDbEntity
  8
CENTER
100
AcDbLine
 10
58.76320966780338
 20
417.5216826955356
 30
0.0
 11
421.0130916678034
 21
417.5216826955356
 31
0.0
  0
ARC
  5
6AD
330
2
100
AcDbEntity
  8
0
100
AcDbCircle
 10
358.0130916678033
 20
176.7179463553492
 30
0.0
 40
11.0
100
AcDbArc
 50
15.82660000000016
 51
344.1734009999996
  0
LINE
  5
6AE
330
2
100
AcDbEntity
  8
0
100
AcDbLine
 10
341.2630916678033
 20
116.2179463553492
 30
0.0
 11
374.7630916678033
 21
116.2179463553492
 31
0.0
  0
ARC
  5
6AF
330
2
100
AcDbEntity
  8
0
100
AcDbCircle
 10
358.0130916678033
 20
176.7179463553492
 30
0.0
 40
30.15
100
AcDbArc
 50
172.447403
 51
7.552696999999989
  0
LINE
  5
6B0
330
2
100
AcDbEntity
  8
0
100
AcDbLine
 10
341.2630916678033
 20
114.6179483553491
 30
0.0
 11
374.7630916678033
 21
114.6179483553491
 31
0.0
  0
ARC
  5
6B1
330
2
100
AcDbEntity
  8
0
100
AcDbCircle
 10
358.0130916678033
 20
176.7179463553492
 30
0.0
 40
31.75
100
AcDbArc
 50
7.552696999999989
 51
172.447403
  0
CIRCLE
  5
6B2
330
2
100
AcDbEntity
  8
0
100
AcDbCircle
 10
358.0130916678033
 20
176.7179463553492
 30
0.0
 40
27.5
  0
LINE
  5
6B4
330
2
100
AcDbEntity
  8
0
100
AcDbLine
 10
344.5746756678033
 20
93.7179463553492
 30
0.0
 11
371.4514766678033
 21
93.7179463553492
 31
0.0
  0
LINE
  5
6B5
330
2
100
AcDbEntity
  8
0
100
AcDbLine
 10
339.5836786678033
 20
221.7179463553492
 30
0.0
 11
376.4424736678033
 21
221.7179463553492
 31
0.0
  0
LINE
  5
6B6
330
2
100
AcDbEntity
  8
0
100
AcDbLine
 10
305.0130916678033
 20
71.7179473553492
 30
0.0
 11
411.0130916678033
 21
71.7179473553492
 31
0.0
  0
LINE
  5
6B7
330
2
100
AcDbEntity
  8
CENTER
100
AcDbLine
 10
315.9851905025031
 20
176.7179463553492
 30
0.0
 11
400.0410006374947
 21
176.7179463553492
 31
0.0
  0
LINE
  5
6B8
330
2
100
AcDbEntity
  8
CENTER
100
AcDbLine
 10
58.76308766780335
 20
135.2179463553491
 30
0.0
 11
326.0130916678033
 21
135.2179463553492
 31
0.0
  0
LINE
  5
6B9
330
2
100
AcDbEntity
  8
0
100
AcDbLine
 10
127.2630876678033
 20
104.9689693553492
 30
0.0
 11
233.2630916678033
 21
104.9689693553492
 31
0.0
  0
LINE
  5
6BA
330
2
100
AcDbEntity
  8
0
100
AcDbLine
 10
127.2630876678033
 20
165.4669323553491
 30
0.0
 11
233.2630916678033
 21
165.4669323553491
 31
0.0
  0
LINE
  5
6BB
330
2
100
AcDbEntity
  8
0
100
AcDbLine
 10
127.2630876678033
 20
97.21796735534921
 30
0.0
 11
241.2630916678033
 21
97.21796735534921
 31
0.0
  0
LINE
  5
6BC
330
2
100
AcDbEntity
  8
0
100
AcDbLine
 10
127.2630876678033
 20
173.2179233553491
 30
0.0
 11
241.2630916678033
 21
173.2179233553491
 31
0.0
  0
LINE
  5
6BD
330
2
100
AcDbEntity
  8
0
100
AcDbLine
 10
127.2630876678033
 20
97.21794635534919
 30
0.0
 11
127.2630876678033
 21
173.2179233553491
 31
0.0
  0
LINE
  5
6BE
330
2
100
AcDbEntity
  8
0
100
AcDbLine
 10
68.76308766780335
 20
100.2179273553492
 30
0.0
 11
68.76308766780335
 21
170.2179233553492
 31
0.0
  0
LINE
  5
6BF
330
2
100
AcDbEntity
  8
0
100
AcDbLine
 10
117.7630876678033
 20
95.21792735534919
 30
0.0
 11
117.7630876678033
 21
175.2179233553491
 31
0.0
  0
LINE
  5
6C1
330
2
100
AcDbEntity
  8
0
100
AcDbLine
 10
71.26308766780335
 20
111.2179273553491
 30
0.0
 11
117.7630876678033
 21
111.2179273553491
 31
0.0
  0
LINE
  5
6C2
330
2
100
AcDbEntity
  8
0
100
AcDbLine
 10
73.76308766780335
 20
95.21792735534919
 30
0.0
 11
117.7630876678033
 21
95.21792735534919
 31
0.0
  0
ARC
  5
6C3
330
2
100
AcDbEntity
  8
0
100
AcDbCircle
 10
73.76308766780335
 20
100.2179273553492
 30
0.0
 40
5.0
100
AcDbArc
 50
180.0
 51
270.0
  0
LINE
  5
6C4
330
2
100
AcDbEntity
  8
0
100
AcDbLine
 10
117.7630876678033
 20
104.9689273553491
 30
0.0
 11
127.2630876678033
 21
104.9689273553491
 31
0.0
  0
LINE
  5
6C5
330
2
100
AcDbEntity
  8
0
100
AcDbLine
 10
117.7630876678033
 20
97.21792735534918
 30
0.0
 11
127.2630876678033
 21
97.21792735534918
 31
0.0
  0
LINE
  5
6C6
330
2
100
AcDbEntity
  8
0
100
AcDbLine
 10
71.26308766780335
 20
161.2179233553492
 30
0.0
 11
117.7630876678033
 21
161.2179233553492
 31
0.0
  0
LINE
  5
6C7
330
2
100
AcDbEntity
  8
0
100
AcDbLine
 10
73.76308766780335
 20
175.2179233553491
 30
0.0
 11
117.7630876678033
 21
175.2179233553491
 31
0.0
  0
ARC
  5
6C8
330
2
100
AcDbEntity
  8
0
100
AcDbCircle
 10
73.76308766780335
 20
170.2179233553492
 30
0.0
 40
5.0
100
AcDbArc
 50
90.0
 51
180.0
  0
LINE
  5
6CD
330
2
100
AcDbEntity
  8
0
100
AcDbLine
 10
117.7630876678033
 20
165.4669243553492
 30
0.0
 11
127.2630876678033
 21
165.4669243553492
 31
0.0
  0
LINE
  5
6CF
330
2
100
AcDbEntity
  8
0
100
AcDbLine
 10
117.7630876678033
 20
173.2179233553491
 30
0.0
 11
127.2630876678033
 21
173.2179233553491
 31
0.0
  0
LINE
  5
6D0
330
2
100
AcDbEntity
  8
0
100
AcDbLine
 10
122.2630876678033
 20
159.5870263553492
 30
0.0
 11
122.2630876678033
 21
155.0870263553491
 31
0.0
  0
LINE
  5
6D1
330
2
100
AcDbEntity
  8
0
100
AcDbLine
 10
120.7630876678033
 20
159.5870263553492
 30
0.0
 11
120.7630876678033
 21
155.0870263553491
 31
0.0
  0
LINE
  5
6D2
330
2
100
AcDbEntity
  8
0
100
AcDbLine
 10
119.2630876678033
 20
159.5870263553492
 30
0.0
 11
119.2630876678033
 21
154.5714243553492
 31
0.0
  0
LINE
  5
6D3
330
2
100
AcDbEntity
  8
HOJO
100
AcDbLine
 10
120.7630876678033
 20
155.5870263553492
 30
0.0
 11
122.2630876678033
 21
155.0870263553491
 31
0.0
  0
LINE
  5
6D4
330
2
100
AcDbEntity
  8
HOJO
100
AcDbLine
 10
119.2630876678033
 20
154.5870263553491
 30
0.0
 11
120.7630876678033
 21
155.0870263553491
 31
0.0
  0
ARC
  5
6D5
330
2
100
AcDbEntity
  8
0
100
AcDbCircle
 10
117.7630876678033
 20
159.5870263553492
 30
0.0
 40
4.5
100
AcDbArc
 50
0.0
 51
90.0
  0
ARC
  5
6D6
330
2
100
AcDbEntity
  8
0
100
AcDbCircle
 10
117.7630876678033
 20
159.5870263553492
 30
0.0
 40
1.5
100
AcDbArc
 50
0.0
 51
90.0
  0
ARC
  5
6D7
330
2
100
AcDbEntity
  8
0
100
AcDbCircle
 10
117.7630876678033
 20
159.5870263553492
 30
0.0
 40
3.0
100
AcDbArc
 50
0.0
 51
90.0
  0
LINE
  5
6DD
330
2
100
AcDbEntity
  8
0
100
AcDbLine
 10
241.2630916678033
 20
173.2179463553491
 30
0.0
 11
241.2630916678033
 21
97.21794635534919
 31
0.0
  0
LINE
  5
6DE
330
2
100
AcDbEntity
  8
0
100
AcDbLine
 10
285.2630916678033
 20
202.7179463553492
 30
0.0
 11
285.2630916678033
 21
105.3052913553492
 31
0.0
  0
LINE
  5
6DF
330
2
100
AcDbEntity
  8
0
100
AcDbLine
 10
233.2630916678033
 20
171.2179233553491
 30
0.0
 11
233.2630916678033
 21
99.2179463553492
 31
0.0
  0
LINE
  5
6E0
330
2
100
AcDbEntity
  8
0
100
AcDbLine
 10
293.2631066678033
 20
203.7179463553492
 30
0.0
 11
293.2630916678033
 21
88.7179463553492
 31
0.0
  0
ARC
  5
6E1
330
2
100
AcDbEntity
  8
0
100
AcDbCircle
 10
346.3569026678033
 20
127.6241923553491
 30
0.0
 40
2.5
100
AcDbArc
 50
270.0002139999998
 51
0.0001089999998967
  0
LINE
  5
6E2
330
2
100
AcDbEntity
  8
0
100
AcDbLine
 10
343.3569026678033
 20
133.0041943553491
 30
0.0
 11
343.3569026678033
 21
126.0908673553492
 31
0.0
  0
LINE
  5
6E3
330
2
100
AcDbEntity
  8
0
100
AcDbLine
 10
342.0130916678033
 20
133.8581903553492
 30
0.0
 11
342.0130916678033
 21
125.2751103553491
 31
0.0
  0
LINE
  5
6E4
330
2
100
AcDbEntity
  8
0
100
AcDbLine
 10
358.7319026678033
 20
134.2491963553491
 30
0.0
 11
358.7319026678033
 21
125.0304463553492
 31
0.0
  0
LINE
  5
6E5
330
2
100
AcDbEntity
  8
0
100
AcDbLine
 10
357.2319026678033
 20
134.2491963553491
 30
0.0
 11
357.2319026678033
 21
125.0304463553492
 31
0.0
  0
LINE
  5
6E6
330
2
100
AcDbEntity
  8
0
100
AcDbLine
 10
350.0130916678033
 20
130.6866963553491
 30
0.0
 11
350.0130916678033
 21
123.7179463553492
 31
0.0
  0
ARC
  5
6E7
330
2
100
AcDbEntity
  8
0
100
AcDbCircle
 10
341.2630916678033
 20
135.2179463553492
 30
0.0
 40
19.0
100
AcDbArc
 50
172.4476009999999
 51
270.0
  0
ARC
  5
6E8
330
2
100
AcDbEntity
  8
0
100
AcDbCircle
 10
341.2630916678033
 20
135.2179463553492
 30
0.0
 40
20.6
100
AcDbArc
 50
172.447403
 51
270.0
  0
LINE
  5
6E9
330
2
100
AcDbEntity
  8
0
100
AcDbLine
 10
301.2630916678033
 20
100.7179463553492
 30
0.0
 11
301.2630916678033
 21
191.7179463553492
 31
0.0
  0
LINE
  5
6EA
330
2
100
AcDbEntity
  8
CENTER
100
AcDbLine
 10
358.0130916678033
 20
231.7179463553491
 30
0.0
 11
358.0130916678033
 21
61.71794735534916
 31
0.0
  0
LINE
  5
6EB
330
2
100
AcDbEntity
  8
0
100
AcDbLine
 10
241.2630916678033
 20
115.6179483553491
 30
0.0
 11
285.2630916678033
 21
115.6179483553491
 31
0.0
  0
LINE
  5
6EC
330
2
100
AcDbEntity
  8
0
100
AcDbLine
 10
241.2630916678033
 20
125.8179493553491
 30
0.0
 11
285.2630916678033
 21
125.8179493553491
 31
0.0
  0
LINE
  5
6ED
330
2
100
AcDbEntity
  8
0
100
AcDbLine
 10
293.2630916678033
 20
95.4020683553492
 30
0.0
 11
241.2630916678033
 21
97.21794635534919
 31
0.0
  0
ARC
  5
6EE
330
2
100
AcDbEntity
  8
0
100
AcDbCircle
 10
235.2630916678033
 20
99.2179673553492
 30
0.0
 40
2.0
100
AcDbArc
 50
180.0
 51
270.0
  0
LINE
  5
6EF
330
2
100
AcDbEntity
  8
CENTER
100
AcDbLine
 10
323.0130916678033
 20
88.7179463553492
 30
0.0
 11
323.0130916678032
 21
66.71794735534916
 31
0.0
  0
LINE
  5
6F0
330
2
100
AcDbEntity
  8
0
100
AcDbLine
 10
411.0130916678033
 20
83.7179463553492
 30
0.0
 11
305.0130916678033
 21
83.7179463553492
 31
0.0
  0
ARC
  5
6F1
330
2
100
AcDbEntity
  8
0
100
AcDbCircle
 10
303.0130916678033
 20
96.7179463553492
 30
0.0
 40
2.0
100
AcDbArc
 50
0.0
 51
90.0
  0
LINE
  5
6F2
330
2
100
AcDbEntity
  8
0
100
AcDbLine
 10
287.7630916678033
 20
88.7179463553492
 30
0.0
 11
293.2630916678033
 21
88.7179463553492
 31
0.0
  0
ARC
  5
6F3
330
2
100
AcDbEntity
  8
0
100
AcDbCircle
 10
287.7630916678033
 20
91.2179463553492
 30
0.0
 40
2.5
100
AcDbArc
 50
180.0
 51
270.0
  0
ARC
  5
6F4
330
2
100
AcDbEntity
  8
0
100
AcDbCircle
 10
282.7630916678033
 20
93.26721135534919
 30
0.0
 40
2.5
100
AcDbArc
 50
0.0
 51
88.00000000000043
  0
LINE
  5
6F5
330
2
100
AcDbEntity
  8
0
100
AcDbLine
 10
285.2630916678033
 20
91.2179463553492
 30
0.0
 11
285.2630916678033
 21
93.26721135534919
 31
0.0
  0
LINE
  5
6F6
330
2
100
AcDbEntity
  8
0
100
AcDbLine
 10
305.0130916678033
 20
96.7179463553492
 30
0.0
 11
305.0130916678033
 21
71.7179473553492
 31
0.0
  0
LINE
  5
6F7
330
2
100
AcDbEntity
  8
0
100
AcDbLine
 10
311.0130916678033
 20
82.6554473553492
 30
0.0
 11
311.0130916678033
 21
71.7179473553492
 31
0.0
  0
ARC
  5
6F8
330
2
100
AcDbEntity
  8
0
100
AcDbCircle
 10
300.0131066678033
 20
83.96792735534919
 30
0.0
 40
5.0
100
AcDbArc
 50
0.0
 51
90.0
  0
LINE
  5
6F9
330
2
100
AcDbEntity
  8
0
100
AcDbLine
 10
293.2630916678033
 20
88.9679463553492
 30
0.0
 11
300.0131066678033
 21
88.9679463553492
 31
0.0
  0
LINE
  5
6FA
330
2
100
AcDbEntity
  8
0
100
AcDbLine
 10
286.3881676678033
 20
103.0639473553492
 30
0.0
 11
293.2630916678033
 21
103.0639473553492
 31
0.0
  0
LINE
  5
6FB
330
2
100
AcDbEntity
  8
0
100
AcDbLine
 10
299.2630916678033
 20
98.7179463553492
 30
0.0
 11
293.2630916678033
 21
98.7179463553492
 31
0.0
  0
ARC
  5
6FC
330
2
100
AcDbEntity
  8
0
100
AcDbCircle
 10
299.2630916678033
 20
100.7179463553492
 30
0.0
 40
2.0
100
AcDbArc
 50
270.0
 51
0.0
  0
LINE
  5
6FD
330
2
100
AcDbEntity
  8
0
100
AcDbLine
 10
299.2630916678033
 20
98.7179463553492
 30
0.0
 11
303.0130916678033
 21
98.7179463553492
 31
0.0
  0
LINE
  5
6FE
330
2
100
AcDbEntity
  8
0
100
AcDbLine
 10
293.2630916678033
 20
114.2579473553491
 30
0.0
 11
300.2630916678033
 21
114.2579473553491
 31
0.0
  0
ARC
  5
6FF
330
2
100
AcDbEntity
  8
0
100
AcDbCircle
 10
338.9514766678033
 20
85.71794635534919
 30
0.0
 40
2.0
100
AcDbArc
 50
270.0
 51
345.963715
  0
LINE
  5
700
330
2
100
AcDbEntity
  8
HIDS
  6
SEKKEI_H
100
AcDbLine
 10
328.5130916678033
 20
83.7179463553492
 30
0.0
 11
328.5130916678033
 21
71.7179473553492
 31
0.0
  0
LINE
  5
701
330
2
100
AcDbEntity
  8
HIDS
  6
SEKKEI_H
100
AcDbLine
 10
317.5130916678033
 20
83.7179463553492
 30
0.0
 11
317.5130916678033
 21
71.7179473553492
 31
0.0
  0
LINE
  5
702
330
2
100
AcDbEntity
  8
0
100
AcDbLine
 10
340.8918756678033
 20
85.23286735534918
 30
0.0
 11
342.6342766678033
 21
92.2030293553492
 31
0.0
  0
LINE
  5
703
330
2
100
AcDbEntity
  8
0
100
AcDbLine
 10
343.0130916678033
 20
92.0929463553492
 30
0.0
 11
343.0130916678033
 21
84.71794635534919
 31
0.0
  0
ARC
  5
704
330
2
100
AcDbEntity
  8
0
100
AcDbCircle
 10
342.0130916678033
 20
84.71794635534919
 30
0.0
 40
1.0
100
AcDbArc
 50
270.0
 51
0.0
  0
ARC
  5
705
330
2
100
AcDbEntity
  8
0
100
AcDbCircle
 10
344.5746756678033
 20
91.7179463553492
 30
0.0
 40
2.0
100
AcDbArc
 50
90.0
 51
165.9638980000002
  0
LINE
  5
706
330
2
100
AcDbEntity
  8
0
100
AcDbLine
 10
346.3569026678033
 20
125.1241893553491
 30
0.0
 11
344.2744746678033
 21
125.1241893553491
 31
0.0
  0
LINE
  5
707
330
2
100
AcDbEntity
  8
0
100
AcDbLine
 10
347.7166746678033
 20
123.7179463553492
 30
0.0
 11
343.5562736678033
 21
123.7179463553492
 31
0.0
  0
LINE
  5
708
330
2
100
AcDbEntity
  8
0
100
AcDbLine
 10
342.0130916678033
 20
125.2751103553491
 30
0.0
 11
343.5562736678033
 21
123.7179463553492
 31
0.0
  0
LINE
  5
709
330
2
100
AcDbEntity
  8
0
100
AcDbLine
 10
343.3569026678033
 20
126.0908673553492
 30
0.0
 11
344.2744746678033
 21
125.1241893553491
 31
0.0
  0
LINE
  5
70A
330
2
100
AcDbEntity
  8
0
100
AcDbLine
 10
348.8569026678033
 20
124.6745083553491
 30
0.0
 11
347.7166746678033
 21
123.7179463553492
 31
0.0
  0
LINE
  5
70B
330
2
100
AcDbEntity
  8
0
100
AcDbLine
 10
348.8569026678033
 20
123.7179463553492
 30
0.0
 11
350.0130916678033
 21
123.7179463553492
 31
0.0
  0
LINE
  5
70C
330
2
100
AcDbEntity
  8
0
100
AcDbLine
 10
348.8569026678033
 20
124.6745083553491
 30
0.0
 11
348.8569026678033
 21
123.7179463553492
 31
0.0
  0
LINE
  5
70D
330
2
100
AcDbEntity
  8
0
100
AcDbLine
 10
356.6380916678033
 20
123.7179463553492
 30
0.0
 11
359.2319026678033
 21
123.7179463553492
 31
0.0
  0
LINE
  5
70E
330
2
100
AcDbEntity
  8
0
100
AcDbLine
 10
356.6380916678033
 20
125.0304463553492
 30
0.0
 11
357.2319026678033
 21
125.0304463553492
 31
0.0
  0
LINE
  5
70F
330
2
100
AcDbEntity
  8
0
100
AcDbLine
 10
356.6380916678033
 20
125.0304463553492
 30
0.0
 11
356.6380916678033
 21
123.7179463553492
 31
0.0
  0
LINE
  5
710
330
2
100
AcDbEntity
  8
0
100
AcDbLine
 10
359.2319026678033
 20
125.0304463553492
 30
0.0
 11
359.2319026678033
 21
123.7179463553492
 31
0.0
  0
LINE
  5
711
330
2
100
AcDbEntity
  8
0
100
AcDbLine
 10
358.7319026678033
 20
125.0304463553492
 30
0.0
 11
359.2319026678033
 21
125.0304463553492
 31
0.0
  0
LINE
  5
712
330
2
100
AcDbEntity
  8
0
100
AcDbLine
 10
283.8499596678033
 20
186.5357493553491
 30
0.0
 11
257.9065246678033
 21
174.0113423553492
 31
0.0
  0
LINE
  5
713
330
2
100
AcDbEntity
  8
0
100
AcDbLine
 10
282.8503416678033
 20
174.6702093553491
 30
0.0
 11
241.2630916678033
 21
173.2179463553491
 31
0.0
  0
ARC
  5
715
330
2
100
AcDbEntity
  8
0
100
AcDbCircle
 10
235.2630916678033
 20
171.2179463553491
 30
0.0
 40
2.0
100
AcDbArc
 50
90.0
 51
180.0
  0
ARC
  5
716
330
2
100
AcDbEntity
  8
0
100
AcDbCircle
 10
256.8196556678033
 20
176.2627163553491
 30
0.0
 40
2.5
100
AcDbArc
 50
271.9999999999995
 51
295.769318
  0
ARC
  5
718
330
2
100
AcDbEntity
  8
0
100
AcDbCircle
 10
282.7630916678033
 20
177.1686833553491
 30
0.0
 40
2.5
100
AcDbArc
 50
271.9999999999995
 51
0.0
  0
LINE
  5
719
330
2
100
AcDbEntity
  8
0
100
AcDbLine
 10
293.2630916678033
 20
178.1779453553492
 30
0.0
 11
300.1380916678033
 21
178.1779453553492
 31
0.0
  0
LINE
  5
71A
330
2
100
AcDbEntity
  8
0
100
AcDbLine
 10
322.4278866678033
 20
137.7152383553491
 30
0.0
 11
328.1246946678033
 21
180.6807683553491
 31
0.0
  0
LINE
  5
71B
330
2
100
AcDbEntity
  8
0
100
AcDbLine
 10
320.8418876678033
 20
137.9255343553492
 30
0.0
 11
326.5384826678033
 21
180.8910503553492
 31
0.0
  0
LINE
  5
71C
330
2
100
AcDbEntity
  8
0
100
AcDbLine
 10
348.8448786678033
 20
135.7179463553491
 30
0.0
 11
350.0130916678033
 21
134.4214603553492
 31
0.0
  0
LINE
  5
71D
330
2
100
AcDbEntity
  8
0
100
AcDbLine
 10
343.4654836678033
 20
135.7179463553491
 30
0.0
 11
342.0130916678033
 21
133.8581903553492
 31
0.0
  0
LINE
  5
71E
330
2
100
AcDbEntity
  8
0
100
AcDbLine
 10
348.1150816678033
 20
134.1241963553492
 30
0.0
 11
344.2601006678033
 21
134.1241963553492
 31
0.0
  0
LINE
  5
71F
330
2
100
AcDbEntity
  8
0
100
AcDbLine
 10
344.2601006678033
 20
134.1241963553492
 30
0.0
 11
343.3569026678033
 21
133.0041943553491
 31
0.0
  0
LINE
  5
720
330
2
100
AcDbEntity
  8
0
100
AcDbLine
 10
348.8569026678033
 20
133.4070943553491
 30
0.0
 11
348.8569026678033
 21
133.2179463553492
 31
0.0
  0
LINE
  5
721
330
2
100
AcDbEntity
  8
0
100
AcDbLine
 10
346.7630916678033
 20
130.6866963553491
 30
0.0
 11
346.7630916678033
 21
129.3741963553491
 31
0.0
  0
LINE
  5
722
330
2
100
AcDbEntity
  8
0
100
AcDbLine
 10
348.8569026678033
 20
129.3741963553491
 30
0.0
 11
348.8569026678033
 21
127.6241923553491
 31
0.0
  0
LINE
  5
723
330
2
100
AcDbEntity
  8
0
100
AcDbLine
 10
350.0130916678033
 20
134.4214603553492
 30
0.0
 11
350.0130916678033
 21
133.2179463553492
 31
0.0
  0
LINE
  5
724
330
2
100
AcDbEntity
  8
0
100
AcDbLine
 10
348.8569026678033
 20
128.1241963553491
 30
0.0
 11
348.8569026678033
 21
129.1241963553491
 31
0.0
  0
LINE
  5
725
330
2
100
AcDbEntity
  8
0
100
AcDbLine
 10
348.8569026678033
 20
129.3741963553491
 30
0.0
 11
346.7630916678033
 21
129.3741963553491
 31
0.0
  0
LINE
  5
726
330
2
100
AcDbEntity
  8
0
100
AcDbLine
 10
346.7630916678033
 20
130.6866963553491
 30
0.0
 11
350.0130916678033
 21
130.6866963553491
 31
0.0
  0
LINE
  5
727
330
2
100
AcDbEntity
  8
0
100
AcDbLine
 10
348.8569026678033
 20
133.2179463553492
 30
0.0
 11
350.0130916678033
 21
133.2179463553492
 31
0.0
  0
LINE
  5
728
330
2
100
AcDbEntity
  8
0
100
AcDbLine
 10
348.8569026678033
 20
133.4070943553491
 30
0.0
 11
348.0998836678033
 21
134.1241963553492
 31
0.0
  0
LINE
  5
729
330
2
100
AcDbEntity
  8
0
100
AcDbLine
 10
343.4654836678033
 20
135.7179463553491
 30
0.0
 11
348.8448786678033
 21
135.7179463553491
 31
0.0
  0
LINE
  5
72A
330
2
100
AcDbEntity
  8
0
100
AcDbLine
 10
362.0130916678033
 20
133.2179463553492
 30
0.0
 11
362.0130916678033
 21
135.7179463553491
 31
0.0
  0
LINE
  5
72B
330
2
100
AcDbEntity
  8
0
100
AcDbLine
 10
354.0130916678033
 20
133.2179463553492
 30
0.0
 11
354.0130916678033
 21
135.7179463553491
 31
0.0
  0
LINE
  5
72C
330
2
100
AcDbEntity
  8
0
100
AcDbLine
 10
357.2319026678033
 20
134.2491963553491
 30
0.0
 11
355.3309016678033
 21
134.2491963553491
 31
0.0
  0
LINE
  5
72D
330
2
100
AcDbEntity
  8
0
100
AcDbLine
 10
355.3309016678033
 20
134.2491963553491
 30
0.0
 11
354.9010916678033
 21
133.2179463553492
 31
0.0
  0
LINE
  5
72E
330
2
100
AcDbEntity
  8
0
100
AcDbLine
 10
354.0130916678033
 20
133.2179463553492
 30
0.0
 11
354.9010916678033
 21
133.2179463553492
 31
0.0
  0
LINE
  5
72F
330
2
100
AcDbEntity
  8
0
100
AcDbLine
 10
358.7319026678033
 20
134.2491963553491
 30
0.0
 11
360.8162836678033
 21
134.2491963553491
 31
0.0
  0
LINE
  5
730
330
2
100
AcDbEntity
  8
0
100
AcDbLine
 10
360.8162836678033
 20
134.2491963553491
 30
0.0
 11
361.1786796678033
 21
133.2179463553492
 31
0.0
  0
LINE
  5
731
330
2
100
AcDbEntity
  8
0
100
AcDbLine
 10
361.1786796678033
 20
133.2179463553492
 30
0.0
 11
362.0130916678033
 21
133.2179463553492
 31
0.0
  0
LINE
  5
732
330
2
100
AcDbEntity
  8
0
100
AcDbLine
 10
354.0130916678033
 20
135.7179463553491
 30
0.0
 11
362.0130916678033
 21
135.7179463553491
 31
0.0
  0
LINE
  5
733
330
2
100
AcDbEntity
  8
0
100
AcDbLine
 10
307.1540826678033
 20
200.2101803553491
 30
0.0
 11
336.7247006678033
 21
220.8199213553492
 31
0.0
  0
LINE
  5
734
330
2
100
AcDbEntity
  8
0
100
AcDbLine
 10
286.2630916678033
 20
203.7179463553492
 30
0.0
 11
293.2631066678033
 21
203.7179463553492
 31
0.0
  0
ARC
  5
735
330
2
100
AcDbEntity
  8
0
100
AcDbCircle
 10
282.7630916678033
 20
188.7871303553491
 30
0.0
 40
2.5
100
AcDbArc
 50
295.7693249999996
 51
0.0
  0
ARC
  5
736
330
2
100
AcDbEntity
  8
0
100
AcDbCircle
 10
286.2630916678033
 20
202.7179463553492
 30
0.0
 40
1.0
100
AcDbArc
 50
90.0
 51
180.0
  0
ARC
  5
737
330
2
100
AcDbEntity
  8
0
100
AcDbCircle
 10
303.0130916678033
 20
195.7179463553492
 30
0.0
 40
2.0
100
AcDbArc
 50
270.0
 51
0.0
  0
ARC
  5
738
330
2
100
AcDbEntity
  8
0
100
AcDbCircle
 10
299.2631066678033
 20
191.7179463553492
 30
0.0
 40
2.0
100
AcDbArc
 50
0.0
 51
90.0
  0
LINE
  5
739
330
2
100
AcDbEntity
  8
0
100
AcDbLine
 10
293.2630916678033
 20
193.7179463553492
 30
0.0
 11
303.0130916678033
 21
193.7179463553492
 31
0.0
  0
LINE
  5
73A
330
2
100
AcDbEntity
  8
0
100
AcDbLine
 10
305.0131066678033
 20
196.1082053553491
 30
0.0
 11
305.0130916678033
 21
195.7179463553492
 31
0.0
  0
ARC
  5
73B
330
2
100
AcDbEntity
  8
0
100
AcDbCircle
 10
310.0130916678033
 20
196.1082053553491
 30
0.0
 40
5.0
100
AcDbArc
 50
124.8757019999997
 51
180.0
  0
LINE
  5
73C
330
2
100
AcDbEntity
  8
0
100
AcDbLine
 10
293.2630916678033
 20
203.4679463553492
 30
0.0
 11
310.8860926678033
 21
203.4679463553492
 31
0.0
  0
ARC
  5
73D
330
2
100
AcDbEntity
  8
0
100
AcDbCircle
 10
310.8858946678033
 20
206.4679463553492
 30
0.0
 40
3.0
100
AcDbArc
 50
270.0
 51
304.8753969999998
  0
ARC
  5
73E
330
2
100
AcDbEntity
  8
0
100
AcDbCircle
 10
339.5836786678033
 20
216.7179463553492
 30
0.0
 40
5.0
100
AcDbArc
 50
90.0
 51
124.8756030000001
  0
LINE
  5
73F
330
2
100
AcDbEntity
  8
0
100
AcDbLine
 10
168.2628896678034
 20
394.5216826955356
 30
0.0
 11
233.2632136678033
 21
394.5216826955356
 31
0.0
  0
LINE
  5
740
330
2
100
AcDbEntity
  8
0
100
AcDbLine
 10
168.2630876678033
 20
440.5216826955355
 30
0.0
 11
233.2632136678033
 21
440.5216826955356
 31
0.0
  0
LINE
  5
741
330
2
100
AcDbEntity
  8
0
100
AcDbLine
 10
127.2632096678033
 20
379.5216826955357
 30
0.0
 11
241.2632136678033
 21
379.5216826955357
 31
0.0
  0
LINE
  5
742
330
2
100
AcDbEntity
  8
0
100
AcDbLine
 10
127.2632096678033
 20
455.5216526955356
 30
0.0
 11
241.2632136678033
 21
455.5216526955356
 31
0.0
  0
LINE
  5
743
330
2
100
AcDbEntity
  8
0
100
AcDbLine
 10
68.76320966780338
 20
382.5216526955356
 30
0.0
 11
68.76320966780338
 21
452.5216526955356
 31
0.0
  0
LINE
  5
744
330
2
100
AcDbEntity
  8
0
100
AcDbLine
 10
117.7632096678033
 20
377.5216526955356
 30
0.0
 11
117.7632096678033
 21
410.0216826955355
 31
0.0
  0
LINE
  5
749
330
2
100
AcDbEntity
  8
0
100
AcDbLine
 10
71.26320966780338
 20
391.5216526955356
 30
0.0
 11
117.7632096678033
 21
391.5216526955356
 31
0.0
  0
LINE
  5
74A
330
2
100
AcDbEntity
  8
0
100
AcDbLine
 10
73.76320966780338
 20
377.5216526955356
 30
0.0
 11
117.7632096678033
 21
377.5216526955356
 31
0.0
  0
ARC
  5
74B
330
2
100
AcDbEntity
  8
0
100
AcDbCircle
 10
73.76320966780338
 20
382.5216526955356
 30
0.0
 40
5.0
100
AcDbArc
 50
180.0
 51
270.0
  0
LINE
  5
74E
330
2
100
AcDbEntity
  8
0
100
AcDbLine
 10
118.2630106678033
 20
394.5216526955356
 30
0.0
 11
117.7632096678033
 21
394.5216526955356
 31
0.0
  0
LINE
  5
74F
330
2
100
AcDbEntity
  8
0
100
AcDbLine
 10
127.2632096678033
 20
379.5216526955356
 30
0.0
 11
117.7632096678033
 21
379.5216526955356
 31
0.0
  0
ARC
  5
750
330
2
100
AcDbEntity
  8
0
100
AcDbCircle
 10
117.7632096678033
 20
385.2518166955356
 30
0.0
 40
1.5
100
AcDbArc
 50
0.0
 51
90.0
  0
ARC
  5
751
330
2
100
AcDbEntity
  8
0
100
AcDbCircle
 10
117.7632096678033
 20
385.2518166955356
 30
0.0
 40
3.0
100
AcDbArc
 50
0.0
 51
90.0
  0
ARC
  5
752
330
2
100
AcDbEntity
  8
0
100
AcDbCircle
 10
117.7632096678033
 20
385.2518166955356
 30
0.0
 40
4.5
100
AcDbArc
 50
0.0
 51
90.0
  0
LINE
  5
753
330
2
100
AcDbEntity
  8
HOJO
100
AcDbLine
 10
120.7632096678033
 20
381.2518166955356
 30
0.0
 11
122.2632096678033
 21
380.7518166955356
 31
0.0
  0
LINE
  5
754
330
2
100
AcDbEntity
  8
HOJO
100
AcDbLine
 10
119.2632096678033
 20
380.2518166955356
 30
0.0
 11
120.7632096678033
 21
380.7518166955356
 31
0.0
  0
LINE
  5
755
330
2
100
AcDbEntity
  8
0
100
AcDbLine
 10
122.2632096678033
 20
385.2518166955356
 30
0.0
 11
122.2632096678033
 21
380.7518166955356
 31
0.0
  0
LINE
  5
756
330
2
100
AcDbEntity
  8
0
100
AcDbLine
 10
120.7632096678033
 20
385.2518166955356
 30
0.0
 11
120.7632096678033
 21
380.7518166955356
 31
0.0
  0
LINE
  5
757
330
2
100
AcDbEntity
  8
0
100
AcDbLine
 10
119.2632096678033
 20
385.2518166955356
 30
0.0
 11
119.2632096678033
 21
380.2362216955356
 31
0.0
  0
LINE
  5
759
330
2
100
AcDbEntity
  8
0
100
AcDbLine
 10
127.2632096678033
 20
392.5216826955356
 30
0.0
 11
127.2632096678033
 21
379.5216526955356
 31
0.0
  0
LINE
  5
75C
330
2
100
AcDbEntity
  8
0
100
AcDbLine
 10
71.26320966780338
 20
441.5216526955356
 30
0.0
 11
117.7632096678033
 21
441.5216526955356
 31
0.0
  0
LINE
  5
75D
330
2
100
AcDbEntity
  8
0
100
AcDbLine
 10
73.76320966780338
 20
457.5216526955356
 30
0.0
 11
117.7632096678033
 21
457.5216526955356
 31
0.0
  0
ARC
  5
75E
330
2
100
AcDbEntity
  8
0
100
AcDbCircle
 10
73.76320966780338
 20
452.5216526955356
 30
0.0
 40
5.0
100
AcDbArc
 50
90.0
 51
180.0
  0
LINE
  5
761
330
2
100
AcDbEntity
  8
0
100
AcDbLine
 10
118.2629806678033
 20
440.5216526955356
 30
0.0
 11
117.7632096678033
 21
440.5216526955356
 31
0.0
  0
LINE
  5
762
330
2
100
AcDbEntity
  8
0
100
AcDbLine
 10
127.2632096678033
 20
455.5216526955356
 30
0.0
 11
117.7632096678033
 21
455.5216526955356
 31
0.0
  0
LINE
  5
764
330
2
100
AcDbEntity
  8
0
100
AcDbLine
 10
127.2632096678033
 20
455.5216526955356
 30
0.0
 11
127.2632096678033
 21
442.5216826955356
 31
0.0
  0
ARC
  5
767
330
2
100
AcDbEntity
  8
0
100
AcDbCircle
 10
272.4327236678033
 20
417.5216826955356
 30
0.0
 40
15.0
100
AcDbArc
 50
130.7476199999996
 51
229.2523800000003
  0
LINE
  5
768
330
2
100
AcDbEntity
  8
0
100
AcDbLine
 10
241.2630916678033
 20
455.5216826955357
 30
0.0
 11
241.2630916678033
 21
379.5216826955357
 31
0.0
  0
LINE
  5
769
330
2
100
AcDbEntity
  8
0
100
AcDbLine
 10
241.2630916678033
 20
455.5216826955357
 30
0.0
 11
241.2630916678033
 21
379.5216826955357
 31
0.0
  0
LINE
  5
76A
330
2
100
AcDbEntity
  8
0
100
AcDbLine
 10
285.2630916678033
 20
362.5216676955357
 30
0.0
 11
285.2630916678033
 21
472.5216826955357
 31
0.0
  0
LINE
  5
76B
330
2
100
AcDbEntity
  8
0
100
AcDbLine
 10
311.8280936678033
 20
435.5216826955357
 30
0.0
 11
311.8280936678033
 21
399.5216826955356
 31
0.0
  0
LINE
  5
76C
330
2
100
AcDbEntity
  8
0
100
AcDbLine
 10
293.2630916678033
 20
475.0216826955356
 30
0.0
 11
293.2630916678033
 21
360.0216676955357
 31
0.0
  0
LINE
  5
76D
330
2
100
AcDbEntity
  8
0
100
AcDbLine
 10
338.0130916678033
 20
387.5216826955356
 30
0.0
 11
338.0130916678033
 21
447.5216826955357
 31
0.0
  0
LINE
  5
76E
330
2
100
AcDbEntity
  8
CENTER
100
AcDbLine
 10
358.0130916678033
 20
485.5216826955357
 30
0.0
 11
358.0130916678033
 21
317.5216676955356
 31
0.0
  0
LINE
  5
76F
330
2
100
AcDbEntity
  8
0
100
AcDbLine
 10
284.3949126678034
 20
387.4156646955356
 30
0.0
 11
262.6417996678032
 21
406.1577916955356
 31
0.0
  0
LINE
  5
770
330
2
100
AcDbEntity
  8
0
100
AcDbLine
 10
282.8503416678033
 20
378.0694126955356
 30
0.0
 11
241.2630916678033
 21
379.5216826955357
 31
0.0
  0
LINE
  5
771
330
2
100
AcDbEntity
  8
0
100
AcDbLine
 10
233.2632136678033
 20
394.5216826955356
 30
0.0
 11
233.2632136678033
 21
381.5216826955357
 31
0.0
  0
ARC
  5
772
330
2
100
AcDbEntity
  8
0
100
AcDbCircle
 10
235.2632136678033
 20
381.5216826955357
 30
0.0
 40
2.0
100
AcDbArc
 50
180.0
 51
270.0
  0
LINE
  5
773
330
2
100
AcDbEntity
  8
0
100
AcDbLine
 10
347.0130916678033
 20
367.5216676955357
 30
0.0
 11
347.0130916678033
 21
327.5216676955356
 31
0.0
  0
LINE
  5
775
330
2
100
AcDbEntity
  8
0
100
AcDbLine
 10
315.0749816678033
 20
359.5216676955357
 30
0.0
 11
347.0130916678033
 21
359.5216676955357
 31
0.0
  0
ARC
  5
776
330
2
100
AcDbEntity
  8
0
100
AcDbCircle
 10
282.7630916678033
 20
385.5217136955357
 30
0.0
 40
2.5
100
AcDbArc
 50
0.0
 51
49.25237300000009
  0
LINE
  5
777
330
2
100
AcDbEntity
  8
0
100
AcDbLine
 10
287.7630916678033
 20
360.0216676955357
 30
0.0
 11
293.2630916678033
 21
360.0216676955357
 31
0.0
  0
ARC
  5
778
330
2
100
AcDbEntity
  8
0
100
AcDbCircle
 10
287.7630916678033
 20
362.5216676955357
 30
0.0
 40
2.5
100
AcDbArc
 50
180.0
 51
270.0
  0
ARC
  5
779
330
2
100
AcDbEntity
  8
0
100
AcDbCircle
 10
282.7630916678033
 20
375.5709386955357
 30
0.0
 40
2.5
100
AcDbArc
 50
0.0
 51
88.00000000000043
  0
ARC
  5
77A
330
2
100
AcDbEntity
  8
0
100
AcDbCircle
 10
298.5959316678033
 20
373.0216676955357
 30
0.0
 40
3.0
100
AcDbArc
 50
270.0
 51
358.4999999999997
  0
LINE
  5
77B
330
2
100
AcDbEntity
  8
0
100
AcDbLine
 10
310.1810146678033
 20
363.4974366955356
 30
0.0
 11
305.6018826678033
 21
385.3772126955356
 31
0.0
  0
LINE
  5
77C
330
2
100
AcDbEntity
  8
0
100
AcDbLine
 10
301.3395836678033
 20
363.1931456955356
 30
0.0
 11
301.7967826678033
 21
380.6525426955356
 31
0.0
  0
LINE
  5
77D
330
2
100
AcDbEntity
  8
0
100
AcDbLine
 10
298.3406216678033
 20
360.2716676955357
 30
0.0
 11
293.2630916678033
 21
360.2716676955357
 31
0.0
  0
ARC
  5
77E
330
2
100
AcDbEntity
  8
0
100
AcDbCircle
 10
298.3406216678033
 20
363.2716676955357
 30
0.0
 40
3.0
100
AcDbArc
 50
270.0
 51
358.4999999999997
  0
LINE
  5
77F
330
2
100
AcDbEntity
  8
0
100
AcDbLine
 10
293.2630916678033
 20
370.0216676955357
 30
0.0
 11
298.5959316678033
 21
370.0216676955357
 31
0.0
  0
ARC
  5
780
330
2
100
AcDbEntity
  8
0
100
AcDbCircle
 10
315.0749816678033
 20
364.5216676955357
 30
0.0
 40
5.0
100
AcDbArc
 50
191.8206019999996
 51
270.0
  0
ARC
  5
781
330
2
100
AcDbEntity
  8
0
100
AcDbCircle
 10
306.7950586678033
 20
380.5216826955356
 30
0.0
 40
5.0
100
AcDbArc
 50
90.0
 51
178.4999999999997
  0
LINE
  5
782
330
2
100
AcDbEntity
  8
0
100
AcDbLine
 10
301.5535576678032
 20
385.5216826955356
 30
0.0
 11
293.2630916678033
 21
385.5216826955356
 31
0.0
  0
LINE
  5
783
330
2
100
AcDbEntity
  8
0
100
AcDbLine
 10
327.8568416678033
 20
379.5216826955357
 30
0.0
 11
329.9207756678033
 21
371.7514956955356
 31
0.0
  0
CIRCLE
  5
784
330
2
100
AcDbEntity
  8
0
100
AcDbCircle
 10
323.0130916678033
 20
372.5216676955357
 30
0.0
 40
5.5
  0
ARC
  5
786
330
2
100
AcDbEntity
  8
0
100
AcDbCircle
 10
332.8202506678033
 20
372.5216676955357
 30
0.0
 40
3.0
100
AcDbArc
 50
194.8756869999999
 51
270.0
  0
ARC
  5
787
330
2
100
AcDbEntity
  8
0
100
AcDbCircle
 10
324.5699916678034
 20
382.5216826955356
 30
0.0
 40
3.0
100
AcDbArc
 50
194.8756869999999
 51
270.0
  0
LINE
  5
788
330
2
100
AcDbEntity
  8
0
100
AcDbLine
 10
327.8568416678033
 20
379.5216826955357
 30
0.0
 11
324.5699916678034
 21
379.5216826955357
 31
0.0
  0
ARC
  5
789
330
2
100
AcDbEntity
  8
0
100
AcDbCircle
 10
318.3619376678033
 20
382.5216826955356
 30
0.0
 40
3.0
100
AcDbArc
 50
14.87568200000016
 51
90.0
  0
LINE
  5
78A
330
2
100
AcDbEntity
  8
0
100
AcDbLine
 10
321.6705316678033
 20
381.7515106955356
 30
0.0
 11
321.2613826678033
 21
383.2918246955356
 31
0.0
  0
LINE
  5
78B
330
2
100
AcDbEntity
  8
0
100
AcDbLine
 10
345.5130916678033
 20
369.5216676955357
 30
0.0
 11
345.5130916678033
 21
367.5216676955357
 31
0.0
  0
LINE
  5
78C
330
2
100
AcDbEntity
  8
0
100
AcDbLine
 10
284.3949126678034
 20
447.6276706955356
 30
0.0
 11
262.6417996678032
 21
428.8855446955357
 31
0.0
  0
LINE
  5
78D
330
2
100
AcDbEntity
  8
0
100
AcDbLine
 10
282.8503416678033
 20
456.9739226955357
 30
0.0
 11
241.2630916678033
 21
455.5216826955357
 31
0.0
  0
LINE
  5
78E
330
2
100
AcDbEntity
  8
0
100
AcDbLine
 10
233.2632136678033
 20
453.5216526955356
 30
0.0
 11
233.2632136678033
 21
440.5216826955356
 31
0.0
  0
ARC
  5
78F
330
2
100
AcDbEntity
  8
0
100
AcDbCircle
 10
235.2632136678033
 20
453.5216826955356
 30
0.0
 40
2.0
100
AcDbArc
 50
90.0
 51
180.0
  0
ARC
  5
790
330
2
100
AcDbEntity
  8
0
100
AcDbCircle
 10
315.0749816678033
 20
470.5216826955356
 30
0.0
 40
5.0
100
AcDbArc
 50
90.0
 51
168.1793980000003
  0
LINE
  5
791
330
2
100
AcDbEntity
  8
0
100
AcDbLine
 10
400.9512016678034
 20
475.5216826955356
 30
0.0
 11
314.8968196678033
 21
475.5216826955356
 31
0.0
  0
LINE
  5
793
330
2
100
AcDbEntity
  8
0
100
AcDbLine
 10
287.7630916678033
 20
475.0216826955356
 30
0.0
 11
293.2630916678033
 21
475.0216826955356
 31
0.0
  0
ARC
  5
794
330
2
100
AcDbEntity
  8
0
100
AcDbCircle
 10
282.7630916678033
 20
449.5216526955356
 30
0.0
 40
2.5
100
AcDbArc
 50
310.7476269999999
 51
0.0
  0
ARC
  5
795
330
2
100
AcDbEntity
  8
0
100
AcDbCircle
 10
282.7630916678033
 20
459.4723976955356
 30
0.0
 40
2.5
100
AcDbArc
 50
271.9999999999995
 51
0.0
  0
ARC
  5
796
330
2
100
AcDbEntity
  8
0
100
AcDbCircle
 10
287.7630916678033
 20
472.5216826955357
 30
0.0
 40
2.5
100
AcDbArc
 50
90.0
 51
180.0
  0
LINE
  5
797
330
2
100
AcDbEntity
  8
0
100
AcDbLine
 10
310.1810146678033
 20
471.5459136955356
 30
0.0
 11
305.6018826678033
 21
449.6661226955357
 31
0.0
  0
LINE
  5
798
330
2
100
AcDbEntity
  8
0
100
AcDbLine
 10
301.3395836678033
 20
471.8502046955356
 30
0.0
 11
301.7967826678033
 21
454.3907936955356
 31
0.0
  0
ARC
  5
799
330
2
100
AcDbEntity
  8
0
100
AcDbCircle
 10
306.7950586678033
 20
454.5216826955356
 30
0.0
 40
5.0
100
AcDbArc
 50
181.5000000000002
 51
270.0
  0
LINE
  5
79A
330
2
100
AcDbEntity
  8
0
100
AcDbLine
 10
301.5535576678032
 20
449.5216826955356
 30
0.0
 11
293.2630916678033
 21
449.5216826955356
 31
0.0
  0
LINE
  5
79B
330
2
100
AcDbEntity
  8
0
100
AcDbLine
 10
293.2630916678033
 20
465.0216826955356
 30
0.0
 11
298.5959316678033
 21
465.0216826955356
 31
0.0
  0
ARC
  5
79C
330
2
100
AcDbEntity
  8
0
100
AcDbCircle
 10
298.5959316678033
 20
462.0216826955356
 30
0.0
 40
3.0
100
AcDbArc
 50
1.500000000000274
 51
90.0
  0
LINE
  5
79D
330
2
100
AcDbEntity
  8
0
100
AcDbLine
 10
293.2630916678033
 20
474.7716826955357
 30
0.0
 11
298.3406216678033
 21
474.7716826955357
 31
0.0
  0
ARC
  5
79E
330
2
100
AcDbEntity
  8
0
100
AcDbCircle
 10
298.3406216678033
 20
471.7716826955356
 30
0.0
 40
3.0
100
AcDbArc
 50
1.500000000000274
 51
90.0
  0
LINE
  5
79F
330
2
100
AcDbEntity
  8
0
100
AcDbLine
 10
327.8568416678033
 20
455.5216826955357
 30
0.0
 11
329.9207756678033
 21
463.2918246955357
 31
0.0
  0
CIRCLE
  5
7A0
330
2
100
AcDbEntity
  8
0
100
AcDbCircle
 10
323.0130916678033
 20
462.5216826955356
 30
0.0
 40
5.5
  0
ARC
  5
7A2
330
2
100
AcDbEntity
  8
0
100
AcDbCircle
 10
324.5699916678034
 20
452.5216826955356
 30
0.0
 40
3.0
100
AcDbArc
 50
90.0
 51
165.124313
  0
ARC
  5
7A3
330
2
100
AcDbEntity
  8
0
100
AcDbCircle
 10
318.3619376678033
 20
452.5216826955356
 30
0.0
 40
3.0
100
AcDbArc
 50
270.0
 51
345.1243179999998
  0
LINE
  5
7A4
330
2
100
AcDbEntity
  8
0
100
AcDbLine
 10
321.6705316678033
 20
453.2918246955357
 30
0.0
 11
321.2613826678033
 21
451.7515106955356
 31
0.0
  0
LINE
  5
7A5
330
2
100
AcDbEntity
  8
0
100
AcDbLine
 10
327.8568416678033
 20
455.5216826955357
 30
0.0
 11
324.5699916678034
 21
455.5216826955357
 31
0.0
  0
ARC
  5
7A6
330
2
100
AcDbEntity
  8
0
100
AcDbCircle
 10
332.8202506678033
 20
462.5216826955356
 30
0.0
 40
3.0
100
AcDbArc
 50
90.0
 51
165.124313
  0
ARC
  5
7A7
330
2
100
AcDbEntity
  8
0
100
AcDbCircle
 10
580.4176410081882
 20
103.7179463553492
 30
0.0
 40
5.0
100
AcDbArc
 50
180.0
 51
270.0
  0
ARC
  5
7A8
330
2
100
AcDbEntity
  8
0
100
AcDbCircle
 10
577.9176410081881
 20
151.5251133553491
 30
0.0
 40
3.0
100
AcDbArc
 50
180.0
 51
255.124603
  0
ARC
  5
7A9
330
2
100
AcDbEntity
  8
0
100
AcDbCircle
 10
577.9176410081881
 20
201.9108023553491
 30
0.0
 40
3.0
100
AcDbArc
 50
104.8760990000001
 51
180.0
  0
LINE
  5
7AA
330
2
100
AcDbEntity
  8
0
100
AcDbLine
 10
589.6356280081882
 20
93.2248683553492
 30
0.0
 11
566.1996230081881
 21
84.21104735534919
 31
0.0
  0
LINE
  5
7AB
330
2
100
AcDbEntity
  8
0
100
AcDbLine
 10
566.9176410081881
 20
83.7179463553492
 30
0.0
 11
587.9176410081881
 21
83.7179463553492
 31
0.0
  0
LINE
  5
7AC
330
2
100
AcDbEntity
  8
0
100
AcDbLine
 10
564.9176410081881
 20
71.7179473553492
 30
0.0
 11
597.9176410081882
 21
71.7179473553492
 31
0.0
  0
LINE
  5
7AD
330
2
100
AcDbEntity
  8
CENTER
100
AcDbLine
 10
522.9176410081882
 20
176.7179463553491
 30
0.0
 11
681.6618404360038
 21
176.7179463553492
 31
0.0
  0
LINE
  5
7AE
330
2
100
AcDbEntity
  8
CENTER
100
AcDbLine
 10
555.4176100081881
 20
146.2179463553491
 30
0.0
 11
690.4176100081881
 21
146.2179463553491
 31
0.0
  0
ARC
  5
7AF
330
2
100
AcDbEntity
  8
0
100
AcDbCircle
 10
622.9176100081881
 20
146.2179463553491
 30
0.0
 40
57.5
100
AcDbArc
 50
160.176102
 51
213.9971309999994
  0
ARC
  5
7B0
330
2
100
AcDbEntity
  8
0
100
AcDbCircle
 10
622.9176100081881
 20
146.2179463553491
 30
0.0
 40
57.25
100
AcDbArc
 50
160.0859069999998
 51
212.5019070000004
  0
LINE
  5
7B1
330
2
100
AcDbEntity
  8
0
100
AcDbLine
 10
370.5422966678033
 20
129.3273213553492
 30
0.0
 11
372.4184866678033
 21
124.9679463553492
 31
0.0
  0
LINE
  5
7B2
330
2
100
AcDbEntity
  8
0
100
AcDbLine
 10
371.6938776678033
 20
129.4360593553491
 30
0.0
 11
373.6762996678034
 21
124.9679463553492
 31
0.0
  0
LINE
  5
7B3
330
2
100
AcDbEntity
  8
0
100
AcDbLine
 10
367.9819026678033
 20
129.3273213553492
 30
0.0
 11
367.9819026678033
 21
124.9679463553492
 31
0.0
  0
LINE
  5
7B4
330
2
100
AcDbEntity
  8
0
100
AcDbLine
 10
366.6069026678033
 20
134.2491963553491
 30
0.0
 11
366.6069026678033
 21
124.9679463553492
 31
0.0
  0
ARC
  5
7B5
330
2
100
AcDbEntity
  8
0
100
AcDbCircle
 10
374.7630916678033
 20
135.2179463553492
 30
0.0
 40
19.0
100
AcDbArc
 50
270.0
 51
7.552700000000432
  0
ARC
  5
7B6
330
2
100
AcDbEntity
  8
0
100
AcDbCircle
 10
374.7630916678033
 20
135.2179463553492
 30
0.0
 40
20.6
100
AcDbArc
 50
270.0
 51
7.552700000000432
  0
LINE
  5
7B7
330
2
100
AcDbEntity
  8
0
100
AcDbLine
 10
411.0130916678033
 20
196.1081903553491
 30
0.0
 11
411.0130916678033
 21
71.71796835534919
 31
0.0
  0
LINE
  5
7B9
330
2
100
AcDbEntity
  8
HIDS
  6
SEKKEI_H
100
AcDbLine
 10
387.5130916678033
 20
83.7179463553492
 30
0.0
 11
387.5130916678033
 21
71.7179473553492
 31
0.0
  0
ARC
  5
7BA
330
2
100
AcDbEntity
  8
0
100
AcDbCircle
 10
377.0746756678033
 20
85.71794635534919
 30
0.0
 40
2.0
100
AcDbArc
 50
194.0361940000001
 51
270.0
  0
LINE
  5
7BB
330
2
100
AcDbEntity
  8
0
100
AcDbLine
 10
375.1342766678033
 20
85.23286735534918
 30
0.0
 11
373.3918756678033
 21
92.20300835534919
 31
0.0
  0
LINE
  5
7BC
330
2
100
AcDbEntity
  8
0
100
AcDbLine
 10
373.0130916678033
 20
92.28044635534919
 30
0.0
 11
373.0130916678033
 21
84.71794635534919
 31
0.0
  0
ARC
  5
7BD
330
2
100
AcDbEntity
  8
0
100
AcDbCircle
 10
374.0130916678033
 20
84.71794635534919
 30
0.0
 40
1.0
100
AcDbArc
 50
180.0
 51
270.0
  0
ARC
  5
7BE
330
2
100
AcDbEntity
  8
0
100
AcDbCircle
 10
371.4514766678033
 20
91.7179463553492
 30
0.0
 40
2.0
100
AcDbArc
 50
14.03644
 51
90.0
  0
LINE
  5
7BF
330
2
100
AcDbEntity
  8
HIDS
  6
SEKKEI_H
100
AcDbLine
 10
398.5130916678033
 20
83.7179463553492
 30
0.0
 11
398.5130916678033
 21
71.7179473553492
 31
0.0
  0
LINE
  5
7C0
330
2
100
AcDbEntity
  8
CENTER
100
AcDbLine
 10
393.0130916678034
 20
88.7179463553492
 30
0.0
 11
393.0130916678031
 21
66.71794735534916
 31
0.0
  0
LINE
  5
7C1
330
2
100
AcDbEntity
  8
0
100
AcDbLine
 10
405.0130916678033
 20
82.6554473553492
 30
0.0
 11
405.0130916678033
 21
71.7179473553492
 31
0.0
  0
LINE
  5
7C2
330
2
100
AcDbEntity
  8
0
100
AcDbLine
 10
366.0130916678033
 20
124.9679463553492
 30
0.0
 11
366.0130916678033
 21
123.7179463553492
 31
0.0
  0
LINE
  5
7C3
330
2
100
AcDbEntity
  8
0
100
AcDbLine
 10
368.5286856678033
 20
124.9679463553492
 30
0.0
 11
368.5286856678033
 21
123.7179463553492
 31
0.0
  0
LINE
  5
7C4
330
2
100
AcDbEntity
  8
0
100
AcDbLine
 10
368.5286856678033
 20
123.7179463553492
 30
0.0
 11
366.0130916678033
 21
123.7179463553492
 31
0.0
  0
LINE
  5
7C5
330
2
100
AcDbEntity
  8
0
100
AcDbLine
 10
367.9819026678033
 20
124.9679463553492
 30
0.0
 11
368.5286856678033
 21
124.9679463553492
 31
0.0
  0
LINE
  5
7C6
330
2
100
AcDbEntity
  8
0
100
AcDbLine
 10
366.0130916678033
 20
124.9679463553492
 30
0.0
 11
366.6069026678033
 21
124.9679463553492
 31
0.0
  0
LINE
  5
7C7
330
2
100
AcDbEntity
  8
0
100
AcDbLine
 10
372.1692806678033
 20
124.9679463553492
 30
0.0
 11
372.1692806678033
 21
123.7179463553492
 31
0.0
  0
LINE
  5
7C8
330
2
100
AcDbEntity
  8
0
100
AcDbLine
 10
374.0130916678033
 20
124.9679463553492
 30
0.0
 11
374.0130916678033
 21
123.7179463553492
 31
0.0
  0
LINE
  5
7C9
330
2
100
AcDbEntity
  8
0
100
AcDbLine
 10
372.1692806678033
 20
123.7179463553492
 30
0.0
 11
374.0130916678033
 21
123.7179463553492
 31
0.0
  0
LINE
  5
7CA
330
2
100
AcDbEntity
  8
0
100
AcDbLine
 10
373.6762996678034
 20
124.9679463553492
 30
0.0
 11
374.0130916678033
 21
124.9679463553492
 31
0.0
  0
LINE
  5
7CB
330
2
100
AcDbEntity
  8
0
100
AcDbLine
 10
372.1692806678033
 20
124.9679463553492
 30
0.0
 11
372.4184866678033
 21
124.9679463553492
 31
0.0
  0
LINE
  5
7CC
330
2
100
AcDbEntity
  8
HIDS
  6
SEKKEI_H
100
AcDbLine
 10
572.4176410081882
 20
83.7179463553492
 30
0.0
 11
572.4176410081882
 21
71.7179473553492
 31
0.0
  0
ARC
  5
7CD
330
2
100
AcDbEntity
  8
0
100
AcDbCircle
 10
566.9176410081881
 20
82.34436735534918
 30
0.0
 40
2.0
100
AcDbArc
 50
111.0379029999999
 51
180.0
  0
ARC
  5
7CE
330
2
100
AcDbEntity
  8
0
100
AcDbCircle
 10
566.9176410081881
 20
81.7179473553492
 30
0.0
 40
2.0
100
AcDbArc
 50
90.0
 51
180.0
  0
LINE
  5
7CF
330
2
100
AcDbEntity
  8
0
100
AcDbLine
 10
564.9176410081881
 20
82.34434735534918
 30
0.0
 11
564.9176410081881
 21
71.7179473553492
 31
0.0
  0
LINE
  5
7D0
330
2
100
AcDbEntity
  8
0
100
AcDbLine
 10
575.4176410081881
 20
103.7179463553492
 30
0.0
 11
575.4176410081881
 21
112.7692883553492
 31
0.0
  0
ARC
  5
7D1
330
2
100
AcDbEntity
  8
0
100
AcDbCircle
 10
570.4176410081881
 20
112.7692883553492
 30
0.0
 40
5.0
100
AcDbArc
 50
0.0
 51
32.49969100000006
  0
LINE
  5
7D2
330
2
100
AcDbEntity
  8
0
100
AcDbLine
 10
387.9014886678033
 20
180.6808063553491
 30
0.0
 11
393.5982966678033
 21
137.7152763553492
 31
0.0
  0
LINE
  5
7D3
330
2
100
AcDbEntity
  8
0
100
AcDbLine
 10
389.4877006678033
 20
180.8911113553492
 30
0.0
 11
395.1842956678033
 21
137.9255733553492
 31
0.0
  0
LINE
  5
7D4
330
2
100
AcDbEntity
  8
0
100
AcDbLine
 10
366.0130916678033
 20
135.7179463553491
 30
0.0
 11
366.0130916678033
 21
134.2491963553491
 31
0.0
  0
ARC
  5
7D5
330
2
100
AcDbEntity
  8
0
100
AcDbCircle
 10
370.8100886678033
 20
132.5148213553491
 30
0.0
 40
3.203125999999999
100
AcDbArc
 50
286.0181269999995
 51
90.00350999999964
  0
LINE
  5
7D6
330
2
100
AcDbEntity
  8
0
100
AcDbLine
 10
367.9819026678033
 20
134.2491963553491
 30
0.0
 11
371.7148736678033
 21
134.2467703553491
 31
0.0
  0
LINE
  5
7D7
330
2
100
AcDbEntity
  8
0
100
AcDbLine
 10
367.9819026678033
 20
129.3273213553492
 30
0.0
 11
370.5422966678033
 21
129.3273213553492
 31
0.0
  0
LINE
  5
7D8
330
2
100
AcDbEntity
  8
0
100
AcDbLine
 10
371.0621026678033
 20
130.5770393553492
 30
0.0
 11
367.9819026678033
 21
130.5770393553492
 31
0.0
  0
LINE
  5
7D9
330
2
100
AcDbEntity
  8
0
100
AcDbLine
 10
366.0130916678033
 20
134.2491963553491
 30
0.0
 11
366.6069026678033
 21
134.2491963553491
 31
0.0
  0
LINE
  5
7DA
330
2
100
AcDbEntity
  8
0
100
AcDbLine
 10
367.9819026678033
 20
134.2491963553491
 30
0.0
 11
367.9819026678033
 21
130.5770393553492
 31
0.0
  0
ARC
  5
7DB
330
2
100
AcDbEntity
  8
0
100
AcDbCircle
 10
370.8100886678033
 20
132.5148213553491
 30
0.0
 40
1.954124999999999
100
AcDbArc
 50
277.4147259999995
 51
62.41184999999949
  0
LINE
  5
7DC
330
2
100
AcDbEntity
  8
0
100
AcDbLine
 10
366.0130916678033
 20
135.7179463553491
 30
0.0
 11
370.8100886678033
 21
135.7179463553491
 31
0.0
  0
LINE
  5
7DD
330
2
100
AcDbEntity
  8
0
100
AcDbLine
 10
371.5130916678033
 20
173.7179843553492
 30
0.0
 11
371.5130916678033
 21
179.7179843553491
 31
0.0
  0
LINE
  5
7DE
330
2
100
AcDbEntity
  8
0
100
AcDbLine
 10
365.5130916678033
 20
173.7179693553492
 30
0.0
 11
365.5130916678033
 21
179.7179693553491
 31
0.0
  0
LINE
  5
7DF
330
2
100
AcDbEntity
  8
0
100
AcDbLine
 10
371.5130916678033
 20
173.7179843553492
 30
0.0
 11
365.5130916678033
 21
173.7179693553492
 31
0.0
  0
LINE
  5
7E0
330
2
100
AcDbEntity
  8
0
100
AcDbLine
 10
371.5130916678033
 20
179.7179843553491
 30
0.0
 11
365.5130916678033
 21
179.7179693553491
 31
0.0
  0
LINE
  5
7E1
330
2
100
AcDbEntity
  8
0
100
AcDbLine
 10
408.8721006678033
 20
200.2101803553491
 30
0.0
 11
379.3014826678033
 21
220.8199213553492
 31
0.0
  0
ARC
  5
7E2
330
2
100
AcDbEntity
  8
0
100
AcDbCircle
 10
406.0130916678033
 20
196.1081903553491
 30
0.0
 40
5.0
100
AcDbArc
 50
0.0
 51
55.1248509999997
  0
ARC
  5
7E3
330
2
100
AcDbEntity
  8
0
100
AcDbCircle
 10
376.4424736678033
 20
216.7179463553492
 30
0.0
 40
5.0
100
AcDbArc
 50
55.12480900000042
 51
90.0
  0
LINE
  5
7E4
330
2
100
AcDbEntity
  8
0
100
AcDbLine
 10
572.9176410081882
 20
189.2179463553492
 30
0.0
 11
572.9176410081882
 21
164.2179463553492
 31
0.0
  0
LINE
  5
7E5
330
2
100
AcDbEntity
  8
0
100
AcDbLine
 10
532.9176410081881
 20
165.7179463553491
 30
0.0
 11
532.9176410081881
 21
187.7179463553492
 31
0.0
  0
LINE
  5
7E6
330
2
100
AcDbEntity
  8
0
100
AcDbLine
 10
574.9176410081881
 20
151.5250983553491
 30
0.0
 11
574.9176410081881
 21
201.9107873553491
 31
0.0
  0
LINE
  5
7E7
330
2
100
AcDbEntity
  8
0
100
AcDbLine
 10
564.9176410081881
 20
173.7179463553492
 30
0.0
 11
532.9176410081881
 21
173.7179463553492
 31
0.0
  0
LINE
  5
7E8
330
2
100
AcDbEntity
  8
0
100
AcDbLine
 10
564.9176410081881
 20
179.7179463553492
 30
0.0
 11
532.9176410081881
 21
179.7179463553492
 31
0.0
  0
LINE
  5
7E9
330
2
100
AcDbEntity
  8
0
100
AcDbLine
 10
572.9176410081882
 20
165.7179463553491
 30
0.0
 11
532.9176410081881
 21
165.7179463553491
 31
0.0
  0
LINE
  5
7EA
330
2
100
AcDbEntity
  8
0
100
AcDbLine
 10
574.9176410081881
 20
164.2179463553492
 30
0.0
 11
572.9176410081882
 21
164.2179463553492
 31
0.0
  0
ARC
  5
7EB
330
2
100
AcDbEntity
  8
0
100
AcDbCircle
 10
564.9176410081881
 20
176.7179463553492
 30
0.0
 40
3.0
100
AcDbArc
 50
270.0
 51
90.0
  0
LINE
  5
7EC
330
2
100
AcDbEntity
  8
0
100
AcDbLine
 10
572.9176410081882
 20
187.7179463553492
 30
0.0
 11
532.9176410081881
 21
187.7179463553492
 31
0.0
  0
LINE
  5
7ED
330
2
100
AcDbEntity
  8
0
100
AcDbLine
 10
574.9176410081881
 20
189.2179463553492
 30
0.0
 11
572.9176410081882
 21
189.2179463553492
 31
0.0
  0
ARC
  5
7EE
330
2
100
AcDbEntity
  8
0
100
AcDbCircle
 10
622.9176100081881
 20
146.2179463553491
 30
0.0
 40
57.5
100
AcDbArc
 50
326.0028759999996
 51
33.40679200000047
  0
ARC
  5
7EF
330
2
100
AcDbEntity
  8
0
100
AcDbCircle
 10
622.9176100081881
 20
146.2179463553491
 30
0.0
 40
57.25
100
AcDbArc
 50
327.4981120000001
 51
33.02551699999998
  0
LINE
  5
7F0
330
2
100
AcDbEntity
  8
0
100
AcDbLine
 10
584.9176410081882
 20
118.5227863553491
 30
0.0
 11
584.9176410081882
 21
178.7879463553492
 31
0.0
  0
LINE
  5
7F1
330
2
100
AcDbEntity
  8
0
100
AcDbLine
 10
660.9176100081882
 20
118.5227863553491
 30
0.0
 11
660.9176100081882
 21
178.7879463553492
 31
0.0
  0
LINE
  5
7F2
330
2
100
AcDbEntity
  8
0
100
AcDbLine
 10
654.9176100081881
 20
71.71794735534916
 30
0.0
 11
654.9176100081881
 21
219.1942343553491
 31
0.0
  0
LINE
  5
7F3
330
2
100
AcDbEntity
  8
0
100
AcDbLine
 10
590.9176410081882
 20
71.7179473553492
 30
0.0
 11
590.9176410081881
 21
219.1938683553491
 31
0.0
  0
LINE
  5
7F4
330
2
100
AcDbEntity
  8
CENTER
100
AcDbLine
 10
622.9176100081881
 20
61.7179473553492
 30
0.0
 11
622.9176100081883
 21
231.7179463553492
 31
0.0
  0
LINE
  5
7F5
330
2
100
AcDbEntity
  8
0
100
AcDbLine
 10
647.9176100081881
 20
71.7179473553492
 30
0.0
 11
680.9176100081881
 21
71.7179473553492
 31
0.0
  0
LINE
  5
7F6
330
2
100
AcDbEntity
  8
0
100
AcDbLine
 10
656.1996540081882
 20
93.22484735534919
 30
0.0
 11
679.6356280081881
 21
84.21104735534919
 31
0.0
  0
LINE
  5
7F7
330
2
100
AcDbEntity
  8
0
100
AcDbLine
 10
678.9176100081881
 20
83.7179463553492
 30
0.0
 11
657.9176100081881
 21
83.7179463553492
 31
0.0
  0
LINE
  5
7F8
330
2
100
AcDbEntity
  8
CENTER
100
AcDbLine
 10
667.9176100081881
 20
88.71794635534916
 30
0.0
 11
667.9176100081881
 21
66.71794735534922
 31
0.0
  0
LINE
  5
7F9
330
2
100
AcDbEntity
  8
CENTER
100
AcDbLine
 10
577.9176410081881
 20
88.71794635534923
 30
0.0
 11
577.9176410081881
 21
66.7179473553492
 31
0.0
  0
LINE
  5
7FA
330
2
100
AcDbEntity
  8
0
100
AcDbLine
 10
598.9176410081881
 20
72.71794735534919
 30
0.0
 11
646.9176100081881
 21
72.71794735534919
 31
0.0
  0
ARC
  5
7FB
330
2
100
AcDbEntity
  8
0
100
AcDbCircle
 10
588.9176410081882
 20
101.2179463553491
 30
0.0
 40
4.0
100
AcDbArc
 50
218.645996
 51
270.0
  0
LINE
  5
7FC
330
2
100
AcDbEntity
  8
HIDS
  6
SEKKEI_H
100
AcDbLine
 10
583.4176410081881
 20
83.7179463553492
 30
0.0
 11
583.4176410081881
 21
71.7179473553492
 31
0.0
  0
LINE
  5
7FE
330
2
100
AcDbEntity
  8
0
100
AcDbLine
 10
597.9176410081882
 20
71.7179473553492
 30
0.0
 11
598.9176410081881
 21
72.71794735534919
 31
0.0
  0
ARC
  5
7FF
330
2
100
AcDbEntity
  8
0
100
AcDbCircle
 10
587.9176410081881
 20
86.7179273553492
 30
0.0
 40
3.0
100
AcDbArc
 50
270.0
 51
0.0
  0
LINE
  5
801
330
2
100
AcDbEntity
  8
0
100
AcDbLine
 10
588.9176410081882
 20
97.21794635534919
 30
0.0
 11
590.9176410081881
 21
97.21794635534919
 31
0.0
  0
ARC
  5
802
330
2
100
AcDbEntity
  8
0
100
AcDbCircle
 10
588.9176410081882
 20
95.09154835534918
 30
0.0
 40
2.0
100
AcDbArc
 50
291.0378109999998
 51
0.0
  0
LINE
  5
803
330
2
100
AcDbEntity
  8
0
100
AcDbLine
 10
580.4176410081882
 20
98.7179463553492
 30
0.0
 11
589.4488300081881
 21
98.7179463553492
 31
0.0
  0
ARC
  5
804
330
2
100
AcDbEntity
  8
0
100
AcDbCircle
 10
622.9176100081881
 20
146.2179463553491
 30
0.0
 40
57.5
100
AcDbArc
 50
236.0028229999999
 51
236.1844020000003
  0
ARC
  5
805
330
2
100
AcDbEntity
  8
0
100
AcDbCircle
 10
589.4690330081881
 20
93.7179463553492
 30
0.0
 40
5.0
100
AcDbArc
 50
73.92828399999989
 51
90.23046100000007
  0
LINE
  5
806
330
2
100
AcDbEntity
  8
0
100
AcDbLine
 10
587.1446310081881
 20
115.6240673553492
 30
0.0
 11
588.6906510081883
 21
115.2118083553492
 31
0.0
  0
ARC
  5
807
330
2
100
AcDbEntity
  8
0
100
AcDbCircle
 10
587.9176410081881
 20
118.5228093553491
 30
0.0
 40
3.0
100
AcDbArc
 50
180.0
 51
255.0689999999999
  0
ARC
  5
808
330
2
100
AcDbEntity
  8
0
100
AcDbCircle
 10
587.9176410081881
 20
112.3131083553491
 30
0.0
 40
3.0
100
AcDbArc
 50
0.0
 51
75.06877900000036
  0
ARC
  5
809
330
2
100
AcDbEntity
  8
0
100
AcDbCircle
 10
656.9176100081882
 20
101.2179463553491
 30
0.0
 40
4.0
100
AcDbArc
 50
270.0
 51
322.3110049999998
  0
LINE
  5
80A
330
2
100
AcDbEntity
  8
0
100
AcDbLine
 10
647.9176100081881
 20
71.7179473553492
 30
0.0
 11
646.9176100081881
 21
72.71794735534919
 31
0.0
  0
LINE
  5
80B
330
2
100
AcDbEntity
  8
HIDS
  6
SEKKEI_H
100
AcDbLine
 10
662.4176100081881
 20
83.7179463553492
 30
0.0
 11
662.4176100081881
 21
71.7179473553492
 31
0.0
  0
ARC
  5
80E
330
2
100
AcDbEntity
  8
0
100
AcDbCircle
 10
657.9176100081881
 20
86.7179463553492
 30
0.0
 40
3.0
100
AcDbArc
 50
180.0
 51
270.0
  0
LINE
  5
80F
330
2
100
AcDbEntity
  8
0
100
AcDbLine
 10
656.9176100081882
 20
97.21794635534919
 30
0.0
 11
654.9176100081881
 21
97.21794635534919
 31
0.0
  0
ARC
  5
810
330
2
100
AcDbEntity
  8
0
100
AcDbCircle
 10
656.9176100081882
 20
95.09156735534919
 30
0.0
 40
2.0
100
AcDbArc
 50
180.0
 51
248.9627989999998
  0
LINE
  5
811
330
2
100
AcDbEntity
  8
0
100
AcDbLine
 10
670.4176100081881
 20
103.7179463553492
 30
0.0
 11
670.4176100081881
 21
112.7692883553492
 31
0.0
  0
LINE
  5
812
330
2
100
AcDbEntity
  8
0
100
AcDbLine
 10
665.4176100081881
 20
98.7179463553492
 30
0.0
 11
656.3662190081881
 21
98.7179463553492
 31
0.0
  0
ARC
  5
813
330
2
100
AcDbEntity
  8
0
100
AcDbCircle
 10
622.9176100081881
 20
146.2179463553491
 30
0.0
 40
57.5
100
AcDbArc
 50
303.815582
 51
303.9971619999996
  0
ARC
  5
814
330
2
100
AcDbEntity
  8
0
100
AcDbCircle
 10
656.3662190081881
 20
93.7179463553492
 30
0.0
 40
5.0
100
AcDbArc
 50
90.0
 51
106.0718000000002
  0
ARC
  5
815
330
2
100
AcDbEntity
  8
0
100
AcDbCircle
 10
665.4176100081881
 20
103.7179463553492
 30
0.0
 40
5.0
100
AcDbArc
 50
270.0
 51
0.0
  0
ARC
  5
816
330
2
100
AcDbEntity
  8
0
100
AcDbCircle
 10
657.9176100081881
 20
118.5227863553491
 30
0.0
 40
3.0
100
AcDbArc
 50
284.9315800000002
 51
0.0
  0
ARC
  5
817
330
2
100
AcDbEntity
  8
0
100
AcDbCircle
 10
657.9176100081881
 20
112.3131273553491
 30
0.0
 40
3.0
100
AcDbArc
 50
104.9318009999999
 51
180.0
  0
LINE
  5
818
330
2
100
AcDbEntity
  8
0
100
AcDbLine
 10
658.6906210081882
 20
115.6240863553491
 30
0.0
 11
657.1446610081882
 21
115.2118083553492
 31
0.0
  0
ARC
  5
819
330
2
100
AcDbEntity
  8
0
100
AcDbCircle
 10
675.4176100081881
 20
112.7692883553492
 30
0.0
 40
5.0
100
AcDbArc
 50
147.4983060000003
 51
180.0
  0
LINE
  5
81A
330
2
100
AcDbEntity
  8
HIDS
  6
SEKKEI_H
100
AcDbLine
 10
673.4176100081882
 20
83.7179463553492
 30
0.0
 11
673.4176100081882
 21
71.7179473553492
 31
0.0
  0
ARC
  5
81B
330
2
100
AcDbEntity
  8
0
100
AcDbCircle
 10
678.9176100081881
 20
82.34434735534918
 30
0.0
 40
2.0
100
AcDbArc
 50
0.0
 51
68.9626460000002
  0
ARC
  5
81C
330
2
100
AcDbEntity
  8
0
100
AcDbCircle
 10
678.9176100081881
 20
81.7179473553492
 30
0.0
 40
2.0
100
AcDbArc
 50
0.0
 51
90.0
  0
LINE
  5
81D
330
2
100
AcDbEntity
  8
0
100
AcDbLine
 10
680.9176100081881
 20
82.34434735534918
 30
0.0
 11
680.9176100081881
 21
71.7179473553492
 31
0.0
  0
LINE
  5
81E
330
2
100
AcDbEntity
  8
0
100
AcDbLine
 10
670.9176100081881
 20
151.5250983553491
 30
0.0
 11
670.9176100081881
 21
201.9107873553491
 31
0.0
  0
LINE
  5
81F
330
2
100
AcDbEntity
  8
0
100
AcDbLine
 10
577.1474380081881
 20
148.6256383553491
 30
0.0
 11
582.6878440081882
 21
147.1539973553491
 31
0.0
  0
ARC
  5
820
330
2
100
AcDbEntity
  8
0
100
AcDbCircle
 10
581.9176410081881
 20
144.2545293553491
 30
0.0
 40
3.0
100
AcDbArc
 50
0.0
 51
75.12449599999964
  0
ARC
  5
821
330
2
100
AcDbEntity
  8
0
100
AcDbCircle
 10
663.9176100081881
 20
144.2545603553492
 30
0.0
 40
3.0
100
AcDbArc
 50
104.8760990000001
 51
180.0
  0
ARC
  5
822
330
2
100
AcDbEntity
  8
0
100
AcDbCircle
 10
667.9176100081881
 20
151.5250983553491
 30
0.0
 40
3.0
100
AcDbArc
 50
284.8757930000001
 51
0.0
  0
LINE
  5
823
330
2
100
AcDbEntity
  8
0
100
AcDbLine
 10
668.6878130081882
 20
148.6256463553492
 30
0.0
 11
663.1474080081881
 21
147.1539973553491
 31
0.0
  0
LINE
  5
824
330
2
100
AcDbEntity
  8
0
100
AcDbLine
 10
593.1476520081881
 20
198.7179463553492
 30
0.0
 11
652.8176350081881
 21
198.7179463553492
 31
0.0
  0
LINE
  5
825
330
2
100
AcDbEntity
  8
0
100
AcDbLine
 10
652.9524610081881
 20
221.1939293553491
 30
0.0
 11
622.9176100081881
 21
221.7179463553492
 31
0.0
  0
LINE
  5
826
330
2
100
AcDbEntity
  8
0
100
AcDbLine
 10
577.1474380081881
 20
204.8102473553492
 30
0.0
 11
588.6878440081882
 21
207.8756463553491
 31
0.0
  0
ARC
  5
827
330
2
100
AcDbEntity
  8
0
100
AcDbCircle
 10
587.9176410081881
 20
210.7750903553492
 30
0.0
 40
3.0
100
AcDbArc
 50
284.8758469999996
 51
0.0
  0
LINE
  5
828
330
2
100
AcDbEntity
  8
0
100
AcDbLine
 10
592.8826370081881
 20
221.1935933553492
 30
0.0
 11
622.9176100081881
 21
221.7179463553492
 31
0.0
  0
ARC
  5
829
330
2
100
AcDbEntity
  8
0
100
AcDbCircle
 10
592.9176410081882
 20
219.1938833553491
 30
0.0
 40
2.0
100
AcDbArc
 50
91.00058000000009
 51
180.0
  0
LINE
  5
82A
330
2
100
AcDbEntity
  8
0
100
AcDbLine
 10
668.6878130081882
 20
204.8102473553492
 30
0.0
 11
657.147408008188
 21
207.8756463553491
 31
0.0
  0
ARC
  5
82B
330
2
100
AcDbEntity
  8
0
100
AcDbCircle
 10
657.9176100081881
 20
210.7751213553492
 30
0.0
 40
3.0
100
AcDbArc
 50
180.0
 51
255.124603
  0
ARC
  5
82C
330
2
100
AcDbEntity
  8
0
100
AcDbCircle
 10
667.9176100081881
 20
201.9107873553491
 30
0.0
 40
3.0
100
AcDbArc
 50
0.0
 51
75.12441300000024
  0
ARC
  5
82D
330
2
100
AcDbEntity
  8
0
100
AcDbCircle
 10
652.9176100081881
 20
219.1942343553491
 30
0.0
 40
2.0
100
AcDbArc
 50
0.0
 51
89.00051899999992
  0
LINE
  5
82E
330
2
100
AcDbEntity
  8
0
100
AcDbLine
 10
378.0130916678033
 20
387.5216826955356
 30
0.0
 11
378.0130916678033
 21
447.5216826955357
 31
0.0
  0
LINE
  5
82F
330
2
100
AcDbEntity
  8
0
100
AcDbLine
 10
411.0130916678033
 20
417.5216826955356
 30
0.0
 11
410.4545286678033
 21
385.5216826955356
 31
0.0
  0
LINE
  5
830
330
2
100
AcDbEntity
  8
0
100
AcDbLine
 10
368.5960996678033
 20
327.5216676955356
 30
0.0
 11
368.5960996678033
 21
362.5216676955357
 31
0.0
  0
LINE
  5
831
330
2
100
AcDbEntity
  8
0
100
AcDbLine
 10
371.5130916678033
 20
362.5216676955357
 30
0.0
 11
371.5130916678033
 21
327.5216676955356
 31
0.0
  0
ARC
  5
832
330
2
100
AcDbEntity
  8
0
100
AcDbCircle
 10
405.5410456678033
 20
390.5216826955356
 30
0.0
 40
5.0
100
AcDbArc
 50
270.0
 51
358.9999999999998
  0
LINE
  5
833
330
2
100
AcDbEntity
  8
0
100
AcDbLine
 10
371.5130916678033
 20
359.5216676955357
 30
0.0
 11
400.9512016678034
 21
359.5216676955357
 31
0.0
  0
LINE
  5
834
330
2
100
AcDbEntity
  8
0
100
AcDbLine
 10
388.1693416678033
 20
379.5216826955357
 30
0.0
 11
391.4561766678033
 21
379.5216826955357
 31
0.0
  0
CIRCLE
  5
835
330
2
100
AcDbEntity
  8
0
100
AcDbCircle
 10
393.0130916678033
 20
372.5216676955357
 30
0.0
 40
5.5
  0
LINE
  5
837
330
2
100
AcDbEntity
  8
0
100
AcDbLine
 10
388.1693416678033
 20
379.5216826955357
 30
0.0
 11
386.1053766678033
 21
371.7514956955356
 31
0.0
  0
LINE
  5
838
330
2
100
AcDbEntity
  8
0
100
AcDbLine
 10
369.0130916678033
 20
367.5216676955357
 30
0.0
 11
369.0130916678033
 21
362.5216676955357
 31
0.0
  0
LINE
  5
839
330
2
100
AcDbEntity
  8
0
100
AcDbLine
 10
368.5960996678033
 20
362.5216676955357
 30
0.0
 11
371.5130916678033
 21
362.5216676955357
 31
0.0
  0
LINE
  5
83A
330
2
100
AcDbEntity
  8
0
100
AcDbLine
 10
370.5130916678033
 20
369.5216676955357
 30
0.0
 11
370.5130916678033
 21
367.5216676955357
 31
0.0
  0
ARC
  5
83B
330
2
100
AcDbEntity
  8
0
100
AcDbCircle
 10
383.2059316678033
 20
372.5216676955357
 30
0.0
 40
3.0
100
AcDbArc
 50
270.0
 51
345.1243289999998
  0
LINE
  5
83D
330
2
100
AcDbEntity
  8
0
100
AcDbLine
 10
405.8451536678033
 20
363.4974366955356
 30
0.0
 11
410.4545286678033
 21
385.5216826955356
 31
0.0
  0
ARC
  5
83E
330
2
100
AcDbEntity
  8
0
100
AcDbCircle
 10
400.9512016678034
 20
364.5216676955357
 30
0.0
 40
5.0
100
AcDbArc
 50
270.0
 51
348.1794040000001
  0
ARC
  5
83F
330
2
100
AcDbEntity
  8
0
100
AcDbCircle
 10
391.4561766678033
 20
382.5216826955356
 30
0.0
 40
3.0
100
AcDbArc
 50
270.0
 51
345.1243289999998
  0
ARC
  5
840
330
2
100
AcDbEntity
  8
0
100
AcDbCircle
 10
397.6642446678033
 20
382.5216826955356
 30
0.0
 40
3.0
100
AcDbArc
 50
90.0
 51
165.124313
  0
LINE
  5
841
330
2
100
AcDbEntity
  8
0
100
AcDbLine
 10
394.3556516678033
 20
381.7515106955356
 30
0.0
 11
394.7648006678033
 21
383.2918246955356
 31
0.0
  0
ARC
  5
843
330
2
100
AcDbEntity
  8
0
100
AcDbCircle
 10
400.9512016678034
 20
470.5216826955356
 30
0.0
 40
5.0
100
AcDbArc
 50
11.82059599999985
 51
90.0
  0
ARC
  5
844
330
2
100
AcDbEntity
  8
0
100
AcDbCircle
 10
405.5410456678033
 20
444.5216826955356
 30
0.0
 40
5.0
100
AcDbArc
 50
1.000000000000147
 51
90.0
  0
LINE
  5
845
330
2
100
AcDbEntity
  8
0
100
AcDbLine
 10
411.0130916678033
 20
417.5216826955356
 30
0.0
 11
410.4545286678033
 21
449.5216826955356
 31
0.0
  0
LINE
  5
846
330
2
100
AcDbEntity
  8
0
100
AcDbLine
 10
388.1693416678033
 20
455.5216826955357
 30
0.0
 11
391.4561766678033
 21
455.5216826955357
 31
0.0
  0
CIRCLE
  5
847
330
2
100
AcDbEntity
  8
0
100
AcDbCircle
 10
393.0130916678033
 20
462.5216826955356
 30
0.0
 40
5.5
  0
CIRCLE
  5
848
330
2
100
AcDbEntity
  8
0
100
AcDbCircle
 10
393.0130916678033
 20
462.5216826955356
 30
0.0
 40
5.5
  0
LINE
  5
849
330
2
100
AcDbEntity
  8
CENTER
100
AcDbLine
 10
383.7995596678033
 20
462.5216826955356
 30
0.0
 11
402.2266236678033
 21
462.5216826955356
 31
0.0
  0
LINE
  5
84A
330
2
100
AcDbEntity
  8
0
100
AcDbLine
 10
388.1693416678033
 20
455.5216826955357
 30
0.0
 11
386.1053766678033
 21
463.2918246955357
 31
0.0
  0
ARC
  5
84B
330
2
100
AcDbEntity
  8
0
100
AcDbCircle
 10
383.2059316678033
 20
462.5216826955356
 30
0.0
 40
3.0
100
AcDbArc
 50
14.87567100000014
 51
90.0
  0
LINE
  5
84C
330
2
100
AcDbEntity
  8
CENTER
100
AcDbLine
 10
393.0130916678033
 20
453.3081506955356
 30
0.0
 11
393.0130916678033
 21
471.7352146955356
 31
0.0
  0
LINE
  5
84D
330
2
100
AcDbEntity
  8
0
100
AcDbLine
 10
405.8451536678033
 20
471.5459136955356
 30
0.0
 11
410.4545286678033
 21
449.5216826955356
 31
0.0
  0
ARC
  5
84E
330
2
100
AcDbEntity
  8
0
100
AcDbCircle
 10
391.4561766678033
 20
452.5216826955356
 30
0.0
 40
3.0
100
AcDbArc
 50
14.87567100000014
 51
90.0
  0
ARC
  5
84F
330
2
100
AcDbEntity
  8
0
100
AcDbCircle
 10
397.6642446678033
 20
452.5216826955356
 30
0.0
 40
3.0
100
AcDbArc
 50
194.8756869999999
 51
270.0
  0
LINE
  5
850
330
2
100
AcDbEntity
  8
0
100
AcDbLine
 10
394.3556516678033
 20
453.2918246955357
 30
0.0
 11
394.7648006678033
 21
451.7515106955356
 31
0.0
  0
LINE
  5
901
330
2
100
AcDbEntity
  8
CENTER
100
AcDbLine
 10
313.7995596678033
 20
462.5216826955356
 30
0.0
 11
332.2266236678033
 21
462.5216826955356
 31
0.0
  0
LINE
  5
902
330
2
100
AcDbEntity
  8
CENTER
100
AcDbLine
 10
323.0130916678033
 20
453.3081506955356
 30
0.0
 11
323.0130916678033
 21
471.7352146955356
 31
0.0
  0
LINE
  5
903
330
2
100
AcDbEntity
  8
CENTER
100
AcDbLine
 10
313.7995596678033
 20
372.5216676955357
 30
0.0
 11
332.2266236678033
 21
372.5216676955357
 31
0.0
  0
LINE
  5
904
330
2
100
AcDbEntity
  8
CENTER
100
AcDbLine
 10
323.0130916678033
 20
363.3081356955357
 30
0.0
 11
323.0130916678033
 21
381.7351996955356
 31
0.0
  0
LINE
  5
905
330
2
100
AcDbEntity
  8
CENTER
100
AcDbLine
 10
383.7995596678033
 20
372.5216676955357
 30
0.0
 11
402.2266236678033
 21
372.5216676955357
 31
0.0
  0
LINE
  5
906
330
2
100
AcDbEntity
  8
CENTER
100
AcDbLine
 10
393.0130916678033
 20
363.3081356955357
 30
0.0
 11
393.0130916678033
 21
381.7351996955356
 31
0.0
  0
TEXT
  5
921
330
2
100
AcDbEntity
  8
TITLE
100
AcDbText
 10
439.4949964657524
 20
370.9282260667693
 30
0.0
 40
7.5
  1
HLMN-22R-300~450-T60WT
 41
0.8
100
AcDbText
  0
TEXT
  5
922
330
2
100
AcDbEntity
  8
TITLE
100
AcDbText
 10
439.4949964657524
 20
382.9282260667692
 30
0.0
 40
7.5
  1
HLMN-22R-300~450-T60T
 41
0.8
100
AcDbText
  0
TEXT
  5
923
330
2
100
AcDbEntity
  8
TITLE
100
AcDbText
 10
439.4949964657524
 20
394.9282260667692
 30
0.0
 40
7.5
  1
HLMN-22R-300~450-T40WT
 41
0.8
100
AcDbText
  0
TEXT
  5
924
330
2
100
AcDbEntity
  8
TITLE
100
AcDbText
 10
439.4949964657524
 20
406.9282260667693
 30
0.0
 40
7.5
  1
HLMN-22R-300~450-T40T
 41
0.8
100
AcDbText
  0
TEXT
  5
925
330
2
100
AcDbEntity
  8
TITLE
100
AcDbText
 10
439.4949964657524
 20
418.9282260667693
 30
0.0
 40
7.5
  1
HLMN-22R-300~900-T25WT
 41
0.8
100
AcDbText
  0
TEXT
  5
926
330
2
100
AcDbEntity
  8
TITLE
100
AcDbText
 10
439.4949964657524
 20
430.9282260667693
 30
0.0
 40
7.5
  1
HLMN-22R-300~900-T25T
 41
0.8
100
AcDbText
  0
TEXT
  5
927
330
2
100
AcDbEntity
  8
TITLE
100
AcDbText
 10
439.4949964657524
 20
454.9282260667693
 30
0.0
 40
7.5
  1
HLMN-22R-300~1800-T15T
 41
0.8
100
AcDbText
  0
TEXT
  5
928
330
2
100
AcDbEntity
  8
TITLE
100
AcDbText
 10
439.4949964657524
 20
442.9282260667693
 30
0.0
 40
7.5
  1
HLMN-22R-300~1800-T15WT
 41
0.8
100
AcDbText
  0
TEXT
  5
929
330
2
100
AcDbEntity
  8
TITLE
100
AcDbText
 10
585.5866928216134
 20
394.9282260667692
 30
0.0
 40
7.5
  1
HLMN-22R-300~450-S40WT
 41
0.8
100
AcDbText
  0
TEXT
  5
92A
330
2
100
AcDbEntity
  8
TITLE
100
AcDbText
 10
585.5866928216134
 20
370.9282260667693
 30
0.0
 40
7.5
  1
HLMN-22R-300~450-S60WT
 41
0.8
100
AcDbText
  0
TEXT
  5
92B
330
2
100
AcDbEntity
  8
TITLE
100
AcDbText
 10
585.5866928216134
 20
382.9282260667692
 30
0.0
 40
7.5
  1
HLMN-22R-300~450-S60T
 41
0.8
100
AcDbText
  0
TEXT
  5
92C
330
2
100
AcDbEntity
  8
TITLE
100
AcDbText
 10
585.5866928216134
 20
406.9282260667693
 30
0.0
 40
7.5
  1
HLMN-22R-300~450-S40T
 41
0.8
100
AcDbText
  0
TEXT
  5
92D
330
2
100
AcDbEntity
  8
TITLE
100
AcDbText
 10
585.5866928216134
 20
418.9282260667693
 30
0.0
 40
7.5
  1
HLMN-22R-300~900-S25WT
 41
0.8
100
AcDbText
  0
TEXT
  5
92E
330
2
100
AcDbEntity
  8
TITLE
100
AcDbText
 10
585.5866928216134
 20
430.9282260667693
 30
0.0
 40
7.5
  1
HLMN-22R-300~900-S25T
 41
0.8
100
AcDbText
  0
TEXT
  5
92F
330
2
100
AcDbEntity
  8
TITLE
100
AcDbText
 10
585.5866928216134
 20
442.9282260667693
 30
0.0
 40
7.5
  1
HLMN-22R-300~1800-S15WT
 41
0.8
100
AcDbText
  0
TEXT
  5
930
330
2
100
AcDbEntity
  8
TITLE
100
AcDbText
 10
585.5866928216134
 20
454.9282260667693
 30
0.0
 40
7.5
  1
HLMN-22R-300~1800-S15T
 41
0.8
100
AcDbText
  0
LINE
  5
128E
330
2
100
AcDbEntity
  8
CENTER
100
AcDbLine
 10
225.4342197010976
 20
146.2179463553491
 30
0.0
 11
306.2283511954376
 21
146.2179463553491
 31
0.0
  0
LINE
  5
1E3E
330
2
100
AcDbEntity
  8
CENTER
100
AcDbLine
 10
143.2630876678033
 20
452.9109086396434
 30
0.0
 11
143.2630876678033
 21
381.7716826955356
 31
0.0
  0
LINE
  5
1E40
330
2
100
AcDbEntity
  8
CENTER
100
AcDbLine
 10
105.3193316678033
 20
196.2179213553491
 30
0.0
 11
177.2153906315414
 21
196.2179213553491
 31
0.0
  0
LINE
  5
1E5B
330
2
100
AcDbEntity
  8
CENTER
100
AcDbLine
 10
143.2630876678033
 20
165.0242223553491
 30
0.0
 11
143.2630876678033
 21
216.1054213553491
 31
0.0
  0
LINE
  5
1E5C
330
2
100
AcDbEntity
  8
0
100
AcDbLine
 10
125.7630810963743
 20
204.7179213553491
 30
0.0
 11
168.2630946678034
 21
204.7179213553491
 31
0.0
  0
LINE
  5
1E5D
330
2
100
AcDbEntity
  8
0
100
AcDbLine
 10
116.2630806678033
 20
186.7179233553491
 30
0.0
 11
168.2630876678033
 21
186.7179233553491
 31
0.0
  0
LINE
  5
1E5E
330
2
100
AcDbEntity
  8
0
100
AcDbLine
 10
123.1009964838289
 20
205.7179213553491
 30
0.0
 11
167.2630876678033
 21
205.7179213553491
 31
0.0
  0
LINE
  5
1E60
330
2
100
AcDbEntity
  8
0
100
AcDbLine
 10
118.2630806678033
 20
176.7179233553491
 30
0.0
 11
168.2630876678033
 21
176.7179233553491
 31
0.0
  0
LINE
  5
1E61
330
2
100
AcDbEntity
  8
0
100
AcDbLine
 10
119.7630806678033
 20
174.7179233553491
 30
0.0
 11
166.2630876678033
 21
174.7179233553491
 31
0.0
  0
LINE
  5
1E62
330
2
100
AcDbEntity
  8
0
100
AcDbLine
 10
118.2630806678033
 20
204.7179213553491
 30
0.0
 11
118.2630806678033
 21
176.7179233553491
 31
0.0
  0
LINE
  5
1E63
330
2
100
AcDbEntity
  8
0
100
AcDbLine
 10
119.7630806678033
 20
174.7179233553491
 30
0.0
 11
119.7630806678033
 21
173.2179233553491
 31
0.0
  0
LINE
  5
1E64
330
2
100
AcDbEntity
  8
0
100
AcDbLine
 10
118.2630806678033
 20
176.7179233553491
 30
0.0
 11
120.2630806678033
 21
174.7179233553491
 31
0.0
  0
LINE
  5
1E65
330
2
100
AcDbEntity
  8
0
100
AcDbLine
 10
112.7630956678033
 20
200.2179213553491
 30
0.0
 11
112.7630956678033
 21
192.2179213553491
 31
0.0
  0
LINE
  5
1E66
330
2
100
AcDbEntity
  8
0
100
AcDbLine
 10
116.2630956678033
 20
202.7179213553491
 30
0.0
 11
116.2630806678033
 21
186.7179233553491
 31
0.0
  0
LINE
  5
1E67
330
2
100
AcDbEntity
  8
0
100
AcDbLine
 10
112.7630806678033
 20
192.2179213553491
 30
0.0
 11
116.2630806678033
 21
190.7179213553491
 31
0.0
  0
LINE
  5
1E68
330
2
100
AcDbEntity
  8
0
100
AcDbLine
 10
122.0505876682584
 20
204.300921355349
 30
0.0
 11
121.4755876673484
 21
204.300921355349
 31
0.0
  0
ARC
  5
1E69
330
2
100
AcDbEntity
  8
0
100
AcDbCircle
 10
121.7630876678034
 20
196.817921355349
 30
0.0
 40
9.0
100
AcDbArc
 50
74.11914999172243
 51
105.8808500082775
  0
LINE
  5
1E6A
330
2
100
AcDbEntity
  8
0
100
AcDbLine
 10
125.7630810963743
 20
203.217921355349
 30
0.0
 11
118.2630810963743
 21
203.2179213553491
 31
0.0
  0
LINE
  5
1E6B
330
2
100
AcDbEntity
  8
0
100
AcDbLine
 10
118.2630806678033
 20
204.7179213553491
 30
0.0
 11
119.2630806678033
 21
205.7179213553491
 31
0.0
  0
LINE
  5
1E6C
330
2
100
AcDbEntity
  8
0
100
AcDbLine
 10
119.2630810963743
 20
205.717921355349
 30
0.0
 11
118.2630806678033
 21
204.7179213553491
 31
0.0
  0
ARC
  5
1E6D
330
2
100
AcDbEntity
  8
0
100
AcDbCircle
 10
119.6560769142104
 20
204.2240340795954
 30
0.0
 40
1.3
100
AcDbArc
 50
105.8808500082775
 51
174.9999999999999
  0
SPLINE
  5
1E6E
330
2
100
AcDbEntity
  8
0
100
AcDbSpline
210
0.0
220
0.0
230
1.0
 70
     8
 71
     3
 72
    11
 73
     7
 74
     0
 42
0.0000000001
 43
0.0000000001
 40
0.0
 40
0.0
 40
0.0
 40
0.0
 40
0.4601364636755307
 40
1.04988694485363
 40
1.713742833862792
 40
2.320347933405154
 40
2.320347933405154
 40
2.320347933405154
 40
2.320347933405179
 10
121.4755876673484
 20
204.300921355349
 30
0.0
 10
121.4531700102405
 20
204.4559447950289
 30
0.0
 10
121.4020199550073
 20
204.8096596129465
 30
0.0
 10
120.9661347934736
 20
205.2343872845481
 30
0.0
 10
120.3610840784663
 20
205.453574464514
 30
0.0
 10
119.9358994542903
 20
205.3845831649033
 30
0.0
 10
119.7333478446394
 20
205.3703628927266
 30
0.0
  0
LINE
  5
1E6F
330
2
100
AcDbEntity
  8
0
100
AcDbLine
 10
118.2630876678034
 20
203.2179213553491
 30
0.0
 11
118.3610238066912
 21
204.3373365451673
 31
0.0
  0
LINE
  5
1E70
330
2
100
AcDbEntity
  8
0
100
AcDbLine
 10
119.2630806678033
 20
205.7179213553491
 30
0.0
 11
120.425178851778
 21
205.7179213553491
 31
0.0
  0
LINE
  5
1E71
330
2
100
AcDbEntity
  8
0
100
AcDbLine
 10
119.7333478446394
 20
205.3703628927266
 30
0.0
 11
119.7130876678033
 21
205.5813396381882
 31
0.0
  0
ARC
  5
1E72
330
2
100
AcDbEntity
  8
0
100
AcDbCircle
 10
117.2630956678033
 20
202.7179213553491
 30
0.0
 40
1.0
100
AcDbArc
 50
90.0
 51
180.0
  0
LINE
  5
1E73
330
2
100
AcDbEntity
  8
0
100
AcDbLine
 10
117.2630806678033
 20
203.7179213553491
 30
0.0
 11
118.2630806678033
 21
203.7179213553491
 31
0.0
  0
LINE
  5
1E74
330
2
100
AcDbEntity
  8
0
100
AcDbLine
 10
112.7630956678033
 20
200.2179213553491
 30
0.0
 11
116.2630956678033
 21
201.7179213553491
 31
0.0
  0
LINE
  5
1E75
330
2
100
AcDbEntity
  8
0
100
AcDbLine
 10
126.2630810963743
 20
205.717921355349
 30
0.0
 11
125.7630810963743
 21
205.217921355349
 31
0.0
  0
LINE
  5
1E76
330
2
100
AcDbEntity
  8
0
100
AcDbLine
 10
125.7630810963743
 20
203.217921355349
 30
0.0
 11
125.7630810963743
 21
205.2179213553491
 31
0.0
  0
LINE
  5
1E77
330
2
100
AcDbEntity
  8
0
100
AcDbLine
 10
125.2630876678033
 20
203.2179213553491
 30
0.0
 11
125.1651515289155
 21
204.3373365451673
 31
0.0
  0
SPLINE
  5
1E78
330
2
100
AcDbEntity
  8
0
100
AcDbSpline
210
0.0
220
0.0
230
1.0
 70
     8
 71
     3
 72
    11
 73
     7
 74
     0
 42
0.0000000001
 43
0.0000000001
 40
0.0
 40
0.0
 40
0.0
 40
0.0
 40
0.4601364636755307
 40
1.04988694485363
 40
1.713742833862792
 40
2.320347933405154
 40
2.320347933405154
 40
2.320347933405154
 40
2.320347933405179
 10
122.0505876682584
 20
204.300921355349
 30
0.0
 10
122.0730053253663
 20
204.4559447950289
 30
0.0
 10
122.1241553805996
 20
204.8096596129465
 30
0.0
 10
122.5600405421332
 20
205.2343872845481
 30
0.0
 10
123.1650912571406
 20
205.453574464514
 30
0.0
 10
123.5902758813165
 20
205.3845831649033
 30
0.0
 10
123.7928274909675
 20
205.3703628927266
 30
0.0
  0
LINE
  5
1E79
330
2
100
AcDbEntity
  8
0
100
AcDbLine
 10
123.7928274909675
 20
205.3703628927266
 30
0.0
 11
123.8130876678035
 21
205.5813396381882
 31
0.0
  0
ARC
  5
1E7A
330
2
100
AcDbEntity
  8
0
100
AcDbCircle
 10
123.8700984213962
 20
204.2240340795954
 30
0.0
 40
1.3
100
AcDbArc
 50
5.000000000000026
 51
74.11914999172243
  0
LINE
  5
1E7B
330
2
100
AcDbEntity
  8
0
100
AcDbLine
 10
125.7630810963743
 20
205.217921355349
 30
0.0
 11
124.7080650574236
 21
205.217921355349
 31
0.0
  0
LINE
  5
1E7D
330
2
100
AcDbEntity
  8
0
100
AcDbLine
 10
168.2630876678033
 20
204.7179213553491
 30
0.0
 11
168.2630876678033
 21
176.7179233553491
 31
0.0
  0
LINE
  5
1E7E
330
2
100
AcDbEntity
  8
0
100
AcDbLine
 10
165.7630876678033
 20
174.7179233553491
 30
0.0
 11
165.7630876678033
 21
173.2179233553491
 31
0.0
  0
LINE
  5
1E7F
330
2
100
AcDbEntity
  8
0
100
AcDbLine
 10
166.2630876678033
 20
174.7179233553491
 30
0.0
 11
168.2630876678033
 21
176.7179233553491
 31
0.0
  0
LINE
  5
1E80
330
2
100
AcDbEntity
  8
0
100
AcDbLine
 10
167.2630946678034
 20
205.7179213553491
 30
0.0
 11
168.2630946678034
 21
204.7179213553491
 31
0.0
  0
ARC
  5
1E82
330
2
100
AcDbEntity
  8
0
100
AcDbCircle
 10
166.7928796678035
 20
436.9919826955356
 30
0.0
 40
1.742199999999999
100
AcDbArc
 50
89.99869033450025
 51
180.0013096654997
  0
ARC
  5
1E83
330
2
100
AcDbEntity
  8
0
100
AcDbCircle
 10
162.7334796678034
 20
436.9919826955356
 30
0.0
 40
1.742199999999999
100
AcDbArc
 50
359.9986903345002
 51
90.00130966549322
  0
ARC
  5
1E84
330
2
100
AcDbEntity
  8
0
100
AcDbCircle
 10
164.7631796678033
 20
439.0216826955356
 30
0.0
 40
4.0
100
AcDbArc
 50
180.0
 51
270.0
  0
LINE
  5
1E85
330
2
100
AcDbEntity
  8
0
100
AcDbLine
 10
168.2629806678033
 20
440.5216826955355
 30
0.0
 11
168.2629806678032
 21
394.5216826955356
 31
0.0
  0
LINE
  5
1E86
330
2
100
AcDbEntity
  8
0
100
AcDbLine
 10
119.6630746678033
 20
440.1216736955356
 30
0.0
 11
119.6630816678033
 21
400.0216826955356
 31
0.0
  0
LINE
  5
1E87
330
2
100
AcDbEntity
  8
0
100
AcDbLine
 10
118.2630806678033
 20
440.5216826955355
 30
0.0
 11
118.2630806678033
 21
394.5216826955356
 31
0.0
  0
CIRCLE
  5
1E88
330
2
100
AcDbEntity
  8
0
100
AcDbCircle
 10
164.7631796678033
 20
439.0216826955356
 30
0.0
 40
3.500000000000028
  0
LINE
  5
1E89
330
2
100
AcDbEntity
  8
0
100
AcDbLine
 10
165.8631856678033
 20
393.9216766955356
 30
0.0
 11
125.7630806678033
 21
393.9216766955356
 31
0.0
  0
LINE
  5
1E8A
330
2
100
AcDbEntity
  8
0
100
AcDbLine
 10
120.2630806678033
 20
392.5216826955356
 30
0.0
 11
166.2629806678032
 21
392.5216826955356
 31
0.0
  0
LINE
  5
1E8B
330
2
100
AcDbEntity
  8
0
100
AcDbLine
 10
116.2630806678033
 20
412.0216826955355
 30
0.0
 11
112.7630806678033
 21
415.5216826955355
 31
0.0
  0
LINE
  5
1E8C
330
2
100
AcDbEntity
  8
0
100
AcDbLine
 10
116.2630806678033
 20
411.0216826955356
 30
0.0
 11
116.2630806678033
 21
424.0216826955355
 31
0.0
  0
ARC
  5
1E8D
330
2
100
AcDbEntity
  8
0
100
AcDbCircle
 10
121.7631106678032
 20
396.0216826955356
 30
0.0
 40
4.0
100
AcDbArc
 50
0.0
 51
90.0
  0
ARC
  5
1E8E
330
2
100
AcDbEntity
  8
0
100
AcDbCircle
 10
123.7928106678034
 20
393.9919826955356
 30
0.0
 40
1.742199999999999
100
AcDbArc
 50
89.99869033450025
 51
180.0013096654997
  0
ARC
  5
1E8F
330
2
100
AcDbEntity
  8
0
100
AcDbCircle
 10
119.7334106678033
 20
393.9919826955356
 30
0.0
 40
1.742199999999999
100
AcDbArc
 50
359.9986903345002
 51
90.00130966549322
  0
ARC
  5
1E90
330
2
100
AcDbEntity
  8
0
100
AcDbCircle
 10
121.7631106678032
 20
396.0216826955356
 30
0.0
 40
2.049999999999998
100
AcDbArc
 50
261.9380399160181
 51
270.0
  0
ARC
  5
1E91
330
2
100
AcDbEntity
  8
0
100
AcDbCircle
 10
121.7631106678032
 20
396.0216826955356
 30
0.0
 40
2.049999999999998
100
AcDbArc
 50
90.0
 51
98.06196008398188
  0
ARC
  5
1E92
330
2
100
AcDbEntity
  8
0
100
AcDbCircle
 10
123.7928106678034
 20
398.0513826955355
 30
0.0
 40
1.742199999999999
100
AcDbArc
 50
179.9986903345002
 51
270.0013096654932
  0
LINE
  5
1E93
330
2
100
AcDbEntity
  8
0
100
AcDbLine
 10
121.7631106678034
 20
400.0216826955356
 30
0.0
 11
118.2631106678033
 21
400.0216826955356
 31
0.0
  0
ARC
  5
1E94
330
2
100
AcDbEntity
  8
0
100
AcDbCircle
 10
119.7334106678033
 20
398.0513826955355
 30
0.0
 40
1.742199999999999
100
AcDbArc
 50
269.9986903345002
 51
0.0013096654997424
  0
CIRCLE
  5
1E95
330
2
100
AcDbEntity
  8
0
100
AcDbCircle
 10
121.7631106678032
 20
396.0216826955356
 30
0.0
 40
3.500000000000028
  0
ARC
  5
1E96
330
2
100
AcDbEntity
  8
0
100
AcDbCircle
 10
121.7631106678032
 20
396.0216826955356
 30
0.0
 40
2.049999999999998
100
AcDbArc
 50
171.9380399160183
 51
180.0
  0
ARC
  5
1E97
330
2
100
AcDbEntity
  8
0
100
AcDbCircle
 10
121.7631106678032
 20
396.0216826955356
 30
0.0
 40
2.049999999999998
100
AcDbArc
 50
180.0
 51
188.0619600839816
  0
LINE
  5
1E98
330
2
100
AcDbEntity
  8
0
100
AcDbLine
 10
118.2630806678033
 20
394.5216826955356
 30
0.0
 11
120.2630806678033
 21
392.5216826955356
 31
0.0
  0
LINE
  5
1E99
330
2
100
AcDbEntity
  8
0
100
AcDbLine
 10
118.2630806678033
 20
394.5216826955356
 30
0.0
 11
120.2630806678033
 21
392.5216826955356
 31
0.0
  0
LINE
  5
1E9A
330
2
100
AcDbEntity
  8
0
100
AcDbLine
 10
125.7630806678033
 20
396.0216826955356
 30
0.0
 11
125.7630806678033
 21
392.5218816955356
 31
0.0
  0
ARC
  5
1E9B
330
2
100
AcDbEntity
  8
0
100
AcDbCircle
 10
121.7631106678032
 20
396.0216826955356
 30
0.0
 40
2.049999999999998
100
AcDbArc
 50
270.0
 51
278.0619600839818
  0
ARC
  5
1E9C
330
2
100
AcDbEntity
  8
0
100
AcDbCircle
 10
121.7631106678032
 20
396.0216826955356
 30
0.0
 40
2.049999999999998
100
AcDbArc
 50
0.0
 51
8.061960083981649
  0
ARC
  5
1E9D
330
2
100
AcDbEntity
  8
0
100
AcDbCircle
 10
121.7631106678032
 20
396.0216826955356
 30
0.0
 40
2.049999999999998
100
AcDbArc
 50
81.93803991601813
 51
90.0
  0
ARC
  5
1E9E
330
2
100
AcDbEntity
  8
0
100
AcDbCircle
 10
121.7631106678032
 20
396.0216826955356
 30
0.0
 40
2.049999999999998
100
AcDbArc
 50
351.9380399160183
 51
0.0
  0
LINE
  5
1E9F
330
2
100
AcDbEntity
  8
0
100
AcDbLine
 10
117.2630806678033
 20
410.0216826955356
 30
0.0
 11
118.2630806678033
 21
410.0216826955356
 31
0.0
  0
ARC
  5
1EA0
330
2
100
AcDbEntity
  8
0
100
AcDbCircle
 10
117.2630806678032
 20
411.0216826955356
 30
0.0
 40
1.0
100
AcDbArc
 50
180.0
 51
270.0
  0
ARC
  5
1EA1
330
2
100
AcDbEntity
  8
0
100
AcDbCircle
 10
117.2630956678033
 20
424.0216826955355
 30
0.0
 40
1.0
100
AcDbArc
 50
90.0
 51
180.0
  0
LINE
  5
1EA2
330
2
100
AcDbEntity
  8
0
100
AcDbLine
 10
112.7630806678033
 20
419.5216826955356
 30
0.0
 11
116.2630806678033
 21
423.0216826955356
 31
0.0
  0
LINE
  5
1EA3
330
2
100
AcDbEntity
  8
0
100
AcDbLine
 10
112.7630806678033
 20
419.5216826955356
 30
0.0
 11
112.7630806678033
 21
415.5216826955355
 31
0.0
  0
LINE
  5
1EA4
330
2
100
AcDbEntity
  8
0
100
AcDbLine
 10
117.2630806678033
 20
425.0216826955356
 30
0.0
 11
118.2630806678033
 21
425.0216826955356
 31
0.0
  0
LINE
  5
1EA5
330
2
100
AcDbEntity
  8
0
100
AcDbLine
 10
166.8631856678033
 20
394.9216766955356
 30
0.0
 11
166.8631856678033
 21
435.0216826955355
 31
0.0
  0
LINE
  5
1EA6
330
2
100
AcDbEntity
  8
0
100
AcDbLine
 10
168.2629806678032
 20
394.5216826955356
 30
0.0
 11
166.2629806678032
 21
392.5216826955356
 31
0.0
  0
LINE
  5
1EA7
330
2
100
AcDbEntity
  8
0
100
AcDbLine
 10
168.2629806678032
 20
394.5216826955356
 30
0.0
 11
166.2629806678032
 21
392.5216826955356
 31
0.0
  0
LINE
  5
1EA8
330
2
100
AcDbEntity
  8
0
100
AcDbLine
 10
168.2631796678033
 20
394.5216826955356
 30
0.0
 11
166.2629806678032
 21
392.5216826955356
 31
0.0
  0
LINE
  5
1EA9
330
2
100
AcDbEntity
  8
0
100
AcDbLine
 10
165.8631856678033
 20
393.9216766955356
 30
0.0
 11
166.8631856678033
 21
394.9216766955356
 31
0.0
  0
LINE
  5
1EAA
330
2
100
AcDbEntity
  8
0
100
AcDbLine
 10
164.7629806678033
 20
435.0216826955355
 30
0.0
 11
168.2629806678033
 21
435.0216826955355
 31
0.0
  0
ARC
  5
1EAB
330
2
100
AcDbEntity
  8
0
100
AcDbCircle
 10
164.7631796678033
 20
439.0216826955356
 30
0.0
 40
2.049999999999998
100
AcDbArc
 50
261.9380399160181
 51
270.0
  0
ARC
  5
1EAC
330
2
100
AcDbEntity
  8
0
100
AcDbCircle
 10
164.7631796678033
 20
439.0216826955356
 30
0.0
 40
2.049999999999998
100
AcDbArc
 50
270.0
 51
278.0619600839818
  0
LINE
  5
1EAD
330
2
100
AcDbEntity
  8
0
100
AcDbLine
 10
120.2630806678033
 20
442.5216826955356
 30
0.0
 11
166.2629806678033
 21
442.5216826955355
 31
0.0
  0
LINE
  5
1EAE
330
2
100
AcDbEntity
  8
0
100
AcDbLine
 10
120.6630816678033
 20
441.1216736955355
 30
0.0
 11
160.7629806678033
 21
441.1216736955355
 31
0.0
  0
LINE
  5
1EAF
330
2
100
AcDbEntity
  8
0
100
AcDbLine
 10
119.6630746678033
 20
440.1216736955356
 30
0.0
 11
120.6630816678033
 21
441.1216736955355
 31
0.0
  0
LINE
  5
1EB0
330
2
100
AcDbEntity
  8
0
100
AcDbLine
 10
118.2630806678033
 20
440.5216826955355
 30
0.0
 11
120.2630806678033
 21
442.5216826955356
 31
0.0
  0
LINE
  5
1EB1
330
2
100
AcDbEntity
  8
0
100
AcDbLine
 10
168.2629806678033
 20
440.5216826955355
 30
0.0
 11
166.2629806678033
 21
442.5216826955355
 31
0.0
  0
LINE
  5
1EB2
330
2
100
AcDbEntity
  8
0
100
AcDbLine
 10
166.2629806678033
 20
442.5216826955355
 30
0.0
 11
168.2629806678033
 21
440.5216826955355
 31
0.0
  0
ARC
  5
1EB3
330
2
100
AcDbEntity
  8
0
100
AcDbCircle
 10
164.7631796678033
 20
439.0216826955356
 30
0.0
 40
2.049999999999998
100
AcDbArc
 50
180.0
 51
188.0619600839816
  0
ARC
  5
1EB4
330
2
100
AcDbEntity
  8
0
100
AcDbCircle
 10
162.7334796678034
 20
441.0513826955355
 30
0.0
 40
1.742199999999999
100
AcDbArc
 50
269.9986903345002
 51
0.0013096654997424
  0
ARC
  5
1EB5
330
2
100
AcDbEntity
  8
0
100
AcDbCircle
 10
164.7631796678033
 20
439.0216826955356
 30
0.0
 40
2.049999999999998
100
AcDbArc
 50
90.0
 51
98.06196008398188
  0
ARC
  5
1EB6
330
2
100
AcDbEntity
  8
0
100
AcDbCircle
 10
164.7631796678033
 20
439.0216826955356
 30
0.0
 40
2.049999999999998
100
AcDbArc
 50
81.93803991601813
 51
90.0
  0
ARC
  5
1EB7
330
2
100
AcDbEntity
  8
0
100
AcDbCircle
 10
164.7631796678033
 20
439.0216826955356
 30
0.0
 40
2.049999999999998
100
AcDbArc
 50
0.0
 51
8.061960083981649
  0
ARC
  5
1EB8
330
2
100
AcDbEntity
  8
0
100
AcDbCircle
 10
164.7631796678033
 20
439.0216826955356
 30
0.0
 40
2.049999999999998
100
AcDbArc
 50
351.9380399160183
 51
0.0
  0
ARC
  5
1EB9
330
2
100
AcDbEntity
  8
0
100
AcDbCircle
 10
166.7928796678035
 20
441.0513826955355
 30
0.0
 40
1.742199999999999
100
AcDbArc
 50
179.9986903345002
 51
270.0013096654932
  0
ARC
  5
1EBA
330
2
100
AcDbEntity
  8
0
100
AcDbCircle
 10
164.7631796678033
 20
439.0216826955356
 30
0.0
 40
2.049999999999998
100
AcDbArc
 50
171.9380399160183
 51
180.0
  0
LINE
  5
1EBB
330
2
100
AcDbEntity
  8
0
100
AcDbLine
 10
160.7629806678033
 20
439.0216826955355
 30
0.0
 11
160.7629806678033
 21
442.5216826955355
 31
0.0
  0
LINE
  5
1F5B
330
2
100
AcDbEntity
  8
0
100
AcDbLine
 10
117.7632096678033
 20
425.0216826955355
 30
0.0
 11
117.7632096678033
 21
457.5216526955356
 31
0.0
  0
VIEWPORT
  5
13A9
330
13A8
100
AcDbEntity
 67
     1
  8
0
100
AcDbViewport
 10
144.6494032678484
 20
98.18346866433632
 30
0.0
 40
337.078217044107
 41
215.1146463957828
 68
     1
 69
     1
1001
ACAD
1000
MVIEW
1002
{
1070
    16
1010
0.0
1020
0.0
1030
0.0
1010
0.0
1020
0.0
1030
1.0
1040
0.0
1040
215.1146463957828
1040
144.6494032678484
1040
98.18346866433632
1040
50.0
1040
0.0
1040
0.0
1070
     0
1070
   100
1070
     1
1070
     1
1070
     0
1070
     0
1070
     0
1070
     0
1040
0.0
1040
0.0
1040
0.0
1040
10.0
1040
10.0
1040
10.0
1040
10.0
1070
     0
1002
{
1002
}
1002
}
  0
TEXT
  5
13AA
330
13A8
100
AcDbEntity
 67
     1
  8
TEXT
100
AcDbText
 10
266.4665517915716
 20
9.492177985111482
 30
0.0
 40
2.0
  1
2006.03.09
 41
0.7
100
AcDbText
  0
TEXT
  5
13AB
330
13A8
100
AcDbEntity
 67
     1
  8
TEXT
100
AcDbText
 10
221.2876186247744
 20
25.81289445791026
 30
0.0
 40
2.0
  1
HLMN22R-S40WT
100
AcDbText
  0
INSERT
  5
13AC
330
13A8
100
AcDbEntity
 67
     1
  8
0
100
AcDbBlockReference
 66
     1
  2
外寸枠A4テンプレート
 10
0.0
 20
0.0
 30
0.0
  0
ATTRIB
  5
13AD
330
13AC
100
AcDbEntity
 67
     1
  8
TEXT
100
AcDbText
 10
213.959457142857
 20
34.33735183158626
 30
0.0
 40
2.500000000000001
  1
HLMN-22R-300~450-S40WT
 72
     4
 11
241.8165999999999
 21
35.58735183158626
 31
0.0
100
AcDbAttribute
  2
T　I　T　L　E
 70
     0
  0
ATTRIB
  5
13AE
330
13AC
100
AcDbEntity
 67
     1
  8
TEXT
100
AcDbText
 10
231.4275923057046
 20
7.13444951887557
 30
0.0
 40
2.0
  1
1：3
 72
     4
 11
234.056163734276
 21
8.13444951887557
 31
0.0
100
AcDbAttribute
  2
FREE
 70
     0
  0
ATTRIB
  5
13AF
330
13AC
100
AcDbEntity
 67
     1
  8
TEXT
100
AcDbText
 10
205.1985180173093
 20
6.884449518875568
 30
0.0
 40
2.500000000000004
  1
海野
 72
     4
 11
207.865184683976
 21
8.13444951887557
 31
0.0
100
AcDbAttribute
  2
海野
 70
     0
  0
ATTRIB
  5
13B0
330
13AC
100
AcDbEntity
 67
     1
  8
TEXT
100
AcDbText
 10
222.7519560922427
 20
6.884449518875568
 30
0.0
 40
2.500000000000004
  1
吉田
 72
     4
 11
225.3352894255761
 21
8.13444951887557
 31
0.0
100
AcDbAttribute
  2
鳥居
 70
     0
  0
ATTRIB
  5
13B1
330
13AC
100
AcDbEntity
 67
     1
  8
TEXT
100
AcDbText
 10
213.9476826899094
 20
6.884449518875567
 30
0.0
 40
2.500000000000004
  1
永坂
 72
     4
 11
216.6143493565761
 21
8.13444951887557
 31
0.0
100
AcDbAttribute
  2
永坂
 70
     0
  0
SEQEND
  5
13B2
330
13AC
100
AcDbEntity
 67
     1
  8
0
  0
INSERT
  5
13B3
330
13A8
100
AcDbEntity
 67
     1
  8
TEXT
100
AcDbBlockReference
  2
1
 10
202.0
 20
40.0
 30
0.0
  0
VIEWPORT
  5
13B4
330
13A8
100
AcDbEntity
 67
     1
  8
DEFPOINTS
100
AcDbViewport
 10
141.5
 20
119.5552484986439
 30
0.0
 40
277.0
 41
99.455603370277
 68
    -1
 69
     2
1001
ACAD
1000
MVIEW
1002
{
1070
    16
1010
0.0
1020
0.0
1030
0.0
1010
0.0
1020
0.0
1030
1.0
1040
0.0
1040
298.3668105349602
1040
375.1169123013017
1040
154.545072352648
1040
50.0
1040
0.0
1040
0.0
1070
     0
1070
   100
1070
     1
1070
     3
1070
     0
1070
     0
1070
     0
1070
     0
1040
0.0
1040
0.0
1040
0.0
1040
10.0
1040
10.0
1040
10.0
1040
10.0
1070
     0
1002
{
1003
TITLE
1002
}
1002
}
  0
INSERT
  5
1522
330
13A8
100
AcDbEntity
 67
     1
  8
TEXT
100
AcDbBlockReference
  2
GSPEC_H-22R-300-450
 10
3.0
 20
3.999999999999998
 30
0.0
  0
INSERT
  5
1780
330
13A8
100
AcDbEntity
 67
     1
  8
TEXT
100
AcDbBlockReference
  2
MSPEC_S40WF-75
 10
3.0
 20
4.0
 30
0.0
  0
INSERT
  5
189A
330
13A8
100
AcDbEntity
 67
     1
  8
TEXT
100
AcDbBlockReference
  2
BSPEC_90-90-0038
 10
3.0
 20
4.0
 30
0.0
  0
ENDSEC
  0
SECTION
  2
OBJECTS
  0
DICTIONARY
  5
7
330
0
100
AcDbDictionary
  3
ACAD_GROUP
350
75
  3
ACAD_LAYOUT
350
61
  3
ACAD_MLINESTYLE
350
76
  3
ACAD_PLOTSETTINGS
350
77
  3
ACAD_PLOTSTYLENAME
350
6
  3
ACADDIM
350
480
  3
ACDBHEADERROUNDTRIPXREC
350
1FD8
  3
ACDBVARIABLEDICTIONARY
350
102
  3
DWGPROPS
350
3D2
  0
DICTIONARY
  5
1FF9
330
2
100
AcDbDictionary
280
     1
  3
ACAD_LAYOUTSELFREF
360
1FFA
  0
DICTIONARY
  5
1FFC
330
13A8
100
AcDbDictionary
280
     1
  3
ACAD_LAYOUTSELFREF
360
1FFD
  0
DICTIONARY
  5
75
102
{ACAD_REACTORS
330
7
102
}
330
7
100
AcDbDictionary
  0
DICTIONARY
  5
61
102
{ACAD_REACTORS
330
7
102
}
330
7
100
AcDbDictionary
  0
DICTIONARY
  5
76
102
{ACAD_REACTORS
330
7
102
}
330
7
100
AcDbDictionary
  3
STANDARD
350
78
  0
DICTIONARY
  5
77
102
{ACAD_REACTORS
330
7
102
}
330
7
100
AcDbDictionary
  0
ACDBDICTIONARYWDFLT
  5
6
102
{ACAD_REACTORS
330
7
102
}
330
7
100
AcDbDictionary
281
     1
  3
Normal
350
5
100
AcDbDictionaryWithDefault
340
5
  0
XRECORD
  5
480
102
{ACAD_REACTORS
330
7
102
}
330
7
100
AcDbXrecord
 90
   990106
  3

 60
     0
 61
     0
 62
     1
 63
     3
 64
     1
 65
     0
 66
     0
 67
     3
 68
     1
 69
     0
 70
     0
 71
     0
 72
     0
 40
0.0
170
     2
340
0
  0
DICTIONARY
  5
1FD8
102
{ACAD_REACTORS
330
7
102
}
330
7
100
AcDbDictionary
  3
CEPSNTYPE
350
1FE2
  3
DIMSTYLEDATA
350
1FE6
  3
FINGERPRINTGUID
350
1FE3
  3
HYPERLINKBASE
350
1FDB
  3
INSUNITS
350
1FE1
  3
LAYOUTDICT
350
1FDD
  3
LWETCUNION
350
1FE0
  3
PLOTSETDICT
350
1FDE
  3
PLOTSTYLNAMDICT
350
1FDF
  3
PSVPSCALE
350
1FE5
  3
PUCSBASE
350
1FE9
  3
PUCSORGBACK
350
1FEF
  3
PUCSORGBOTTOM
350
1FEB
  3
PUCSORGFRONT
350
1FEE
  3
PUCSORGLEFT
350
1FEC
  3
PUCSORGRIGHT
350
1FED
  3
PUCSORGTOP
350
1FEA
  3
PUCSORTHOREF
350
1FE7
  3
PUCSORTHOVIEW
350
1FE8
  3
STYLESHEET
350
1FDC
  3
TSTACKALIGN
350
1FD9
  3
TSTACKSIZE
350
1FDA
  3
UCSBASE
350
1FF2
  3
UCSORGBACK
350
1FF8
  3
UCSORGBOTTOM
350
1FF4
  3
UCSORGFRONT
350
1FF7
  3
UCSORGLEFT
350
1FF5
  3
UCSORGRIGHT
350
1FF6
  3
UCSORGTOP
350
1FF3
  3
UCSORTHOREF
350
1FF0
  3
UCSORTHOVIEW
350
1FF1
  3
VERSIONGUID
350
1FE4
  0
DICTIONARY
  5
102
102
{ACAD_REACTORS
330
7
102
}
330
7
100
AcDbDictionary
  3
DIMASSOC
350
103
  0
XRECORD
  5
3D2
102
{ACAD_REACTORS
330
7
102
}
330
7
100
AcDbXrecord
  1
DWGPROPS COOKIE
  2

  3

  4

  6

  7

  8

  9

300
=
301
=
302
=
303
=
304
=
305
=
306
=
307
=
308
=
309
=
 40
0.5353330671296296
 41
2452052.431989363
 42
2453406.550756377
  1

 90
        0
  0
XRECORD
  5
1FFA
102
{ACAD_REACTORS
330
1FF9
102
}
330
1FF9
100
AcDbXrecord
340
2
  0
XRECORD
  5
1FFD
102
{ACAD_REACTORS
330
1FFC
102
}
330
1FFC
100
AcDbXrecord
340
13A8
  0
MLINESTYLE
  5
78
102
{ACAD_REACTORS
330
76
102
}
330
76
100
AcDbMlineStyle
  2
STANDARD
 70
     0
  3

 62
     0
 51
90.0
 52
90.0
 71
     2
 49
0.5
 62
   256
  6
BYLAYER
 49
-0.5
 62
   256
  6
BYLAYER
  0
ACDBPLACEHOLDER
  5
5
102
{ACAD_REACTORS
330
6
102
}
330
6
100
AcDbPlaceHolder
280
     0
  0
XRECORD
  5
1FE2
102
{ACAD_REACTORS
330
1FD8
102
}
330
1FD8
100
AcDbXrecord
 90
        0
  0
XRECORD
  5
1FE6
102
{ACAD_REACTORS
330
1FD8
102
}
330
1FD8
100
AcDbXrecord
1000
DSTYLE
1002
{
1070
   179
 70
     2
1070
   277
 70
     6
1002
}
  0
XRECORD
  5
1FE3
102
{ACAD_REACTORS
330
1FD8
102
}
330
1FD8
100
AcDbXrecord
  1
{6385560B-F4B1-4644-A7C2-A3E32AC3D232}
  0
XRECORD
  5
1FDB
102
{ACAD_REACTORS
330
1FD8
102
}
330
1FD8
100
AcDbXrecord
  1

  0
XRECORD
  5
1FE1
102
{ACAD_REACTORS
330
1FD8
102
}
330
1FD8
100
AcDbXrecord
 90
        0
  0
XRECORD
  5
1FDD
102
{ACAD_REACTORS
330
1FD8
102
}
330
1FD8
100
AcDbXrecord
340
61
  0
XRECORD
  5
1FE0
102
{ACAD_REACTORS
330
1FD8
102
}
330
1FD8
100
AcDbXrecord
 90
    10781
  0
XRECORD
  5
1FDE
102
{ACAD_REACTORS
330
1FD8
102
}
330
1FD8
100
AcDbXrecord
340
77
  0
XRECORD
  5
1FDF
102
{ACAD_REACTORS
330
1FD8
102
}
330
1FD8
100
AcDbXrecord
340
6
  0
XRECORD
  5
1FE5
102
{ACAD_REACTORS
330
1FD8
102
}
330
1FD8
100
AcDbXrecord
 40
0.0
  0
XRECORD
  5
1FE9
102
{ACAD_REACTORS
330
1FD8
102
}
330
1FD8
100
AcDbXrecord
340
0
  0
XRECORD
  5
1FEF
102
{ACAD_REACTORS
330
1FD8
102
}
330
1FD8
100
AcDbXrecord
 10
0.0
 20
0.0
 30
0.0
  0
XRECORD
  5
1FEB
102
{ACAD_REACTORS
330
1FD8
102
}
330
1FD8
100
AcDbXrecord
 10
0.0
 20
0.0
 30
0.0
  0
XRECORD
  5
1FEE
102
{ACAD_REACTORS
330
1FD8
102
}
330
1FD8
100
AcDbXrecord
 10
0.0
 20
0.0
 30
0.0
  0
XRECORD
  5
1FEC
102
{ACAD_REACTORS
330
1FD8
102
}
330
1FD8
100
AcDbXrecord
 10
0.0
 20
0.0
 30
0.0
  0
XRECORD
  5
1FED
102
{ACAD_REACTORS
330
1FD8
102
}
330
1FD8
100
AcDbXrecord
 10
0.0
 20
0.0
 30
0.0
  0
XRECORD
  5
1FEA
102
{ACAD_REACTORS
330
1FD8
102
}
330
1FD8
100
AcDbXrecord
 10
0.0
 20
0.0
 30
0.0
  0
XRECORD
  5
1FE7
102
{ACAD_REACTORS
330
1FD8
102
}
330
1FD8
100
AcDbXrecord
340
0
  0
XRECORD
  5
1FE8
102
{ACAD_REACTORS
330
1FD8
102
}
330
1FD8
100
AcDbXrecord
 70
     0
  0
XRECORD
  5
1FDC
102
{ACAD_REACTORS
330
1FD8
102
}
330
1FD8
100
AcDbXrecord
  1
Sekkei.ctb
  0
XRECORD
  5
1FD9
102
{ACAD_REACTORS
330
1FD8
102
}
330
1FD8
100
AcDbXrecord
 90
        1
  0
XRECORD
  5
1FDA
102
{ACAD_REACTORS
330
1FD8
102
}
330
1FD8
100
AcDbXrecord
 90
       70
  0
XRECORD
  5
1FF2
102
{ACAD_REACTORS
330
1FD8
102
}
330
1FD8
100
AcDbXrecord
340
0
  0
XRECORD
  5
1FF8
102
{ACAD_REACTORS
330
1FD8
102
}
330
1FD8
100
AcDbXrecord
 10
0.0
 20
0.0
 30
0.0
  0
XRECORD
  5
1FF4
102
{ACAD_REACTORS
330
1FD8
102
}
330
1FD8
100
AcDbXrecord
 10
0.0
 20
0.0
 30
0.0
  0
XRECORD
  5
1FF7
102
{ACAD_REACTORS
330
1FD8
102
}
330
1FD8
100
AcDbXrecord
 10
0.0
 20
0.0
 30
0.0
  0
XRECORD
  5
1FF5
102
{ACAD_REACTORS
330
1FD8
102
}
330
1FD8
100
AcDbXrecord
 10
0.0
 20
0.0
 30
0.0
  0
XRECORD
  5
1FF6
102
{ACAD_REACTORS
330
1FD8
102
}
330
1FD8
100
AcDbXrecord
 10
0.0
 20
0.0
 30
0.0
  0
XRECORD
  5
1FF3
102
{ACAD_REACTORS
330
1FD8
102
}
330
1FD8
100
AcDbXrecord
 10
0.0
 20
0.0
 30
0.0
  0
XRECORD
  5
1FF0
102
{ACAD_REACTORS
330
1FD8
102
}
330
1FD8
100
AcDbXrecord
340
0
  0
XRECORD
  5
1FF1
102
{ACAD_REACTORS
330
1FD8
102
}
330
1FD8
100
AcDbXrecord
 70
     0
  0
XRECORD
  5
1FE4
102
{ACAD_REACTORS
330
1FD8
102
}
330
1FD8
100
AcDbXrecord
  1
{04FC798D-63AA-47DC-B52A-538F1E35A630}
  0
DICTIONARYVAR
  5
103
102
{ACAD_REACTORS
330
102
102
}
330
102
100
DictionaryVariables
280
     0
  1
1
  0
ENDSEC
  0
EOF
