  0
SECTION
  2
HEADER
  9
$CLAYER
  8
1
  9
$LTSCALE
 40
3.0
  0
ENDSEC
  0
SECTION
  2
TABLES
  0
TABLE
  2
LTYPE
 70
     4
  0
LTYPE
  2
CONTINUOUS
  3
solid line
 70
    64
 72
    65
 73
     0
 40
0.0
  0
LTYPE
  2
DASHED
  3
__ __ __ __ __ __ __ __ __ __ __ __ __ __ __
 70
    64
 72
    65
 73
     2
 40
0.75
 49
0.5
 49
-0.25
  0
LTYPE
  2
CENTER
  3
____ _ ____ _ ____ _ ____ _ ____ _ ____ _ ____
 70
    64
 72
    65
 73
     4
 40
2.0
 49
1.25
 49
-0.25
 49
0.25
 49
-0.25
  0
LTYPE
  2
PHANTOM
  3
_____ _ _ _____ _ _ _____ _ _ _____ _ _ ____
 70
    64
 72
    65
 73
     6
 40
2.5
 49
1.25
 49
-0.25
 49
0.25
 49
-0.25
 49
0.25
 49
-0.25
  0
ENDTAB
  0
TABLE
  2
LAYER
 70
     1
  0
LAYER
  2
0
 70
    64
 62
     7
  6
CONTINUOUS
  0
ENDTAB
  0
TABLE
  2
STYLE
 70
     1
  0
STYLE
  2
STANDARD
 70
     0
 40
0.000000
 41
1.000000
 50
0.000000
 71
     0
 42
3.000000
  3
txt
  4
BIGFONT
  0
ENDTAB
  0
ENDSEC
  0
SECTION
  2
BLOCKS
  0
ENDSEC
  0
SECTION
  2
ENTITIES
  0
LINE
  8
0
  6
CENTER
 10
137.367493
 20
78.834686
 11
257.179535
 21
78.834686
  0
LINE
  8
0
  6
CENTER
 10
289.179535
 20
161.584686
 11
289.179535
 21
-1.915313
  0
LINE
  8
0
  6
CENTER
 10
242.609131
 20
109.334686
 11
333.917511
 21
109.334686
  0
LINE
  8
0
  6
CONTINUOUS
 10
236.179535
 20
4.334687
 11
342.179535
 21
4.334687
  0
LINE
  8
0
  6
CONTINUOUS
 10
270.750122
 20
154.334686
 11
307.608917
 21
154.334686
  0
LINE
  8
0
  6
CONTINUOUS
 10
342.179535
 20
128.724930
 11
342.179535
 21
4.334708
  0
LINE
  8
0
  6
CONTINUOUS
 10
236.179535
 20
29.334686
 11
236.179535
 21
4.334687
  0
LINE
  8
0
  6
CONTINUOUS
 10
224.429535
 20
136.084686
 11
242.052536
 21
136.084686
  0
LINE
  8
0
  6
CONTINUOUS
 10
224.429535
 20
21.584686
 11
231.179550
 21
21.584686
  0
LINE
  8
0
  6
CONTINUOUS
 10
232.429535
 20
33.334686
 11
232.429535
 21
124.334686
  0
LINE
  8
0
  6
CONTINUOUS
 10
340.038544
 20
132.826920
 11
310.467926
 21
153.436661
  0
LINE
  8
0
  6
CONTINUOUS
 10
238.320526
 20
132.826920
 11
267.891144
 21
153.436661
  0
LINE
  8
0
  6
CONTINUOUS
 10
270.117920
 20
16.334686
 11
236.179535
 21
16.334686
  0
LINE
  8
0
  6
CONTINUOUS
 10
275.741119
 20
26.334686
 11
302.617920
 21
26.334686
  0
LINE
  8
0
  6
CONTINUOUS
 10
304.179535
 20
24.897186
 11
304.179535
 21
17.334686
  0
LINE
  8
0
  6
CONTINUOUS
 10
274.179535
 20
24.709686
 11
274.179535
 21
17.334686
  0
LINE
  8
0
  6
CONTINUOUS
 10
272.058319
 20
17.849607
 11
273.800720
 21
24.819769
  0
LINE
  8
0
  6
CONTINUOUS
 10
306.300720
 20
17.849607
 11
304.558319
 21
24.819748
  0
LINE
  8
0
  6
CONTINUOUS
 10
242.179535
 20
15.272187
 11
242.179535
 21
4.334687
  0
LINE
  8
0
  6
CONTINUOUS
 10
336.179535
 20
15.272187
 11
336.179535
 21
4.334687
  0
LINE
  8
0
  6
CENTER
 10
254.179535
 20
20.084686
 11
254.179535
 21
0.084687
  0
LINE
  8
0
  6
CENTER
 10
324.179535
 20
21.084686
 11
324.179535
 21
0.584687
  0
LINE
  8
0
  6
DASHED
 10
248.679535
 20
16.334686
 11
248.679535
 21
4.334687
  0
LINE
  8
0
  6
DASHED
 10
259.679535
 20
16.334686
 11
259.679535
 21
4.334687
  0
LINE
  8
0
  6
DASHED
 10
318.679535
 20
16.334686
 11
318.679535
 21
4.334687
  0
LINE
  8
0
  6
DASHED
 10
329.679535
 20
16.334686
 11
329.679535
 21
4.334687
  0
ARC
  8
0
  6
CONTINUOUS
 10
307.608917
 20
149.334686
 40
5.000000
 50
55.124809
 51
90.000000
  0
ARC
  8
0
  6
CONTINUOUS
 10
270.750122
 20
149.334686
 40
5.000000
 50
90.000000
 51
124.875603
  0
ARC
  8
0
  6
CONTINUOUS
 10
337.179535
 20
128.724930
 40
5.000000
 50
0.000000
 51
55.124851
  0
ARC
  8
0
  6
CONTINUOUS
 10
241.179535
 20
128.724945
 40
5.000000
 50
124.875702
 51
180.000000
  0
LINE
  8
0
  6
CONTINUOUS
 10
224.429535
 20
126.334686
 11
234.179535
 21
126.334686
  0
LINE
  8
0
  6
CONTINUOUS
 10
230.429535
 20
31.334686
 11
224.429535
 21
31.334686
  0
LINE
  8
0
  6
CONTINUOUS
 10
224.429535
 20
110.794685
 11
231.304535
 21
110.794685
  0
LINE
  8
0
  6
CONTINUOUS
 10
224.429535
 20
46.874687
 11
231.429535
 21
46.874687
  0
ARC
  8
0
  6
CONTINUOUS
 10
242.052338
 20
139.084686
 40
3.000000
 50
270.000000
 51
304.875397
  0
ARC
  8
0
  6
CONTINUOUS
 10
230.429550
 20
124.334686
 40
2.000000
 50
0.000000
 51
90.000000
  0
ARC
  8
0
  6
CONTINUOUS
 10
234.179535
 20
128.334686
 40
2.000000
 50
-90.000000
 51
0.000000
  0
LINE
  8
0
  6
CONTINUOUS
 10
236.179550
 20
128.724945
 11
236.179535
 21
128.334686
  0
ARC
  8
0
  6
CONTINUOUS
 10
234.179535
 20
29.334686
 40
2.000000
 50
0.000000
 51
90.000000
  0
LINE
  8
0
  6
CONTINUOUS
 10
230.429535
 20
31.334686
 11
234.179535
 21
31.334686
  0
ARC
  8
0
  6
CONTINUOUS
 10
230.429535
 20
33.334686
 40
2.000000
 50
-90.000000
 51
0.000000
  0
ARC
  8
0
  6
CONTINUOUS
 10
231.179550
 20
16.584667
 40
5.000000
 50
0.000000
 51
90.000000
  0
ARC
  8
0
  6
CONTINUOUS
 10
302.617920
 20
24.334686
 40
2.000000
 50
14.036440
 51
90.000000
  0
ARC
  8
0
  6
CONTINUOUS
 10
275.741119
 20
24.334686
 40
2.000000
 50
90.000000
 51
165.963898
  0
LINE
  8
0
  6
CONTINUOUS
 10
308.241119
 20
16.334686
 11
342.179535
 21
16.334686
  0
ARC
  8
0
  6
CONTINUOUS
 10
270.117920
 20
18.334686
 40
2.000000
 50
270.000000
 51
345.963715
  0
LINE
  8
0
  6
CONTINUOUS
 10
308.241119
 20
16.334686
 11
270.117920
 21
16.334686
  0
ARC
  8
0
  6
CONTINUOUS
 10
308.241119
 20
18.334686
 40
2.000000
 50
194.036194
 51
270.000000
  0
ARC
  8
0
  6
CONTINUOUS
 10
273.179535
 20
17.334686
 40
1.000000
 50
-90.000000
 51
0.000000
  0
ARC
  8
0
  6
CONTINUOUS
 10
305.179535
 20
17.334686
 40
1.000000
 50
180.000000
 51
270.000000
  0
CIRCLE
  8
0
  6
CONTINUOUS
 10
289.179535
 20
109.334686
 40
27.500000
  0
ARC
  8
0
  6
CONTINUOUS
 10
289.179535
 20
109.334686
 40
31.750000
 50
7.552697
 51
172.447403
  0
ARC
  8
0
  6
CONTINUOUS
 10
272.429535
 20
67.834686
 40
20.600000
 50
172.447403
 51
270.000000
  0
ARC
  8
0
  6
CONTINUOUS
 10
305.929535
 20
67.834686
 40
20.600000
 50
-90.000000
 51
7.552700
  0
LINE
  8
0
  6
CONTINUOUS
 10
320.654144
 20
113.507851
 11
326.350739
 21
70.542313
  0
LINE
  8
0
  6
CONTINUOUS
 10
252.008331
 20
70.542274
 11
257.704926
 21
113.507790
  0
LINE
  8
0
  6
CONTINUOUS
 10
272.429535
 20
47.234688
 11
305.929535
 21
47.234688
  0
ARC
  8
0
  6
CONTINUOUS
 10
272.429535
 20
67.834686
 40
19.000000
 50
172.447601
 51
270.000000
  0
ARC
  8
0
  6
CONTINUOUS
 10
305.929535
 20
67.834686
 40
19.000000
 50
-90.000000
 51
7.552700
  0
ARC
  8
0
  6
CONTINUOUS
 10
289.179535
 20
109.334686
 40
30.150000
 50
-187.552597
 51
7.552697
  0
LINE
  8
0
  6
CONTINUOUS
 10
253.594330
 20
70.331978
 11
259.291138
 21
113.297508
  0
LINE
  8
0
  6
CONTINUOUS
 10
319.067932
 20
113.297546
 11
324.764740
 21
70.332016
  0
LINE
  8
0
  6
CONTINUOUS
 10
272.429535
 20
48.834686
 11
305.929535
 21
48.834686
  0
LINE
  8
0
  6
CONTINUOUS
 10
278.883118
 20
56.334686
 11
274.722717
 21
56.334686
  0
LINE
  8
0
  6
CONTINUOUS
 10
281.179535
 20
63.303436
 11
281.179535
 21
56.334686
  0
LINE
  8
0
  6
CONTINUOUS
 10
285.179535
 20
65.834686
 11
285.179535
 21
68.334686
  0
LINE
  8
0
  6
CONTINUOUS
 10
293.179535
 20
65.834686
 11
293.179535
 21
68.334686
  0
LINE
  8
0
  6
CONTINUOUS
 10
288.398346
 20
66.865936
 11
288.398346
 21
57.647186
  0
LINE
  8
0
  6
CONTINUOUS
 10
289.898346
 20
66.865936
 11
289.898346
 21
57.647186
  0
LINE
  8
0
  6
CONTINUOUS
 10
297.773346
 20
66.865936
 11
297.773346
 21
57.584686
  0
LINE
  8
0
  6
CONTINUOUS
 10
299.148346
 20
61.944061
 11
299.148346
 21
57.584686
  0
LINE
  8
0
  6
CONTINUOUS
 10
279.281525
 20
66.740936
 11
275.426544
 21
66.740936
  0
LINE
  8
0
  6
CONTINUOUS
 10
275.426544
 20
66.740936
 11
274.523346
 21
65.620934
  0
LINE
  8
0
  6
CONTINUOUS
 10
274.631927
 20
68.334686
 11
273.179535
 21
66.474930
  0
LINE
  8
0
  6
CONTINUOUS
 10
274.523346
 20
58.707607
 11
275.440918
 21
57.740929
  0
LINE
  8
0
  6
CONTINUOUS
 10
273.179535
 20
57.891850
 11
274.722717
 21
56.334686
  0
LINE
  8
0
  6
CONTINUOUS
 10
273.179535
 20
66.474930
 11
273.179535
 21
57.891850
  0
LINE
  8
0
  6
CONTINUOUS
 10
274.523346
 20
65.620934
 11
274.523346
 21
58.707607
  0
LINE
  8
0
  6
CONTINUOUS
 10
280.023346
 20
66.023834
 11
279.266327
 21
66.740936
  0
LINE
  8
0
  6
CONTINUOUS
 10
280.011322
 20
68.334686
 11
281.179535
 21
67.038200
  0
LINE
  8
0
  6
CONTINUOUS
 10
280.023346
 20
65.834686
 11
281.179535
 21
65.834686
  0
LINE
  8
0
  6
CONTINUOUS
 10
274.631927
 20
68.334686
 11
280.011322
 21
68.334686
  0
LINE
  8
0
  6
CONTINUOUS
 10
277.929535
 20
63.303436
 11
281.179535
 21
63.303436
  0
LINE
  8
0
  6
CONTINUOUS
 10
280.023346
 20
61.990936
 11
277.929535
 21
61.990936
  0
LINE
  8
0
  6
CONTINUOUS
 10
277.523346
 20
57.740929
 11
275.440918
 21
57.740929
  0
LINE
  8
0
  6
CONTINUOUS
 10
280.023346
 20
60.740936
 11
280.023346
 21
61.740936
  0
ARC
  8
0
  6
CONTINUOUS
 10
277.523346
 20
60.240932
 40
2.500000
 50
-89.999786
 51
0.000109
  0
LINE
  8
0
  6
CONTINUOUS
 10
280.023346
 20
57.291248
 11
280.023346
 21
56.334686
  0
LINE
  8
0
  6
CONTINUOUS
 10
281.179535
 20
67.038200
 11
281.179535
 21
65.834686
  0
LINE
  8
0
  6
CONTINUOUS
 10
280.023346
 20
61.990936
 11
280.023346
 21
60.240932
  0
LINE
  8
0
  6
CONTINUOUS
 10
277.929535
 20
63.303436
 11
277.929535
 21
61.990936
  0
LINE
  8
0
  6
CONTINUOUS
 10
280.023346
 20
56.334686
 11
281.179535
 21
56.334686
  0
LINE
  8
0
  6
CONTINUOUS
 10
280.023346
 20
57.291248
 11
278.883118
 21
56.334686
  0
LINE
  8
0
  6
CONTINUOUS
 10
289.898346
 20
57.647186
 11
290.398346
 21
57.647186
  0
LINE
  8
0
  6
CONTINUOUS
 10
287.804535
 20
57.647186
 11
287.804535
 21
56.334686
  0
LINE
  8
0
  6
CONTINUOUS
 10
290.398346
 20
57.647186
 11
290.398346
 21
56.334686
  0
LINE
  8
0
  6
CONTINUOUS
 10
292.345123
 20
65.834686
 11
293.179535
 21
65.834686
  0
LINE
  8
0
  6
CONTINUOUS
 10
285.179535
 20
65.834686
 11
286.067535
 21
65.834686
  0
LINE
  8
0
  6
CONTINUOUS
 10
285.179535
 20
68.334686
 11
293.179535
 21
68.334686
  0
LINE
  8
0
  6
CONTINUOUS
 10
287.804535
 20
56.334686
 11
290.398346
 21
56.334686
  0
LINE
  8
0
  6
CONTINUOUS
 10
287.804535
 20
57.647186
 11
288.398346
 21
57.647186
  0
ARC
  8
0
  6
CONTINUOUS
 10
301.976532
 20
65.131561
 40
3.203126
 50
-73.981873
 51
90.003510
  0
ARC
  8
0
  6
CONTINUOUS
 10
301.976532
 20
65.131561
 40
1.954125
 50
-82.585274
 51
62.411850
  0
LINE
  8
0
  6
CONTINUOUS
 10
297.179535
 20
68.334686
 11
301.976532
 21
68.334686
  0
LINE
  8
0
  6
CONTINUOUS
 10
302.228546
 20
63.193779
 11
299.148346
 21
63.193779
  0
LINE
  8
0
  6
CONTINUOUS
 10
297.179535
 20
68.334686
 11
297.179535
 21
66.865936
  0
LINE
  8
0
  6
CONTINUOUS
 10
299.148346
 20
66.865936
 11
299.148346
 21
63.193779
  0
LINE
  8
0
  6
CONTINUOUS
 10
302.860321
 20
62.052799
 11
304.842743
 21
57.584686
  0
LINE
  8
0
  6
CONTINUOUS
 10
301.708740
 20
61.944061
 11
303.584930
 21
57.584686
  0
LINE
  8
0
  6
CONTINUOUS
 10
297.179535
 20
57.584686
 11
297.773346
 21
57.584686
  0
LINE
  8
0
  6
CONTINUOUS
 10
299.148346
 20
57.584686
 11
299.695129
 21
57.584686
  0
LINE
  8
0
  6
CONTINUOUS
 10
299.695129
 20
56.334686
 11
297.179535
 21
56.334686
  0
LINE
  8
0
  6
CONTINUOUS
 10
303.335724
 20
57.584686
 11
303.584930
 21
57.584686
  0
LINE
  8
0
  6
CONTINUOUS
 10
304.842743
 20
57.584686
 11
305.179535
 21
57.584686
  0
LINE
  8
0
  6
CONTINUOUS
 10
303.335724
 20
56.334686
 11
305.179535
 21
56.334686
  0
LINE
  8
0
  6
CONTINUOUS
 10
305.179535
 20
57.584686
 11
305.179535
 21
56.334686
  0
LINE
  8
0
  6
CONTINUOUS
 10
303.335724
 20
57.584686
 11
303.335724
 21
56.334686
  0
LINE
  8
0
  6
CONTINUOUS
 10
299.695129
 20
57.584686
 11
299.695129
 21
56.334686
  0
LINE
  8
0
  6
CONTINUOUS
 10
297.179535
 20
57.584686
 11
297.179535
 21
56.334686
  0
LINE
  8
0
  6
CONTINUOUS
 10
286.497345
 20
66.865936
 11
286.067535
 21
65.834686
  0
LINE
  8
0
  6
CONTINUOUS
 10
291.982727
 20
66.865936
 11
292.345123
 21
65.834686
  0
LINE
  8
0
  6
CONTINUOUS
 10
289.898346
 20
66.865936
 11
291.982727
 21
66.865936
  0
LINE
  8
0
  6
CONTINUOUS
 10
288.398346
 20
66.865936
 11
286.497345
 21
66.865936
  0
LINE
  8
0
  6
CONTINUOUS
 10
299.148346
 20
61.944061
 11
301.708740
 21
61.944061
  0
LINE
  8
0
  6
CONTINUOUS
 10
297.179535
 20
66.865936
 11
297.773346
 21
66.865936
  0
LINE
  8
0
  6
CONTINUOUS
 10
299.148346
 20
66.865936
 11
302.881317
 21
66.863510
  0
LINE
  8
0
  6
CONTINUOUS
 10
280.023346
 20
66.023834
 11
280.023346
 21
65.834686
  0
LINE
  8
0
  6
CONTINUOUS
 10
224.429550
 20
136.334686
 11
224.429535
 21
21.334686
  0
LINE
  8
0
  6
CONTINUOUS
 10
58.429531
 20
105.834663
 11
172.429535
 21
105.834663
  0
LINE
  8
0
  6
CONTINUOUS
 10
58.429531
 20
29.834707
 11
172.429535
 21
29.834707
  0
LINE
  8
0
  6
CONTINUOUS
 10
58.429531
 20
98.083672
 11
164.429535
 21
98.083672
  0
LINE
  8
0
  6
CONTINUOUS
 10
58.429531
 20
37.585709
 11
164.429535
 21
37.585709
  0
LINE
  8
0
  6
CONTINUOUS
 10
164.429535
 20
103.834663
 11
164.429535
 21
31.834686
  0
ARC
  8
0
  6
CONTINUOUS
 10
166.429535
 20
103.834686
 40
2.000000
 50
90.000000
 51
180.000000
  0
ARC
  8
0
  6
CONTINUOUS
 10
166.429535
 20
31.834707
 40
2.000000
 50
180.000000
 51
270.000000
  0
LINE
  8
0
  6
CENTER
 10
533.929504
 20
-11.290333
 11
533.929504
 21
168.259689
  0
LINE
  8
0
  6
CENTER
 10
463.704529
 20
78.834686
 11
602.829529
 21
78.834686
  0
LINE
  8
0
  6
CENTER
 10
432.179535
 20
109.334686
 11
595.802490
 21
109.334686
  0
LINE
  8
0
  6
CONTINUOUS
 10
475.929535
 20
4.334687
 11
508.929535
 21
4.334687
  0
LINE
  8
0
  6
CONTINUOUS
 10
475.929535
 20
14.961087
 11
475.929535
 21
4.334687
  0
LINE
  8
0
  6
CONTINUOUS
 10
591.929504
 20
14.961087
 11
591.929504
 21
4.334687
  0
LINE
  8
0
  6
CONTINUOUS
 10
477.929535
 20
16.334686
 11
498.929535
 21
16.334686
  0
LINE
  8
0
  6
CONTINUOUS
 10
589.929504
 20
16.334686
 11
568.929504
 21
16.334686
  0
LINE
  8
0
  6
CONTINUOUS
 10
501.929535
 20
27.708288
 11
501.929535
 21
151.810608
  0
LINE
  8
0
  6
CONTINUOUS
 10
565.929504
 20
27.708288
 11
565.929504
 21
151.810974
  0
LINE
  8
0
  6
CONTINUOUS
 10
563.964355
 20
153.810669
 11
533.929504
 21
154.334686
  0
LINE
  8
0
  6
CONTINUOUS
 10
503.894531
 20
153.810333
 11
533.929504
 21
154.334686
  0
ARC
  8
0
  6
CONTINUOUS
 10
503.929535
 20
151.810623
 40
2.000000
 50
91.000580
 51
180.000000
  0
ARC
  8
0
  6
CONTINUOUS
 10
563.929504
 20
151.810974
 40
2.000000
 50
0.000000
 51
89.000519
  0
LINE
  8
0
  6
CONTINUOUS
 10
565.929504
 20
19.334686
 11
565.929504
 21
4.334687
  0
ARC
  8
0
  6
CONTINUOUS
 10
568.929504
 20
19.334686
 40
3.000000
 50
180.000000
 51
270.000000
  0
LINE
  8
0
  6
CONTINUOUS
 10
501.929535
 20
19.334686
 11
501.929535
 21
4.334687
  0
ARC
  8
0
  6
CONTINUOUS
 10
498.929535
 20
19.334667
 40
3.000000
 50
-90.000000
 51
0.000000
  0
ARC
  8
0
  6
CONTINUOUS
 10
477.929535
 20
14.334687
 40
2.000000
 50
90.000000
 51
180.000000
  0
ARC
  8
0
  6
CONTINUOUS
 10
589.929504
 20
14.334687
 40
2.000000
 50
0.000000
 51
90.000000
  0
LINE
  8
0
  6
CENTER
 10
488.929535
 20
20.624687
 11
488.929535
 21
0.224688
  0
LINE
  8
0
  6
CENTER
 10
578.929504
 20
21.644688
 11
578.929504
 21
-0.285313
  0
LINE
  8
0
  6
CONTINUOUS
 10
500.647522
 20
25.841608
 11
477.211517
 21
16.827787
  0
ARC
  8
0
  6
CONTINUOUS
 10
477.929535
 20
14.961107
 40
2.000000
 50
111.037903
 51
180.000000
  0
LINE
  8
0
  6
CONTINUOUS
 10
501.929535
 20
27.708288
 11
501.929535
 21
19.334686
  0
ARC
  8
0
  6
CONTINUOUS
 10
499.929535
 20
27.708288
 40
2.000000
 50
-68.962189
 51
0.000000
  0
LINE
  8
0
  6
CONTINUOUS
 10
567.211548
 20
25.841587
 11
590.647522
 21
16.827787
  0
ARC
  8
0
  6
CONTINUOUS
 10
589.929504
 20
14.961087
 40
2.000000
 50
0.000000
 51
68.962646
  0
LINE
  8
0
  6
CONTINUOUS
 10
565.929504
 20
27.708288
 11
565.929504
 21
19.334686
  0
ARC
  8
0
  6
CONTINUOUS
 10
567.929504
 20
27.708307
 40
2.000000
 50
180.000000
 51
248.962799
  0
LINE
  8
0
  6
CONTINUOUS
 10
485.929535
 20
84.141838
 11
485.929535
 21
134.527527
  0
LINE
  8
0
  6
CONTINUOUS
 10
581.929504
 20
84.141838
 11
581.929504
 21
134.527527
  0
LINE
  8
0
  6
CONTINUOUS
 10
571.929504
 20
51.139526
 11
571.929504
 21
111.404686
  0
LINE
  8
0
  6
CONTINUOUS
 10
495.929535
 20
51.139526
 11
495.929535
 21
111.404686
  0
LINE
  8
0
  6
CONTINUOUS
 10
579.699707
 20
137.426987
 11
568.159302
 21
140.492386
  0
LINE
  8
0
  6
CONTINUOUS
 10
579.699707
 20
81.242386
 11
574.159302
 21
79.770737
  0
LINE
  8
0
  6
CONTINUOUS
 10
569.702515
 20
48.240826
 11
568.156555
 21
47.828548
  0
LINE
  8
0
  6
CONTINUOUS
 10
498.156525
 20
48.240807
 11
499.702545
 21
47.828548
  0
LINE
  8
0
  6
CONTINUOUS
 10
488.159332
 20
81.242378
 11
493.699738
 21
79.770737
  0
LINE
  8
0
  6
CONTINUOUS
 10
488.159332
 20
137.426987
 11
499.699738
 21
140.492386
  0
ARC
  8
0
  6
CONTINUOUS
 10
488.929535
 20
134.527542
 40
3.000000
 50
104.876099
 51
180.000000
  0
ARC
  8
0
  6
CONTINUOUS
 10
488.929535
 20
84.141853
 40
3.000000
 50
180.000000
 51
255.124603
  0
ARC
  8
0
  6
CONTINUOUS
 10
578.929504
 20
134.527527
 40
3.000000
 50
0.000000
 51
75.124413
  0
ARC
  8
0
  6
CONTINUOUS
 10
578.929504
 20
84.141838
 40
3.000000
 50
-75.124207
 51
0.000000
  0
ARC
  8
0
  6
CONTINUOUS
 10
498.929535
 20
51.139549
 40
3.000000
 50
180.000000
 51
255.069000
  0
ARC
  8
0
  6
CONTINUOUS
 10
568.929504
 20
51.139526
 40
3.000000
 50
-75.068420
 51
0.000000
  0
ARC
  8
0
  6
CONTINUOUS
 10
568.929504
 20
143.391861
 40
3.000000
 50
180.000000
 51
255.124603
  0
ARC
  8
0
  6
CONTINUOUS
 10
574.929504
 20
76.871300
 40
3.000000
 50
104.876099
 51
180.000000
  0
ARC
  8
0
  6
CONTINUOUS
 10
568.929504
 20
44.929867
 40
3.000000
 50
104.931801
 51
180.000000
  0
ARC
  8
0
  6
CONTINUOUS
 10
498.929535
 20
44.929848
 40
3.000000
 50
0.000000
 51
75.068779
  0
ARC
  8
0
  6
CONTINUOUS
 10
492.929535
 20
76.871269
 40
3.000000
 50
0.000000
 51
75.124496
  0
ARC
  8
0
  6
CONTINUOUS
 10
498.929535
 20
143.391830
 40
3.000000
 50
-75.124153
 51
0.000000
  0
LINE
  8
0
  6
DASHED
 10
483.429535
 20
16.334686
 11
483.429535
 21
4.334687
  0
LINE
  8
0
  6
DASHED
 10
494.429535
 20
16.334686
 11
494.429535
 21
4.334687
  0
LINE
  8
0
  6
DASHED
 10
573.429504
 20
16.334686
 11
573.429504
 21
4.334687
  0
LINE
  8
0
  6
DASHED
 10
584.429504
 20
16.334686
 11
584.429504
 21
4.334687
  0
LINE
  8
0
  6
CONTINUOUS
 10
504.159546
 20
131.334686
 11
563.829529
 21
131.334686
  0
LINE
  8
0
  6
CONTINUOUS
 10
486.429535
 20
36.334686
 11
486.429535
 21
45.386028
  0
LINE
  8
0
  6
CONTINUOUS
 10
581.429504
 20
36.334686
 11
581.429504
 21
45.386028
  0
LINE
  8
0
  6
CONTINUOUS
 10
491.429535
 20
31.334686
 11
500.460724
 21
31.334686
  0
LINE
  8
0
  6
CONTINUOUS
 10
576.429504
 20
31.334686
 11
567.378113
 21
31.334686
  0
ARC
  8
0
  6
CONTINUOUS
 10
533.929504
 20
78.834686
 40
57.250000
 50
-32.501888
 51
33.025517
  0
ARC
  8
0
  6
CONTINUOUS
 10
533.929504
 20
78.834686
 40
57.250000
 50
160.085907
 51
212.501907
  0
ARC
  8
0
  6
CONTINUOUS
 10
491.429535
 20
36.334686
 40
5.000000
 50
180.000000
 51
270.000000
  0
ARC
  8
0
  6
CONTINUOUS
 10
576.429504
 20
36.334686
 40
5.000000
 50
-90.000000
 51
0.000000
  0
ARC
  8
0
  6
CONTINUOUS
 10
500.480927
 20
26.334686
 40
5.000000
 50
73.928284
 51
90.230461
  0
ARC
  8
0
  6
CONTINUOUS
 10
567.378113
 20
26.334686
 40
5.000000
 50
90.000000
 51
106.071800
  0
ARC
  8
0
  6
CONTINUOUS
 10
481.429535
 20
45.386028
 40
5.000000
 50
0.000000
 51
32.499691
  0
ARC
  8
0
  6
CONTINUOUS
 10
586.429504
 20
45.386028
 40
5.000000
 50
147.498306
 51
180.000000
  0
LINE
  8
0
  6
CONTINUOUS
 10
567.929504
 20
29.834686
 11
565.929504
 21
29.834686
  0
LINE
  8
0
  6
CONTINUOUS
 10
499.929535
 20
29.834686
 11
501.929535
 21
29.834686
  0
ARC
  8
0
  6
CONTINUOUS
 10
567.929504
 20
33.834686
 40
4.000000
 50
270.000000
 51
322.311005
  0
ARC
  8
0
  6
CONTINUOUS
 10
499.929535
 20
33.834686
 40
4.000000
 50
218.645996
 51
270.000000
  0
LINE
  8
0
  6
CONTINUOUS
 10
296.679535
 20
106.334709
 11
296.679535
 21
112.334709
  0
LINE
  8
0
  6
CONTINUOUS
 10
302.679535
 20
106.334724
 11
302.679535
 21
112.334724
  0
LINE
  8
0
  6
CONTINUOUS
 10
302.679535
 20
106.334724
 11
296.679535
 21
106.334709
  0
LINE
  8
0
  6
CONTINUOUS
 10
302.679535
 20
112.334724
 11
296.679535
 21
112.334709
  0
ARC
  8
0
  6
CONTINUOUS
 10
289.179535
 20
109.334686
 40
11.000000
 50
15.826600
 51
344.173401
  0
LINE
  8
0
  6
CONTINUOUS
 10
443.929535
 20
98.334686
 11
443.929535
 21
120.334686
  0
LINE
  8
0
  6
CONTINUOUS
 10
483.929535
 20
120.334686
 11
443.929535
 21
120.334686
  0
LINE
  8
0
  6
CONTINUOUS
 10
483.929535
 20
98.334686
 11
443.929535
 21
98.334686
  0
LINE
  8
0
  6
CONTINUOUS
 10
483.929535
 20
121.834686
 11
483.929535
 21
96.834686
  0
LINE
  8
0
  6
CONTINUOUS
 10
485.929535
 20
121.834686
 11
483.929535
 21
121.834686
  0
LINE
  8
0
  6
CONTINUOUS
 10
485.929535
 20
96.834686
 11
483.929535
 21
96.834686
  0
ARC
  8
0
  6
CONTINUOUS
 10
475.929535
 20
109.334686
 40
3.000000
 50
-90.000000
 51
90.000000
  0
LINE
  8
0
  6
CONTINUOUS
 10
475.929535
 20
112.334686
 11
443.929535
 21
112.334686
  0
LINE
  8
0
  6
CONTINUOUS
 10
475.929535
 20
106.334686
 11
443.929535
 21
106.334686
  0
LINE
  8
0
  6
CENTER
 10
-12.055000
 20
67.834686
 11
257.179535
 21
67.834686
  0
LINE
  8
0
  6
CONTINUOUS
 10
214.016785
 20
107.286949
 11
172.429535
 21
105.834686
  0
LINE
  8
0
  6
CONTINUOUS
 10
224.429535
 20
28.018808
 11
172.429535
 21
29.834686
  0
LINE
  8
0
  6
CONTINUOUS
 10
216.429535
 20
135.334686
 11
216.429535
 21
108.334686
  0
LINE
  8
0
  6
CONTINUOUS
 10
217.429535
 20
136.334686
 11
224.429550
 21
136.334686
  0
LINE
  8
0
  6
CONTINUOUS
 10
218.929535
 20
21.334686
 11
224.429535
 21
21.334686
  0
LINE
  8
0
  6
CONTINUOUS
 10
216.429535
 20
108.834686
 11
216.429535
 21
37.922031
  0
LINE
  8
0
  6
CONTINUOUS
 10
172.429535
 20
105.834686
 11
172.429535
 21
29.834686
  0
LINE
  8
0
  6
CONTINUOUS
 10
215.016403
 20
119.152489
 11
189.072968
 21
106.628082
  0
LINE
  8
0
  6
CENTER
 10
289.179535
 20
367.272491
 11
289.179535
 21
197.088440
  0
LINE
  8
0
  6
CENTER
 10
-12.055000
 20
297.312408
 11
358.518982
 21
297.312408
  0
LINE
  8
0
  6
CONTINUOUS
 10
237.961502
 20
329.312408
 11
336.707489
 21
329.312408
  0
LINE
  8
0
  6
CONTINUOUS
 10
237.961502
 20
265.312408
 11
336.707489
 21
265.312408
  0
LINE
  8
0
  6
CONTINUOUS
 10
332.117645
 20
355.312408
 11
289.179535
 21
355.312408
  0
LINE
  8
0
  6
CONTINUOUS
 10
246.241425
 20
239.312393
 11
278.179535
 21
239.312393
  0
LINE
  8
0
  6
CONTINUOUS
 10
342.179535
 20
297.312408
 11
341.620972
 21
329.312408
  0
LINE
  8
0
  6
CONTINUOUS
 10
337.011597
 20
351.336639
 11
341.620972
 21
329.312408
  0
ARC
  8
0
  6
CONTINUOUS
 10
332.117645
 20
350.312408
 40
5.000000
 50
11.820596
 51
90.000000
  0
LINE
  8
0
  6
CONTINUOUS
 10
342.179535
 20
297.312408
 11
341.620972
 21
265.312408
  0
LINE
  8
0
  6
CONTINUOUS
 10
337.011597
 20
243.288162
 11
341.620972
 21
265.312408
  0
ARC
  8
0
  6
CONTINUOUS
 10
332.117645
 20
244.312393
 40
5.000000
 50
-90.000000
 51
-11.820596
  0
LINE
  8
0
  6
CONTINUOUS
 10
309.179535
 20
267.312408
 11
309.179535
 21
327.312408
  0
LINE
  8
0
  6
CONTINUOUS
 10
269.179535
 20
267.312408
 11
269.179535
 21
327.312408
  0
ARC
  8
0
  6
CONTINUOUS
 10
336.707489
 20
324.312408
 40
5.000000
 50
1.000000
 51
90.000000
  0
ARC
  8
0
  6
CONTINUOUS
 10
336.707489
 20
270.312408
 40
5.000000
 50
270.000000
 51
359.000000
  0
LINE
  8
0
  6
CONTINUOUS
 10
232.506027
 20
242.983871
 11
232.963226
 21
260.443268
  0
LINE
  8
0
  6
CONTINUOUS
 10
224.429535
 20
354.812408
 11
224.429535
 21
239.812393
  0
LINE
  8
0
  6
CONTINUOUS
 10
242.994537
 20
315.312408
 11
242.994537
 21
279.312408
  0
LINE
  8
0
  6
CONTINUOUS
 10
224.429535
 20
354.562408
 11
229.507065
 21
354.562408
  0
LINE
  8
0
  6
CONTINUOUS
 10
229.507065
 20
240.062393
 11
224.429535
 21
240.062393
  0
ARC
  8
0
  6
CONTINUOUS
 10
237.961502
 20
260.312408
 40
5.000000
 50
90.000000
 51
178.500000
  0
ARC
  8
0
  6
CONTINUOUS
 10
229.507065
 20
243.062393
 40
3.000000
 50
270.000000
 51
358.500000
  0
LINE
  8
0
  6
CONTINUOUS
 10
232.506027
 20
351.640930
 11
232.963226
 21
334.181519
  0
ARC
  8
0
  6
CONTINUOUS
 10
237.961502
 20
334.312408
 40
5.000000
 50
-178.500000
 51
-90.000000
  0
ARC
  8
0
  6
CONTINUOUS
 10
229.507065
 20
351.562408
 40
3.000000
 50
-358.500000
 51
-270.000000
  0
LINE
  8
0
  6
CONTINUOUS
 10
241.347458
 20
351.336639
 11
236.768326
 21
329.456848
  0
ARC
  8
0
  6
CONTINUOUS
 10
246.241425
 20
350.312408
 40
5.000000
 50
90.000000
 51
168.179398
  0
LINE
  8
0
  6
CONTINUOUS
 10
241.347458
 20
243.288162
 11
236.768326
 21
265.167938
  0
ARC
  8
0
  6
CONTINUOUS
 10
246.241425
 20
244.312393
 40
5.000000
 50
-168.179398
 51
-90.000000
  0
LINE
  8
0
  6
CENTER
 10
313.729919
 20
252.312393
 11
334.584106
 21
252.312393
  0
LINE
  8
0
  6
CENTER
 10
324.179535
 20
259.869690
 11
324.179535
 21
243.098846
  0
CIRCLE
  8
0
  6
CONTINUOUS
 10
324.179535
 20
252.312393
 40
5.500000
  0
LINE
  8
0
  6
CENTER
 10
264.629120
 20
252.312393
 11
243.774963
 21
252.312393
  0
LINE
  8
0
  6
CENTER
 10
254.179535
 20
259.869690
 11
254.179535
 21
243.098846
  0
CIRCLE
  8
0
  6
CONTINUOUS
 10
254.179535
 20
252.312393
 40
5.500000
  0
LINE
  8
0
  6
CENTER
 10
313.729919
 20
342.312408
 11
334.584106
 21
342.312408
  0
LINE
  8
0
  6
CENTER
 10
324.179535
 20
334.755096
 11
324.179535
 21
351.525940
  0
CIRCLE
  8
0
  6
CONTINUOUS
 10
324.179535
 20
342.312408
 40
5.500000
  0
LINE
  8
0
  6
CENTER
 10
264.629120
 20
342.312408
 11
243.774963
 21
342.312408
  0
LINE
  8
0
  6
CENTER
 10
254.179535
 20
334.755096
 11
254.179535
 21
351.525940
  0
CIRCLE
  8
0
  6
CONTINUOUS
 10
254.179535
 20
342.312408
 40
5.500000
  0
LINE
  8
0
  6
CONTINUOUS
 10
263.986694
 20
249.312393
 11
314.372375
 21
249.312393
  0
LINE
  8
0
  6
CONTINUOUS
 10
319.335785
 20
259.312408
 11
322.622620
 21
259.312408
  0
ARC
  8
0
  6
CONTINUOUS
 10
314.372375
 20
252.312393
 40
3.000000
 50
270.000000
 51
345.124329
  0
LINE
  8
0
  6
CONTINUOUS
 10
325.522095
 20
261.542236
 11
325.931244
 21
263.082550
  0
ARC
  8
0
  6
CONTINUOUS
 10
322.622620
 20
262.312408
 40
3.000000
 50
270.000000
 51
345.124329
  0
ARC
  8
0
  6
CONTINUOUS
 10
328.830688
 20
262.312408
 40
3.000000
 50
90.000000
 51
165.124313
  0
LINE
  8
0
  6
CONTINUOUS
 10
319.335785
 20
259.312408
 11
317.271820
 21
251.542221
  0
LINE
  8
0
  6
CONTINUOUS
 10
252.836975
 20
261.542236
 11
252.427826
 21
263.082550
  0
ARC
  8
0
  6
CONTINUOUS
 10
255.736435
 20
262.312408
 40
3.000000
 50
-165.124313
 51
-90.000000
  0
ARC
  8
0
  6
CONTINUOUS
 10
249.528381
 20
262.312408
 40
3.000000
 50
14.875682
 51
90.000000
  0
LINE
  8
0
  6
CONTINUOUS
 10
259.023285
 20
259.312408
 11
255.736435
 21
259.312408
  0
ARC
  8
0
  6
CONTINUOUS
 10
263.986694
 20
252.312393
 40
3.000000
 50
-165.124313
 51
-90.000000
  0
LINE
  8
0
  6
CONTINUOUS
 10
259.023285
 20
259.312408
 11
261.087219
 21
251.542221
  0
CIRCLE
  8
0
  6
CONTINUOUS
 10
324.179535
 20
342.312408
 40
5.500000
  0
LINE
  8
0
  6
CONTINUOUS
 10
263.986694
 20
345.312408
 11
314.372375
 21
345.312408
  0
LINE
  8
0
  6
CONTINUOUS
 10
319.335785
 20
335.312408
 11
322.622620
 21
335.312408
  0
ARC
  8
0
  6
CONTINUOUS
 10
314.372375
 20
342.312408
 40
3.000000
 50
-345.124329
 51
-270.000000
  0
LINE
  8
0
  6
CONTINUOUS
 10
325.522095
 20
333.082550
 11
325.931244
 21
331.542236
  0
ARC
  8
0
  6
CONTINUOUS
 10
322.622620
 20
332.312408
 40
3.000000
 50
-345.124329
 51
-270.000000
  0
ARC
  8
0
  6
CONTINUOUS
 10
328.830688
 20
332.312408
 40
3.000000
 50
-165.124313
 51
-90.000000
  0
LINE
  8
0
  6
CONTINUOUS
 10
319.335785
 20
335.312408
 11
317.271820
 21
343.082550
  0
LINE
  8
0
  6
CONTINUOUS
 10
252.836975
 20
333.082550
 11
252.427826
 21
331.542236
  0
ARC
  8
0
  6
CONTINUOUS
 10
255.736435
 20
332.312408
 40
3.000000
 50
90.000000
 51
165.124313
  0
ARC
  8
0
  6
CONTINUOUS
 10
249.528381
 20
332.312408
 40
3.000000
 50
-90.000000
 51
-14.875682
  0
LINE
  8
0
  6
CONTINUOUS
 10
259.023285
 20
335.312408
 11
255.736435
 21
335.312408
  0
ARC
  8
0
  6
CONTINUOUS
 10
263.986694
 20
342.312408
 40
3.000000
 50
90.000000
 51
165.124313
  0
LINE
  8
0
  6
CONTINUOUS
 10
259.023285
 20
335.312408
 11
261.087219
 21
343.082550
  0
LINE
  8
0
  6
CONTINUOUS
 10
278.179535
 20
207.312393
 11
302.679535
 21
207.312393
  0
LINE
  8
0
  6
CONTINUOUS
 10
300.179535
 20
247.312393
 11
300.179535
 21
242.312393
  0
LINE
  8
0
  6
CONTINUOUS
 10
278.179535
 20
247.312393
 11
278.179535
 21
207.312393
  0
LINE
  8
0
  6
CONTINUOUS
 10
301.679535
 20
249.312393
 11
301.679535
 21
247.312393
  0
LINE
  8
0
  6
CONTINUOUS
 10
276.679535
 20
249.312393
 11
276.679535
 21
247.312393
  0
LINE
  8
0
  6
CONTINUOUS
 10
276.679535
 20
247.312393
 11
301.679535
 21
247.312393
  0
LINE
  8
0
  6
CONTINUOUS
 10
302.679535
 20
239.312393
 11
332.117645
 21
239.312393
  0
LINE
  8
0
  6
CONTINUOUS
 10
302.679535
 20
242.312393
 11
302.679535
 21
207.312393
  0
LINE
  8
0
  6
CONTINUOUS
 10
299.762543
 20
207.312393
 11
299.762543
 21
242.312393
  0
LINE
  8
0
  6
CONTINUOUS
 10
299.762543
 20
242.312393
 11
302.679535
 21
242.312393
  0
LINE
  8
0
  6
CONTINUOUS
 10
289.179535
 20
355.312408
 11
246.063263
 21
355.312408
  0
LINE
  8
0
  6
CONTINUOUS
 10
224.429535
 20
344.812408
 11
229.762375
 21
344.812408
  0
ARC
  8
0
  6
CONTINUOUS
 10
229.762375
 20
341.812408
 40
3.000000
 50
1.500000
 51
90.000000
  0
LINE
  8
0
  6
CONTINUOUS
 10
232.720001
 20
329.312408
 11
224.429535
 21
329.312408
  0
LINE
  8
0
  6
CONTINUOUS
 10
232.720001
 20
265.312408
 11
224.429535
 21
265.312408
  0
LINE
  8
0
  6
CONTINUOUS
 10
224.429535
 20
249.812393
 11
229.762375
 21
249.812393
  0
ARC
  8
0
  6
CONTINUOUS
 10
229.762375
 20
252.812393
 40
3.000000
 50
-90.000000
 51
-1.500000
  0
LINE
  8
0
  6
CONTINUOUS
 10
509.929535
 20
5.334687
 11
557.929504
 21
5.334687
  0
LINE
  8
0
  6
CONTINUOUS
 10
558.929504
 20
4.334687
 11
557.929504
 21
5.334687
  0
LINE
  8
0
  6
CONTINUOUS
 10
508.929535
 20
4.334687
 11
509.929535
 21
5.334687
  0
LINE
  8
0
  6
CONTINUOUS
 10
558.929504
 20
4.334687
 11
591.929504
 21
4.334687
  0
LINE
  8
0
  6
CONTINUOUS
 10
218.929535
 20
239.812393
 11
224.429535
 21
239.812393
  0
LINE
  8
0
  6
CONTINUOUS
 10
218.929535
 20
354.812408
 11
224.429535
 21
354.812408
  0
LINE
  8
0
  6
CONTINUOUS
 10
216.429535
 20
242.312393
 11
216.429535
 21
352.312408
  0
LINE
  8
0
  6
CONTINUOUS
 10
172.429535
 20
335.312408
 11
172.429535
 21
259.312408
  0
LINE
  8
0
  6
CONTINUOUS
 10
214.016785
 20
336.764648
 11
172.429535
 21
335.312408
  0
LINE
  8
0
  6
CONTINUOUS
 10
214.016785
 20
257.860138
 11
172.429535
 21
259.312408
  0
ARC
  8
0
  6
CONTINUOUS
 10
218.929535
 20
352.312408
 40
2.500000
 50
90.000000
 51
180.000000
  0
ARC
  8
0
  6
CONTINUOUS
 10
218.929535
 20
242.312393
 40
2.500000
 50
180.000000
 51
270.000000
  0
ARC
  8
0
  6
CONTINUOUS
 10
217.429535
 20
135.334686
 40
1.000000
 50
90.000000
 51
180.000000
  0
ARC
  8
0
  6
CONTINUOUS
 10
213.929535
 20
121.403870
 40
2.500000
 50
-64.230675
 51
0.000000
  0
ARC
  8
0
  6
CONTINUOUS
 10
213.929535
 20
109.785423
 40
2.500000
 50
-88.000000
 51
0.000000
  0
ARC
  8
0
  6
CONTINUOUS
 10
187.986099
 20
108.879456
 40
2.500000
 50
272.000000
 51
295.769318
  0
LINE
  8
0
  6
CONTINUOUS
 10
172.429535
 20
335.312408
 11
172.429535
 21
259.312408
  0
LINE
  8
0
  6
CONTINUOUS
 10
58.429653
 20
335.312378
 11
172.429657
 21
335.312378
  0
LINE
  8
0
  6
CONTINUOUS
 10
58.429653
 20
259.312408
 11
172.429657
 21
259.312408
  0
LINE
  8
0
  6
CONTINUOUS
 10
164.429657
 20
333.312378
 11
164.429657
 21
320.312408
  0
ARC
  8
0
  6
CONTINUOUS
 10
166.429657
 20
333.312408
 40
2.000000
 50
90.000000
 51
180.000000
  0
ARC
  8
0
  6
CONTINUOUS
 10
166.429657
 20
261.312408
 40
2.000000
 50
180.000000
 51
270.000000
  0
LINE
  8
0
  6
CONTINUOUS
 10
58.429653
 20
320.312408
 11
164.429657
 21
320.312408
  0
LINE
  8
0
  6
CONTINUOUS
 10
58.429653
 20
274.312408
 11
164.429657
 21
274.312408
  0
LINE
  8
0
  6
CONTINUOUS
 10
164.429657
 20
274.312408
 11
164.429657
 21
261.312408
  0
ARC
  8
0
  6
CONTINUOUS
 10
203.599167
 20
297.312408
 40
15.000000
 50
130.747620
 51
229.252380
  0
LINE
  8
0
  6
CONTINUOUS
 10
215.561356
 20
327.418396
 11
193.808243
 21
308.676270
  0
LINE
  8
0
  6
CONTINUOUS
 10
215.561356
 20
267.206390
 11
193.808243
 21
285.948517
  0
ARC
  8
0
  6
CONTINUOUS
 10
213.929535
 20
329.312378
 40
2.500000
 50
-49.252373
 51
0.000000
  0
ARC
  8
0
  6
CONTINUOUS
 10
213.929535
 20
339.263123
 40
2.500000
 50
-88.000000
 51
0.000000
  0
ARC
  8
0
  6
CONTINUOUS
 10
213.929535
 20
265.312439
 40
2.500000
 50
0.000000
 51
49.252373
  0
ARC
  8
0
  6
CONTINUOUS
 10
213.929535
 20
255.361664
 40
2.500000
 50
0.000000
 51
88.000000
  0
LINE
  8
0
  6
CONTINUOUS
 10
217.554611
 20
35.680687
 11
224.429535
 21
35.680687
  0
LINE
  8
0
  6
CONTINUOUS
 10
216.429535
 20
23.834686
 11
216.429535
 21
25.883951
  0
ARC
  8
0
  6
CONTINUOUS
 10
218.929535
 20
23.834686
 40
2.500000
 50
180.000000
 51
270.000000
  0
ARC
  8
0
  6
CONTINUOUS
 10
213.929535
 20
25.883951
 40
2.500000
 50
0.000000
 51
88.000000
  0
ARC
  8
0
  6
CONTINUOUS
 10
533.929504
 20
78.834686
 40
57.500000
 50
236.002823
 51
236.184402
  0
ARC
  8
0
  6
CONTINUOUS
 10
533.929504
 20
78.834686
 40
57.500000
 50
303.815582
 51
303.997162
  0
ARC
  8
0
  6
CONTINUOUS
 10
533.929504
 20
78.834686
 40
57.500000
 50
-33.997124
 51
33.406792
  0
ARC
  8
0
  6
CONTINUOUS
 10
533.929504
 20
78.834686
 40
57.500000
 50
160.176102
 51
213.997131
  0
LINE
  8
0
  6
CONTINUOUS
 10
58.429653
 20
335.312378
 11
58.429653
 21
304.178406
  0
LINE
  8
0
  6
CONTINUOUS
 10
58.429653
 20
335.312378
 11
48.929653
 21
335.312378
  0
LINE
  8
0
  6
CONTINUOUS
 10
58.429653
 20
259.312378
 11
48.929653
 21
259.312378
  0
LINE
  8
0
  6
CONTINUOUS
 10
58.429653
 20
274.312378
 11
48.929653
 21
274.312378
  0
LINE
  8
0
  6
CONTINUOUS
 10
58.429653
 20
320.312378
 11
48.929653
 21
320.312378
  0
LINE
  8
0
  6
CONTINUOUS
 10
51.929653
 20
291.312378
 11
51.929653
 21
303.312378
  0
LINE
  8
0
  6
CONTINUOUS
 10
58.929653
 20
291.312378
 11
58.929653
 21
303.312378
  0
LINE
  8
0
  6
CONTINUOUS
 10
52.929653
 20
304.312378
 11
57.929653
 21
304.312378
  0
LINE
  8
0
  6
CONTINUOUS
 10
57.929653
 20
290.312378
 11
52.929653
 21
290.312378
  0
ARC
  8
0
  6
CONTINUOUS
 10
57.929653
 20
303.312378
 40
1.000000
 50
0.000000
 51
90.000000
  0
ARC
  8
0
  6
CONTINUOUS
 10
52.929653
 20
303.312378
 40
1.000000
 50
90.000000
 51
180.000000
  0
ARC
  8
0
  6
CONTINUOUS
 10
52.929653
 20
291.312378
 40
1.000000
 50
180.000000
 51
270.000000
  0
ARC
  8
0
  6
CONTINUOUS
 10
57.929653
 20
291.312378
 40
1.000000
 50
-90.000000
 51
0.000000
  0
LINE
  8
0
  6
CONTINUOUS
 10
56.429653
 20
293.812378
 11
56.429653
 21
300.812378
  0
LINE
  8
0
  6
CONTINUOUS
 10
54.429653
 20
293.812378
 11
54.429653
 21
300.812378
  0
ARC
  8
0
  6
CONTINUOUS
 10
55.429653
 20
300.812378
 40
1.000000
 50
90.000000
 51
180.000000
  0
ARC
  8
0
  6
CONTINUOUS
 10
55.429653
 20
300.812378
 40
1.000000
 50
0.000000
 51
90.000000
  0
ARC
  8
0
  6
CONTINUOUS
 10
55.429653
 20
293.812378
 40
1.000000
 50
180.000000
 51
270.000000
  0
ARC
  8
0
  6
CONTINUOUS
 10
55.429653
 20
293.812378
 40
1.000000
 50
-90.000000
 51
0.000000
  0
LINE
  8
0
  6
CONTINUOUS
 10
58.429653
 20
290.446350
 11
58.429653
 21
259.312378
  0
LINE
  8
0
  6
CONTINUOUS
 10
48.929653
 20
257.312378
 11
48.929653
 21
337.312378
  0
LINE
  8
0
  6
CONTINUOUS
 10
4.929653
 20
337.312378
 11
48.929653
 21
337.312378
  0
LINE
  8
0
  6
CONTINUOUS
 10
4.929653
 20
257.312378
 11
48.929653
 21
257.312378
  0
LINE
  8
0
  6
CONTINUOUS
 10
-0.070347
 20
262.312378
 11
-0.070347
 21
332.312378
  0
ARC
  8
0
  6
CONTINUOUS
 10
4.929653
 20
332.312378
 40
5.000000
 50
90.000000
 51
180.000000
  0
ARC
  8
0
  6
CONTINUOUS
 10
4.929653
 20
262.312378
 40
5.000000
 50
180.000000
 51
270.000000
  0
LINE
  8
0
  6
CONTINUOUS
 10
2.429653
 20
321.312378
 11
48.929653
 21
321.312378
  0
LINE
  8
0
  6
CONTINUOUS
 10
2.429653
 20
271.312378
 11
48.929653
 21
271.312378
  0
LINE
  8
0
  6
CONTINUOUS
 10
48.929531
 20
105.834663
 11
58.429531
 21
105.834663
  0
LINE
  8
0
  6
CONTINUOUS
 10
48.929531
 20
29.834667
 11
58.429531
 21
29.834667
  0
LINE
  8
0
  6
CONTINUOUS
 10
48.929531
 20
27.834667
 11
48.929531
 21
107.834663
  0
LINE
  8
0
  6
CONTINUOUS
 10
58.929531
 20
107.334663
 11
58.929531
 21
105.834663
  0
LINE
  8
0
  6
CONTINUOUS
 10
51.929531
 20
107.334663
 11
51.929531
 21
105.834663
  0
LINE
  8
0
  6
CONTINUOUS
 10
51.929531
 20
107.334663
 11
58.929531
 21
107.334663
  0
LINE
  8
0
  6
CONTINUOUS
 10
56.329521
 20
120.334663
 11
56.329521
 21
107.334663
  0
LINE
  8
0
  6
CONTINUOUS
 10
54.529541
 20
120.959663
 11
54.529541
 21
107.334663
  0
LINE
  8
0
  6
CONTINUOUS
 10
52.729530
 20
118.897163
 11
52.729530
 21
107.334663
  0
LINE
  8
0
  6
CONTINUOUS
 10
58.129532
 20
119.709663
 11
58.129532
 21
107.334663
  0
LINE
  8
0
  6
CONTINUOUS
 10
54.529541
 20
120.959663
 11
56.329521
 21
120.334663
  0
LINE
  8
0
  6
CONTINUOUS
 10
52.729530
 20
118.897163
 11
54.529541
 21
119.522163
  0
LINE
  8
0
  6
CONTINUOUS
 10
58.129532
 20
119.709663
 11
56.330532
 21
119.261971
  0
LINE
  8
0
  6
CONTINUOUS
 10
48.929531
 20
98.083664
 11
58.429531
 21
98.083664
  0
LINE
  8
0
  6
CONTINUOUS
 10
48.929531
 20
37.585667
 11
58.429531
 21
37.585667
  0
LINE
  8
0
  6
CONTINUOUS
 10
4.929531
 20
107.834663
 11
48.929531
 21
107.834663
  0
LINE
  8
0
  6
CONTINUOUS
 10
4.929531
 20
27.834667
 11
48.929531
 21
27.834667
  0
LINE
  8
0
  6
CONTINUOUS
 10
-0.070469
 20
32.834667
 11
-0.070469
 21
102.834663
  0
ARC
  8
0
  6
CONTINUOUS
 10
4.929531
 20
102.834663
 40
5.000000
 50
90.000000
 51
180.000000
  0
ARC
  8
0
  6
CONTINUOUS
 10
4.929531
 20
32.834667
 40
5.000000
 50
180.000000
 51
270.000000
  0
LINE
  8
0
  6
CONTINUOUS
 10
2.429531
 20
93.834663
 11
48.929531
 21
93.834663
  0
LINE
  8
0
  6
CONTINUOUS
 10
2.429531
 20
43.834667
 11
48.929531
 21
43.834667
  0
LINE
  8
0
  6
CONTINUOUS
 10
58.429531
 20
29.834686
 11
58.429531
 21
105.834663
  0
ARC
  8
0
  6
CONTINUOUS
 10
48.929531
 20
92.203766
 40
4.500000
 50
0.000000
 51
90.000000
  0
ARC
  8
0
  6
CONTINUOUS
 10
48.929531
 20
92.203766
 40
3.000000
 50
0.000000
 51
90.000000
  0
ARC
  8
0
  6
CONTINUOUS
 10
48.929531
 20
92.203766
 40
1.500000
 50
0.000000
 51
90.000000
  0
LINE
  8
0
  6
CONTINUOUS
 10
50.429531
 20
92.203766
 11
50.429531
 21
87.188164
  0
LINE
  8
0
  6
CONTINUOUS
 10
51.929531
 20
92.203766
 11
51.929531
 21
87.703766
  0
LINE
  8
0
  6
CONTINUOUS
 10
53.429531
 20
92.203766
 11
53.429531
 21
87.703766
  0
LINE
  8
0
  6
CONTINUOUS
 10
50.429531
 20
87.203766
 11
51.929531
 21
87.703766
  0
LINE
  8
0
  6
CONTINUOUS
 10
51.929531
 20
88.203766
 11
53.429531
 21
87.703766
  0
ARC
  8
0
  6
CONTINUOUS
 10
48.929653
 20
265.042542
 40
4.500000
 50
0.000000
 51
90.000000
  0
ARC
  8
0
  6
CONTINUOUS
 10
48.929653
 20
265.042542
 40
3.000000
 50
0.000000
 51
90.000000
  0
ARC
  8
0
  6
CONTINUOUS
 10
48.929653
 20
265.042542
 40
1.500000
 50
0.000000
 51
90.000000
  0
LINE
  8
0
  6
CONTINUOUS
 10
50.429653
 20
265.042542
 11
50.429653
 21
260.026947
  0
LINE
  8
0
  6
CONTINUOUS
 10
51.929653
 20
265.042542
 11
51.929653
 21
260.542542
  0
LINE
  8
0
  6
CONTINUOUS
 10
53.429653
 20
265.042542
 11
53.429653
 21
260.542542
  0
LINE
  8
0
  6
CONTINUOUS
 10
50.429653
 20
260.042542
 11
51.929653
 21
260.542542
  0
LINE
  8
0
  6
CONTINUOUS
 10
51.929653
 20
261.042542
 11
53.429653
 21
260.542542
  0
LINE
  8
0
  6
CONTINUOUS
 10
172.429535
 20
58.434689
 11
216.429535
 21
58.434689
  0
LINE
  8
0
  6
CONTINUOUS
 10
172.429535
 20
48.234688
 11
216.429535
 21
48.234688
  0
TEXT
  8
0
 10
-12.000000
 20
-11.000000
 40
4.000000
 41
1.000000
  1
HLMN-22R-300~900-T25W
 50
0.000000
  0
ENDSEC
  0
EOF
