  0
SECTION
  2
HEADER
  9
$ACADVER
  1
AC1014
  9
$ACADMAINTVER
 70
     9
  9
$DWGCODEPAGE
  3
ANSI_932
  9
$INSBASE
 10
0.0
 20
0.0
 30
0.0
  9
$EXTMIN
 10
48.45668168999726
 20
59.17422168717326
 30
0.0
  9
$EXTMAX
 10
711.5660071295214
 20
515.4643027756155
 30
0.0
  9
$LIMMIN
 10
0.0
 20
0.0
  9
$LIMMAX
 10
297.0
 20
210.0
  9
$ORTHOMODE
 70
     1
  9
$REGENMODE
 70
     1
  9
$FILLMODE
 70
     1
  9
$QTEXTMODE
 70
     0
  9
$MIRRTEXT
 70
     0
  9
$DRAGMODE
 70
     2
  9
$LTSCALE
 40
3.0
  9
$OSMODE
 70
    37
  9
$ATTMODE
 70
     1
  9
$TEXTSIZE
 40
2.0
  9
$TRACEWID
 40
1.0
  9
$TEXTSTYLE
  7
STANDARD
  9
$CLAYER
  8
0
  9
$CELTYPE
  6
BYLAYER
  9
$CECOLOR
 62
   256
  9
$CELTSCALE
 40
1.0
  9
$DELOBJ
 70
     1
  9
$DISPSILH
 70
     0
  9
$DIMSCALE
 40
3.0
  9
$DIMASZ
 40
1.8
  9
$DIMEXO
 40
0.625
  9
$DIMDLI
 40
3.75
  9
$DIMRND
 40
0.0
  9
$DIMDLE
 40
0.0
  9
$DIMEXE
 40
0.8
  9
$DIMTP
 40
0.0
  9
$DIMTM
 40
0.0
  9
$DIMTXT
 40
1.8
  9
$DIMCEN
 40
2.5
  9
$DIMTSZ
 40
0.0
  9
$DIMTOL
 70
     0
  9
$DIMLIM
 70
     0
  9
$DIMTIH
 70
     0
  9
$DIMTOH
 70
     0
  9
$DIMSE1
 70
     0
  9
$DIMSE2
 70
     0
  9
$DIMTAD
 70
     1
  9
$DIMZIN
 70
     8
  9
$DIMBLK
  1

  9
$DIMASO
 70
     1
  9
$DIMSHO
 70
     1
  9
$DIMPOST
  1

  9
$DIMAPOST
  1

  9
$DIMALT
 70
     0
  9
$DIMALTD
 70
     4
  9
$DIMALTF
 40
0.0394
  9
$DIMLFAC
 40
1.0
  9
$DIMTOFL
 70
     1
  9
$DIMTVP
 40
0.0
  9
$DIMTIX
 70
     0
  9
$DIMSOXD
 70
     0
  9
$DIMSAH
 70
     0
  9
$DIMBLK1
  1

  9
$DIMBLK2
  1

  9
$DIMSTYLE
  2
STANDARD
  9
$DIMCLRD
 70
     0
  9
$DIMCLRE
 70
     0
  9
$DIMCLRT
 70
     0
  9
$DIMTFAC
 40
1.0
  9
$DIMGAP
 40
0.75
  9
$DIMJUST
 70
     0
  9
$DIMSD1
 70
     0
  9
$DIMSD2
 70
     0
  9
$DIMTOLJ
 70
     1
  9
$DIMTZIN
 70
     0
  9
$DIMALTZ
 70
     0
  9
$DIMALTTZ
 70
     0
  9
$DIMFIT
 70
     3
  9
$DIMUPT
 70
     0
  9
$DIMUNIT
 70
     8
  9
$DIMDEC
 70
     2
  9
$DIMTDEC
 70
     2
  9
$DIMALTU
 70
     8
  9
$DIMALTTD
 70
     4
  9
$DIMTXSTY
  7
STANDARD
  9
$DIMAUNIT
 70
     0
  9
$LUNITS
 70
     2
  9
$LUPREC
 70
     3
  9
$SKETCHINC
 40
1.0
  9
$FILLETRAD
 40
10.0
  9
$AUNITS
 70
     0
  9
$AUPREC
 70
     2
  9
$MENU
  1
.
  9
$ELEVATION
 40
0.0
  9
$PELEVATION
 40
0.0
  9
$THICKNESS
 40
0.0
  9
$LIMCHECK
 70
     0
  9
$BLIPMODE
 70
     0
  9
$CHAMFERA
 40
0.0
  9
$CHAMFERB
 40
0.0
  9
$CHAMFERC
 40
20.0
  9
$CHAMFERD
 40
0.0
  9
$SKPOLY
 70
     0
  9
$TDCREATE
 40
2453753.552979410
  9
$TDUPDATE
 40
2453832.472444838
  9
$TDINDWG
 40
0.3608454398
  9
$TDUSRTIMER
 40
0.3608452662
  9
$USRTIMER
 70
     1
  9
$ANGBASE
 50
0.0
  9
$ANGDIR
 70
     0
  9
$PDMODE
 70
     0
  9
$PDSIZE
 40
-10.0
  9
$PLINEWID
 40
0.0
  9
$COORDS
 70
     0
  9
$SPLFRAME
 70
     0
  9
$SPLINETYPE
 70
     6
  9
$SPLINESEGS
 70
     8
  9
$ATTDIA
 70
     0
  9
$ATTREQ
 70
     1
  9
$HANDLING
 70
-16383
  9
$HANDSEED
  5
2186
  9
$SURFTAB1
 70
     6
  9
$SURFTAB2
 70
     6
  9
$SURFTYPE
 70
     6
  9
$SURFU
 70
     6
  9
$SURFV
 70
     6
  9
$UCSNAME
  2

  9
$UCSORG
 10
0.0
 20
0.0
 30
0.0
  9
$UCSXDIR
 10
1.0
 20
0.0
 30
0.0
  9
$UCSYDIR
 10
0.0
 20
1.0
 30
0.0
  9
$PUCSNAME
  2

  9
$PUCSORG
 10
0.0
 20
0.0
 30
0.0
  9
$PUCSXDIR
 10
1.0
 20
0.0
 30
0.0
  9
$PUCSYDIR
 10
0.0
 20
1.0
 30
0.0
  9
$USERI1
 70
     0
  9
$USERI2
 70
     0
  9
$USERI3
 70
     0
  9
$USERI4
 70
     0
  9
$USERI5
 70
     0
  9
$USERR1
 40
0.0
  9
$USERR2
 40
0.0
  9
$USERR3
 40
0.0
  9
$USERR4
 40
0.0
  9
$USERR5
 40
0.0
  9
$WORLDVIEW
 70
     1
  9
$SHADEDGE
 70
     3
  9
$SHADEDIF
 70
    70
  9
$TILEMODE
 70
     1
  9
$MAXACTVP
 70
    48
  9
$PINSBASE
 10
0.0
 20
0.0
 30
0.0
  9
$PLIMCHECK
 70
     0
  9
$PEXTMIN
 10
3.0
 20
3.999999999999998
 30
0.0
  9
$PEXTMAX
 10
280.0
 20
194.0
 30
0.0
  9
$PLIMMIN
 10
-5.873748779296875
 20
-5.873749732971191
  9
$PLIMMAX
 10
291.05224609375
 20
204.0995779037475
  9
$UNITMODE
 70
     0
  9
$VISRETAIN
 70
     1
  9
$PLINEGEN
 70
     0
  9
$PSLTSCALE
 70
     0
  9
$TREEDEPTH
 70
  3020
  9
$PICKSTYLE
 70
     1
  9
$CMLSTYLE
  2
STANDARD
  9
$CMLJUST
 70
     0
  9
$CMLSCALE
 40
1.0
  9
$PROXYGRAPHICS
 70
     1
  9
$MEASUREMENT
 70
     0
  0
ENDSEC
  0
SECTION
  2
CLASSES
  0
CLASS
  1
DICTIONARYVAR
  2
AcDbDictionaryVar
  3
AutoCAD 2000
 90
        0
280
     0
281
     0
  0
CLASS
  1
ACDBDICTIONARYWDFLT
  2
AcDbDictionaryWithDefault
  3
AutoCAD 2000
 90
        0
280
     0
281
     0
  0
CLASS
  1
ACDBPLACEHOLDER
  2
AcDbPlaceHolder
  3
AutoCAD 2000
 90
        0
280
     0
281
     0
  0
CLASS
  1
LAYOUT
  2
AcDbLayout
  3
AutoCAD 2000
 90
        0
280
     0
281
     0
  0
CLASS
  1
LONG_TRANSACTION
  2
AcDbLongTransaction
  3
AutoCAD 2000
 90
        0
280
     0
281
     0
  0
CLASS
  1
LWPOLYLINE
  2
AcDbPolyline
  3
AutoCAD 2000
 90
        0
280
     0
281
     1
  0
CLASS
  1
HATCH
  2
AcDbHatch
  3
AutoCAD 2000
 90
        0
280
     0
281
     1
  0
CLASS
  1
XRECORD
  2
AcDbXrecord
  3
AutoCAD 2000
 90
        0
280
     0
281
     0
  0
ENDSEC
  0
SECTION
  2
TABLES
  0
TABLE
  2
VPORT
  5
6E
330
0
100
AcDbSymbolTable
 70
     2
  0
VPORT
  5
215B
330
6E
100
AcDbSymbolTableRecord
100
AcDbViewportTableRecord
  2
*ACTIVE
 70
     0
 10
0.0
 20
0.0
 11
1.0
 21
1.0
 12
376.3338335585812
 22
269.4204362191031
 13
0.0
 23
0.0
 14
10.0
 24
10.0
 15
10.0
 25
10.0
 16
0.0
 26
0.0
 36
1.0
 17
0.0
 27
0.0
 37
0.0
 40
496.0107824253681
 41
1.566970091027308
 42
50.0
 43
0.0
 44
0.0
 50
0.0
 51
0.0
 71
     0
 72
   100
 73
     1
 74
     3
 75
     0
 76
     0
 77
     0
 78
     0
  0
ENDTAB
  0
TABLE
  2
LTYPE
  5
69
330
0
100
AcDbSymbolTable
 70
     4
  0
LTYPE
  5
6A
330
69
100
AcDbSymbolTableRecord
100
AcDbLinetypeTableRecord
  2
BYBLOCK
 70
     0
  3

 72
    65
 73
     0
 40
0.0
  0
LTYPE
  5
6B
330
69
100
AcDbSymbolTableRecord
100
AcDbLinetypeTableRecord
  2
BYLAYER
 70
     0
  3

 72
    65
 73
     0
 40
0.0
  0
LTYPE
  5
8
330
69
100
AcDbSymbolTableRecord
100
AcDbLinetypeTableRecord
  2
CONTINUOUS
 70
     0
  3
Solid line
 72
    65
 73
     0
 40
0.0
  0
LTYPE
  5
27C
330
69
100
AcDbSymbolTableRecord
100
AcDbLinetypeTableRecord
  2
SEKKEI_A2_
 70
     0
  3
center(A2)  ____ _ ____ _ ____ _ ____ _ ____ _ 
 72
    65
 73
     4
 40
14.28749999999999
 49
9.525
 74
     0
 49
-1.587499999999999
 74
     0
 49
1.587499999999999
 74
     0
 49
-1.587499999999999
 74
     0
  0
LTYPE
  5
2B4
330
69
100
AcDbSymbolTableRecord
100
AcDbLinetypeTableRecord
  2
HIDDEN2
 70
     0
  3
Hidden (.5x) _ _ _ _ _ _ _ _ _ _ _ _ _ _ _ _ _
 72
    65
 73
     2
 40
4.762499999999999
 49
3.174999999999999
 74
     0
 49
-1.587499999999999
 74
     0
  0
LTYPE
  5
48F
330
69
100
AcDbSymbolTableRecord
100
AcDbLinetypeTableRecord
  2
SEKKEI_H
 70
     0
  3
Hidden-S _ _ _ _ _ _ _ _ _ _ _ _ _ _ _ _ _
 72
    65
 73
     2
 40
2.381249999999999
 49
1.587499999999999
 74
     0
 49
-0.79375
 74
     0
  0
ENDTAB
  0
TABLE
  2
LAYER
  5
66
330
0
100
AcDbSymbolTable
 70
     9
  0
LAYER
  5
5E
330
66
100
AcDbSymbolTableRecord
100
AcDbLayerTableRecord
  2
0
 70
     0
 62
     7
  6
CONTINUOUS
  0
LAYER
  5
3E
330
66
100
AcDbSymbolTableRecord
100
AcDbLayerTableRecord
  2
CENTER
 70
     0
 62
     3
  6
SEKKEI_A2_
  0
LAYER
  5
4
330
66
100
AcDbSymbolTableRecord
100
AcDbLayerTableRecord
  2
WAKU
 70
     0
 62
     5
  6
CONTINUOUS
  0
LAYER
  5
E4
330
66
100
AcDbSymbolTableRecord
100
AcDbLayerTableRecord
  2
TEXT
 70
     0
 62
     4
  6
CONTINUOUS
  0
LAYER
  5
135
330
66
100
AcDbSymbolTableRecord
100
AcDbLayerTableRecord
  2
DEFPOINTS
 70
     0
 62
     7
  6
CONTINUOUS
  0
LAYER
  5
2B5
330
66
100
AcDbSymbolTableRecord
100
AcDbLayerTableRecord
  2
HIDS
 70
     0
 62
     1
  6
HIDDEN2
  0
LAYER
  5
2BA
330
66
100
AcDbSymbolTableRecord
100
AcDbLayerTableRecord
  2
HOJO
 70
     0
 62
     4
  6
CONTINUOUS
  0
LAYER
  5
3FA
330
66
100
AcDbSymbolTableRecord
100
AcDbLayerTableRecord
  2
TITLE
 70
     0
 62
     4
  6
CONTINUOUS
  0
ENDTAB
  0
TABLE
  2
STYLE
  5
67
330
0
100
AcDbSymbolTable
 70
     1
  0
STYLE
  5
16
330
67
100
AcDbSymbolTableRecord
100
AcDbTextStyleTableRecord
  2
STANDARD
 70
     0
 40
0.0
 41
1.0
 50
0.0
 71
     0
 42
2.0
  3
simplex.shx
  4
extfont.shx
  0
ENDTAB
  0
TABLE
  2
VIEW
  5
6C
330
0
100
AcDbSymbolTable
 70
     0
  0
ENDTAB
  0
TABLE
  2
UCS
  5
6D
330
0
100
AcDbSymbolTable
 70
     0
  0
ENDTAB
  0
TABLE
  2
APPID
  5
70
330
0
100
AcDbSymbolTable
 70
     2
  0
APPID
  5
71
330
70
100
AcDbSymbolTableRecord
100
AcDbRegAppTableRecord
  2
ACAD
 70
     0
  0
APPID
  5
217F
330
70
100
AcDbSymbolTableRecord
100
AcDbRegAppTableRecord
  2
CONTENTBLOCKICON
 70
     0
  0
ENDTAB
  0
TABLE
  2
DIMSTYLE
  5
72
330
0
100
AcDbSymbolTable
 70
     1
  0
DIMSTYLE
105
73
330
72
100
AcDbSymbolTableRecord
100
AcDbDimStyleTableRecord
  2
STANDARD
 70
     0
  3

  4

  5

  6

  7

 40
3.0
 41
1.8
 42
0.625
 43
3.75
 44
0.8
 45
0.0
 46
0.0
 47
0.0
 48
0.0
140
1.8
141
2.5
142
0.0
143
0.0394
144
1.0
145
0.0
146
1.0
147
0.75
 71
     0
 72
     0
 73
     0
 74
     0
 75
     0
 76
     0
 77
     1
 78
     8
170
     0
171
     4
172
     1
173
     0
174
     0
175
     0
176
     0
177
     0
178
     0
270
     8
271
     2
272
     2
273
     8
274
     4
340
16
275
     0
280
     0
281
     0
282
     0
283
     1
284
     0
285
     0
286
     0
287
     3
288
     0
  0
ENDTAB
  0
TABLE
  2
BLOCK_RECORD
  5
1
330
0
100
AcDbSymbolTable
 70
    71
  0
BLOCK_RECORD
  5
2
102
{ACAD_XDICTIONARY
360
217D
102
}
330
1
100
AcDbSymbolTableRecord
100
AcDbBlockTableRecord
  2
*MODEL_SPACE
  0
BLOCK_RECORD
  5
1569
102
{ACAD_XDICTIONARY
360
2180
102
}
330
1
100
AcDbSymbolTableRecord
100
AcDbBlockTableRecord
  2
*PAPER_SPACE
  0
BLOCK_RECORD
  5
40C
330
1
100
AcDbSymbolTableRecord
100
AcDbBlockTableRecord
  2
外寸枠A4テンプレート
1001
CONTENTBLOCKICON
1071
        0
1004
2800000020000000200000000100080000000000000400000000000000000000000000000000000000000000000080000080000000808000800000008000800080800000C0C0C000C0DCC000F0CAA6000020400000206000002080000020A0000020C0000020E00000400000004020000040400000406000004080000040A0
1004
000040C0000040E00000600000006020000060400000606000006080000060A0000060C0000060E00000800000008020000080400000806000008080000080A0000080C0000080E00000A0000000A0200000A0400000A0600000A0800000A0A00000A0C00000A0E00000C0000000C0200000C0400000C0600000C0800000C0
1004
A00000C0C00000C0E00000E0000000E0200000E0400000E0600000E0800000E0A00000E0C00000E0E00040000000400020004000400040006000400080004000A0004000C0004000E00040200000402020004020400040206000402080004020A0004020C0004020E000404000004040200040404000404060004040800040
1004
40A0004040C0004040E00040600000406020004060400040606000406080004060A0004060C0004060E00040800000408020004080400040806000408080004080A0004080C0004080E00040A0000040A0200040A0400040A0600040A0800040A0A00040A0C00040A0E00040C0000040C0200040C0400040C0600040C08000
1004
40C0A00040C0C00040C0E00040E0000040E0200040E0400040E0600040E0800040E0A00040E0C00040E0E00080000000800020008000400080006000800080008000A0008000C0008000E00080200000802020008020400080206000802080008020A0008020C0008020E00080400000804020008040400080406000804080
1004
008040A0008040C0008040E00080600000806020008060400080606000806080008060A0008060C0008060E00080800000808020008080400080806000808080008080A0008080C0008080E00080A0000080A0200080A0400080A0600080A0800080A0A00080A0C00080A0E00080C0000080C0200080C0400080C0600080C0
1004
800080C0A00080C0C00080C0E00080E0000080E0200080E0400080E0600080E0800080E0A00080E0C00080E0E000C0000000C0002000C0004000C0006000C0008000C000A000C000C000C000E000C0200000C0202000C0204000C0206000C0208000C020A000C020C000C020E000C0400000C0402000C0404000C0406000C0
1004
408000C040A000C040C000C040E000C0600000C0602000C0604000C0606000C0608000C060A000C060C000C060E000C0800000C0802000C0804000C0806000C0808000C080A000C080C000C080E000C0A00000C0A02000C0A04000C0A06000C0A08000C0A0A000C0A0C000C0A0E000C0C00000C0C02000C0C04000C0C06000
1004
C0C08000C0C0A000F0FBFF00A4A0A000808080000000FF0000FF000000FFFF00FF000000FF00FF00FFFF0000FFFFFF0000000000000000000000000000000000000000000000000000000000000000000000000000000000000000000000000000000000000000000000000000000000000000000000000000000000000000
1004
000000000000000000000000000000000000000000000000000000000000000000000000000000000000000000000000000000000000000000000000000000000000000000000000000000000000000000000000000000000000000000000000000000000000000000000000000000000000FCFCFCFCFCFCFCFCFCFCFCFCFC
1004
FCFCFCFCFCFCFCFCFEFEFEFDFDFCFDFDFD0000FC0000000000000000000000000000000000000000FDFDFDFDFDFDFDFDFD0000FC0000000000000000000000000000000000000000FDFDFEFEFEFEFDFDFD0000FC0000000000000000000000000000000000000000FDFCFEFEFEFEFCFCFC0000FC0000000000000000000000
1004
0000000000000000000000000000000000FC0000FC00000000000000000000000000000000000000000000000000000000FC0000FC00000000000000000000000000000000000000000000000000000000FC0000FC00000000000000000000000000000000000000000000000000000000FC0000FC00000000000000000000
1004
000000000000000000000000000000000000FC0000FC00000000000000000000000000000000000000000000000000000000FC0000FC00000000000000000000000000000000000000000000000000000000FC0000FC00000000000000000000000000000000000000000000000000000000FC0000FC000000000000000000
1004
00000000000000000000000000000000000000FC0000FC00000000000000000000000000000000000000000000000000000000FC0000FC00000000000000000000000000000000000000000000000000000000FC0000FC00000000000000000000000000000000000000000000000000000000FC0000FC0000000000000000
1004
0000000000000000000000000000000000000000FC0000FC00000000000000000000000000000000000000000000000000000000FC0000FC00000000000000000000000000000000000000000000FCFCFCFCFCFCFC0000FCFCFCFCFCFCFCFCFCFCFCFCFCFCFCFCFCFCFCFCFCFCFCFCFDFCFCFCFCFC00000000000000000000
1004
00000000000000000000000000000000000000000000000000000000000000000000000000000000000000000000000000000000000000000000000000000000000000000000000000000000000000000000000000000000000000000000000000000000000000000000000000000000000000000000000000000000000000
1004
0000000000000000000000000000000000000000000000000000000000000000000000000000000000000000000000000000000000000000
  0
BLOCK_RECORD
  5
4DC
330
1
100
AcDbSymbolTableRecord
100
AcDbBlockTableRecord
  2
1
  0
BLOCK_RECORD
  5
168B
330
1
100
AcDbSymbolTableRecord
100
AcDbBlockTableRecord
  2
GSPEC_H-22T-300-450
  0
BLOCK_RECORD
  5
18FB
330
1
100
AcDbSymbolTableRecord
100
AcDbBlockTableRecord
  2
MSPEC_S40WF-75
  0
BLOCK_RECORD
  5
1925
330
1
100
AcDbSymbolTableRecord
100
AcDbBlockTableRecord
  2
MSPEC_S60F-75
  0
BLOCK_RECORD
  5
194B
330
1
100
AcDbSymbolTableRecord
100
AcDbBlockTableRecord
  2
MSPEC_S60WF-75
  0
BLOCK_RECORD
  5
197A
330
1
100
AcDbSymbolTableRecord
100
AcDbBlockTableRecord
  2
BSPEC_90-90-0038
  0
BLOCK_RECORD
  5
1A13
330
1
100
AcDbSymbolTableRecord
100
AcDbBlockTableRecord
  2
BSPEC_90-45-0038
  0
ENDTAB
  0
ENDSEC
  0
SECTION
  2
BLOCKS
  0
BLOCK
  5
5D
330
2
100
AcDbEntity
  8
0
100
AcDbBlockBegin
  2
*MODEL_SPACE
 70
     0
 10
0.0
 20
0.0
 30
0.0
  3
*MODEL_SPACE
  1

  0
ENDBLK
  5
5F
330
2
100
AcDbEntity
  8
0
100
AcDbBlockEnd
  0
BLOCK
  5
1576
330
1569
100
AcDbEntity
 67
     1
  8
0
100
AcDbBlockBegin
  2
*PAPER_SPACE
 70
     0
 10
0.0
 20
0.0
 30
0.0
  3
*PAPER_SPACE
  1

  0
ENDBLK
  5
1577
330
1569
100
AcDbEntity
 67
     1
  8
0
100
AcDbBlockEnd
  0
BLOCK
  5
463
330
40C
100
AcDbEntity
  8
0
100
AcDbBlockBegin
  2
外寸枠A4テンプレート
 70
     2
 10
0.0
 20
0.0
 30
0.0
  3
外寸枠A4テンプレート
  1

  0
LWPOLYLINE
  5
40D
330
40C
100
AcDbEntity
  8
WAKU
100
AcDbPolyline
 90
        4
 70
     1
 43
0.0
 10
3.0
 20
4.0
 10
280.0
 20
4.0
 10
280.0
 20
194.0
 10
3.0
 20
194.0
  0
LWPOLYLINE
  5
40E
330
40C
100
AcDbEntity
  8
WAKU
100
AcDbPolyline
 90
        4
 70
     1
 43
0.0
 10
3.0
 20
4.0
 10
280.0
 20
4.0
 10
280.0
 20
194.0
 10
3.0
 20
194.0
  0
LINE
  5
40F
330
40C
100
AcDbEntity
  8
WAKU
100
AcDbLine
 10
280.0
 20
182.0
 30
0.0
 11
226.4018178786999
 21
182.0
 31
0.0
  0
TEXT
  5
410
330
40C
100
AcDbEntity
  8
WAKU
 62
     6
100
AcDbText
 10
228.3816999999999
 20
190.11095
 30
0.0
 40
2.1213
  1
REVISIONS
 41
0.7
100
AcDbText
  0
LINE
  5
411
330
40C
100
AcDbEntity
  8
WAKU
100
AcDbLine
 10
226.4018178786999
 20
194.0
 30
0.0
 11
226.4018178786999
 21
181.9999999999999
 31
0.0
  0
LINE
  5
412
330
40C
100
AcDbEntity
  8
WAKU
 62
     6
100
AcDbLine
 10
203.6331999999998
 20
29.0030567071
 30
0.0
 11
280.0
 21
29.0030567071
 31
0.0
  0
LINE
  5
413
330
40C
100
AcDbEntity
  8
WAKU
 62
     6
100
AcDbLine
 10
203.6331999999998
 20
24.47761529289999
 30
0.0
 11
280.0
 21
24.47761529289999
 31
0.0
  0
LINE
  5
414
330
40C
100
AcDbEntity
  8
WAKU
 62
     6
100
AcDbLine
 10
203.6331999999998
 20
19.9521752929
 30
0.0
 11
280.0
 21
19.9521752929
 31
0.0
  0
LINE
  5
415
330
40C
100
AcDbEntity
  8
WAKU
 62
     6
100
AcDbLine
 10
203.6331999999998
 20
15.42673599999999
 30
0.0
 11
280.0
 21
15.42673599999999
 31
0.0
  0
LINE
  5
416
330
40C
100
AcDbEntity
  8
WAKU
 62
     6
100
AcDbLine
 10
203.6331999999998
 20
29.0030567071
 30
0.0
 11
280.0
 21
29.0030567071
 31
0.0
  0
LINE
  5
417
330
40C
100
AcDbEntity
  8
WAKU
 62
     6
100
AcDbLine
 10
203.6331999999998
 20
24.47761529289999
 30
0.0
 11
280.0
 21
24.47761529289999
 31
0.0
  0
LINE
  5
418
330
40C
100
AcDbEntity
  8
WAKU
 62
     6
100
AcDbLine
 10
203.6331999999998
 20
19.9521752929
 30
0.0
 11
280.0
 21
19.9521752929
 31
0.0
  0
LINE
  5
419
330
40C
100
AcDbEntity
  8
WAKU
 62
     6
100
AcDbLine
 10
203.6331999999998
 20
15.42673599999999
 30
0.0
 11
280.0
 21
15.42673599999999
 31
0.0
  0
LINE
  5
41A
330
40C
100
AcDbEntity
  8
WAKU
 62
     6
100
AcDbLine
 10
203.6331999999998
 20
29.0030567071
 30
0.0
 11
280.0
 21
29.0030567071
 31
0.0
  0
LINE
  5
41B
330
40C
100
AcDbEntity
  8
WAKU
 62
     6
100
AcDbLine
 10
203.6331999999998
 20
24.47761529289999
 30
0.0
 11
280.0
 21
24.47761529289999
 31
0.0
  0
LINE
  5
41C
330
40C
100
AcDbEntity
  8
WAKU
 62
     6
100
AcDbLine
 10
203.6331999999998
 20
19.9521752929
 30
0.0
 11
280.0
 21
19.9521752929
 31
0.0
  0
LINE
  5
41D
330
40C
100
AcDbEntity
  8
WAKU
 62
     6
100
AcDbLine
 10
203.6331999999998
 20
15.42673599999999
 30
0.0
 11
280.0
 21
15.42673599999999
 31
0.0
  0
LINE
  5
41E
330
40C
100
AcDbEntity
  8
WAKU
100
AcDbLine
 10
203.6331999999998
 20
38.053936
 30
0.0
 11
280.0
 21
38.053936
 31
0.0
  0
LINE
  5
41F
330
40C
100
AcDbEntity
  8
WAKU
100
AcDbLine
 10
203.6331999999998
 20
38.053936
 30
0.0
 11
280.0
 21
38.053936
 31
0.0
  0
LINE
  5
420
330
40C
100
AcDbEntity
  8
WAKU
100
AcDbLine
 10
203.6331999999998
 20
38.053936
 30
0.0
 11
280.0
 21
38.053936
 31
0.0
  0
TEXT
  5
421
330
40C
100
AcDbEntity
  8
WAKU
 62
     6
100
AcDbText
 10
231.4464545235218
 20
12.856420429
 30
0.0
 40
1.76775
  1
SCALE
 41
0.7
100
AcDbText
  0
TEXT
  5
422
330
40C
100
AcDbEntity
  8
TEXT
100
AcDbText
 10
228.8293221750166
 20
29.96641277760619
 30
0.0
 40
2.5
  1
外　形　寸　法　図
100
AcDbText
  0
ATTDEF
  5
423
330
40C
100
AcDbEntity
  8
TEXT
100
AcDbText
 10
241.8165999999999
 20
35.58735183158626
 30
0.0
 40
2.500000000000001
  1

 72
     4
 11
241.8165999999999
 21
35.58735183158626
 31
0.0
100
AcDbAttributeDefinition
  3
タイトル
  2
T　I　T　L　E
 70
     0
  0
LINE
  5
424
330
40C
100
AcDbEntity
  8
WAKU
100
AcDbLine
 10
203.6331999999998
 20
38.053936
 30
0.0
 11
203.6331999999998
 21
3.999999999999998
 31
0.0
  0
LINE
  5
425
330
40C
100
AcDbEntity
  8
WAKU
100
AcDbLine
 10
203.6331999999998
 20
38.053936
 30
0.0
 11
203.6331999999998
 21
3.999999999999998
 31
0.0
  0
LINE
  5
426
330
40C
100
AcDbEntity
  8
WAKU
100
AcDbLine
 10
203.6331999999998
 20
38.053936
 30
0.0
 11
203.6331999999998
 21
3.999999999999998
 31
0.0
  0
TEXT
  5
427
330
40C
100
AcDbEntity
  8
WAKU
 62
     6
100
AcDbText
 10
204.7645642425999
 20
25.805189179
 30
0.0
 40
2.1213
  1
DRAWING  NO.
 41
0.7
100
AcDbText
  0
TEXT
  5
428
330
40C
100
AcDbEntity
  8
WAKU
 62
     6
100
AcDbText
 10
204.7645642425999
 20
16.75430988609998
 30
0.0
 40
2.1213
  1
NOTICE
 41
0.7
100
AcDbText
  0
TEXT
  5
429
330
40C
100
AcDbEntity
  8
WAKU
 62
     6
100
AcDbText
 10
204.8446469479863
 20
12.674695729
 30
0.0
 40
1.8097340625
  1
APPROVE
 41
0.512174
100
AcDbText
  0
TEXT
  5
42A
330
40C
100
AcDbEntity
  8
WAKU
 62
     6
100
AcDbText
 10
204.7645642425999
 20
21.279749179
 30
0.0
 40
2.1213
  1
USER
 41
0.7
100
AcDbText
  0
TEXT
  5
42B
330
40C
100
AcDbEntity
  8
WAKU
 62
     6
100
AcDbText
 10
222.3147516895863
 20
12.6973292929
 30
0.0
 40
1.7832163983
  1
DESIGN
 41
0.5729449999999999
100
AcDbText
  0
LINE
  5
42C
330
40C
100
AcDbEntity
  8
WAKU
 62
     6
100
AcDbLine
 10
212.3823646725999
 20
15.42673599999999
 30
0.0
 11
212.3823646725999
 21
3.999999999999998
 31
0.0
  0
LINE
  5
42D
330
40C
100
AcDbEntity
  8
WAKU
 62
     6
100
AcDbLine
 10
212.3823646725999
 20
15.42673599999999
 30
0.0
 11
212.3823646725999
 21
3.999999999999998
 31
0.0
  0
LINE
  5
42E
330
40C
100
AcDbEntity
  8
WAKU
 62
     6
100
AcDbLine
 10
212.3823646725999
 20
15.42673599999999
 30
0.0
 11
212.3823646725999
 21
3.999999999999998
 31
0.0
  0
LINE
  5
42F
330
40C
100
AcDbEntity
  8
WAKU
 62
     6
100
AcDbLine
 10
221.1033047415999
 20
15.42673599999999
 30
0.0
 11
221.1033047415999
 21
3.999999999999998
 31
0.0
  0
LINE
  5
430
330
40C
100
AcDbEntity
  8
WAKU
 62
     6
100
AcDbLine
 10
221.1033047415999
 20
15.42673599999999
 30
0.0
 11
221.1033047415999
 21
3.999999999999998
 31
0.0
  0
LINE
  5
431
330
40C
100
AcDbEntity
  8
WAKU
 62
     6
100
AcDbLine
 10
221.1033047415999
 20
15.42673599999999
 30
0.0
 11
221.1033047415999
 21
3.999999999999998
 31
0.0
  0
TEXT
  5
432
330
40C
100
AcDbEntity
  8
WAKU
 62
     6
100
AcDbText
 10
213.5938010140863
 20
12.674695729
 30
0.0
 40
1.76775
  1
CHECK
 41
0.7
100
AcDbText
  0
LINE
  5
433
330
40C
100
AcDbEntity
  8
WAKU
 62
     6
100
AcDbLine
 10
229.8241790502999
 20
15.42673599999999
 30
0.0
 11
229.8241790502999
 21
3.999999999999998
 31
0.0
  0
LINE
  5
434
330
40C
100
AcDbEntity
  8
WAKU
 62
     6
100
AcDbLine
 10
229.8241790502999
 20
15.42673599999999
 30
0.0
 11
229.8241790502999
 21
3.999999999999998
 31
0.0
  0
LINE
  5
435
330
40C
100
AcDbEntity
  8
WAKU
 62
     6
100
AcDbLine
 10
229.8241790502999
 20
15.42673599999999
 30
0.0
 11
229.8241790502999
 21
3.999999999999998
 31
0.0
  0
TEXT
  5
436
330
40C
100
AcDbEntity
  8
WAKU
 62
     6
100
AcDbText
 10
204.7645642425999
 20
35.31568488609999
 30
0.0
 40
2.1213
  1
TITLE
 41
0.7
100
AcDbText
  0
ATTDEF
  5
437
330
40C
100
AcDbEntity
  8
TEXT
100
AcDbText
 10
234.056163734276
 20
8.134449518875573
 30
0.0
 40
2.0
  1

 72
     4
 11
234.056163734276
 21
8.134449518875573
 31
0.0
100
AcDbAttributeDefinition
  3
SCALE
  2
FREE
 70
     0
  0
ATTDEF
  5
438
330
40C
100
AcDbEntity
  8
TEXT
100
AcDbText
 10
207.865184683976
 20
8.134449518875573
 30
0.0
 40
2.500000000000004
  1

 72
     4
 11
207.865184683976
 21
8.134449518875573
 31
0.0
100
AcDbAttributeDefinition
  3
承認
  2
海野
 70
     0
  0
ATTDEF
  5
439
330
40C
100
AcDbEntity
  8
TEXT
100
AcDbText
 10
225.335289425576
 20
8.134449518875575
 30
0.0
 40
2.500000000000004
  1

 72
     4
 11
225.335289425576
 21
8.134449518875575
 31
0.0
100
AcDbAttributeDefinition
  3
作成
  2
鳥居
 70
     0
  0
ATTDEF
  5
43A
330
40C
100
AcDbEntity
  8
TEXT
100
AcDbText
 10
216.614349356576
 20
8.134449518875575
 30
0.0
 40
2.500000000000004
  1

 72
     4
 11
216.614349356576
 21
8.134449518875575
 31
0.0
100
AcDbAttributeDefinition
  3
確認
  2
永坂
 70
     0
  0
LINE
  5
43B
330
40C
100
AcDbEntity
  8
WAKU
 62
     6
100
AcDbLine
 10
238.6487948283999
 20
8.638576
 30
0.0
 11
280.0
 21
8.638576
 31
0.0
  0
LINE
  5
43C
330
40C
100
AcDbEntity
  8
WAKU
 62
     6
100
AcDbLine
 10
238.6487948283999
 20
8.638576
 30
0.0
 11
280.0
 21
8.638576
 31
0.0
  0
LINE
  5
43D
330
40C
100
AcDbEntity
  8
WAKU
 62
     6
100
AcDbLine
 10
238.6487948283999
 20
8.638576
 30
0.0
 11
280.0
 21
8.638576
 31
0.0
  0
TEXT
  5
43E
330
40C
100
AcDbEntity
  8
WAKU
 62
     6
100
AcDbText
 10
241.15294501234
 20
5.246258800300003
 30
0.0
 40
2.1213
  1
NISSEI  CORPORATION
100
AcDbText
  0
LINE
  5
43F
330
40C
100
AcDbEntity
  8
WAKU
100
AcDbLine
 10
246.5683127070999
 20
13.02259600000001
 30
0.0
 11
250.5280769496998
 21
14.01253599999999
 31
0.0
  0
LINE
  5
440
330
40C
100
AcDbEntity
  8
WAKU
100
AcDbLine
 10
246.5683127070999
 20
13.02259600000001
 30
0.0
 11
250.5280769496998
 21
14.01253599999999
 31
0.0
  0
LINE
  5
441
330
40C
100
AcDbEntity
  8
WAKU
100
AcDbLine
 10
246.5683127070999
 20
13.02259600000001
 30
0.0
 11
250.5280769496998
 21
14.01253599999999
 31
0.0
  0
LINE
  5
442
330
40C
100
AcDbEntity
  8
WAKU
100
AcDbLine
 10
246.5683127070999
 20
11.0427152929
 30
0.0
 11
250.5280769496998
 21
10.052776
 31
0.0
  0
LINE
  5
443
330
40C
100
AcDbEntity
  8
WAKU
100
AcDbLine
 10
246.5683127070999
 20
11.0427152929
 30
0.0
 11
250.5280769496998
 21
10.052776
 31
0.0
  0
LINE
  5
444
330
40C
100
AcDbEntity
  8
WAKU
100
AcDbLine
 10
246.5683127070999
 20
11.0427152929
 30
0.0
 11
250.5280769496998
 21
10.052776
 31
0.0
  0
LINE
  5
445
330
40C
100
AcDbEntity
  8
CENTER
 62
     6
100
AcDbLine
 10
239.4478107573998
 20
12.0326567071
 30
0.0
 11
251.3624499999998
 21
12.0326567071
 31
0.0
  0
LINE
  5
446
330
40C
100
AcDbEntity
  8
CENTER
 62
     6
100
AcDbLine
 10
239.4478107573998
 20
12.0326567071
 30
0.0
 11
251.3624499999998
 21
12.0326567071
 31
0.0
  0
LINE
  5
447
330
40C
100
AcDbEntity
  8
CENTER
 62
     6
100
AcDbLine
 10
239.4478107573998
 20
12.0326567071
 30
0.0
 11
251.3624499999998
 21
12.0326567071
 31
0.0
  0
LINE
  5
448
330
40C
100
AcDbEntity
  8
WAKU
 62
     6
100
AcDbLine
 10
238.6487948283999
 20
15.42673599999999
 30
0.0
 11
238.6487948283999
 21
3.999999999999998
 31
0.0
  0
LINE
  5
449
330
40C
100
AcDbEntity
  8
WAKU
 62
     6
100
AcDbLine
 10
238.6487948283999
 20
15.42673599999999
 30
0.0
 11
238.6487948283999
 21
3.999999999999998
 31
0.0
  0
LINE
  5
44A
330
40C
100
AcDbEntity
  8
WAKU
 62
     6
100
AcDbLine
 10
238.6487948283999
 20
15.42673599999999
 30
0.0
 11
238.6487948283999
 21
3.999999999999998
 31
0.0
  0
CIRCLE
  5
44B
330
40C
100
AcDbEntity
  8
WAKU
100
AcDbCircle
 10
242.0428769496999
 20
12.0326567071
 30
0.0
 40
0.9899399999999999
  0
CIRCLE
  5
44C
330
40C
100
AcDbEntity
  8
WAKU
100
AcDbCircle
 10
242.0428769496999
 20
12.0326567071
 30
0.0
 40
0.9899399999999999
  0
CIRCLE
  5
44D
330
40C
100
AcDbEntity
  8
WAKU
100
AcDbCircle
 10
242.0428769496999
 20
12.0326567071
 30
0.0
 40
0.9899399999999999
  0
CIRCLE
  5
44E
330
40C
100
AcDbEntity
  8
WAKU
100
AcDbCircle
 10
242.0428769496999
 20
12.0326567071
 30
0.0
 40
1.979879999999999
  0
CIRCLE
  5
44F
330
40C
100
AcDbEntity
  8
WAKU
100
AcDbCircle
 10
242.0428769496999
 20
12.0326567071
 30
0.0
 40
1.979879999999999
  0
CIRCLE
  5
450
330
40C
100
AcDbEntity
  8
WAKU
100
AcDbCircle
 10
242.0428769496999
 20
12.0326567071
 30
0.0
 40
1.979879999999999
  0
LINE
  5
451
330
40C
100
AcDbEntity
  8
WAKU
100
AcDbLine
 10
246.5683127070999
 20
13.02259600000001
 30
0.0
 11
246.5683127070999
 21
11.0427152929
 31
0.0
  0
LINE
  5
452
330
40C
100
AcDbEntity
  8
WAKU
100
AcDbLine
 10
246.5683127070999
 20
13.02259600000001
 30
0.0
 11
246.5683127070999
 21
11.0427152929
 31
0.0
  0
LINE
  5
453
330
40C
100
AcDbEntity
  8
WAKU
100
AcDbLine
 10
246.5683127070999
 20
13.02259600000001
 30
0.0
 11
246.5683127070999
 21
11.0427152929
 31
0.0
  0
LINE
  5
454
330
40C
100
AcDbEntity
  8
CENTER
 62
     6
100
AcDbLine
 10
242.0428769496999
 20
14.96005
 30
0.0
 11
242.0428769496999
 21
9.267895000000009
 31
0.0
  0
LINE
  5
455
330
40C
100
AcDbEntity
  8
CENTER
 62
     6
100
AcDbLine
 10
242.0428769496999
 20
14.96005
 30
0.0
 11
242.0428769496999
 21
9.267895000000009
 31
0.0
  0
LINE
  5
456
330
40C
100
AcDbEntity
  8
CENTER
 62
     6
100
AcDbLine
 10
242.0428769496999
 20
14.96005
 30
0.0
 11
242.0428769496999
 21
9.267895000000009
 31
0.0
  0
TEXT
  5
457
330
40C
100
AcDbEntity
  8
TEXT
100
AcDbText
 10
257.3078171288039
 20
9.492177985111482
 30
0.0
 40
2.0
  1
mm
100
AcDbText
  0
LINE
  5
458
330
40C
100
AcDbEntity
  8
WAKU
 62
     6
100
AcDbLine
 10
252.2251127070999
 20
15.42673599999999
 30
0.0
 11
252.2251127070999
 21
8.638576
 31
0.0
  0
LINE
  5
459
330
40C
100
AcDbEntity
  8
WAKU
 62
     6
100
AcDbLine
 10
252.2251127070999
 20
15.42673599999999
 30
0.0
 11
252.2251127070999
 21
8.638576
 31
0.0
  0
LINE
  5
45A
330
40C
100
AcDbEntity
  8
WAKU
 62
     6
100
AcDbLine
 10
252.2251127070999
 20
15.42673599999999
 30
0.0
 11
252.2251127070999
 21
8.638576
 31
0.0
  0
LINE
  5
45B
330
40C
100
AcDbEntity
  8
WAKU
100
AcDbLine
 10
250.5280769496998
 20
14.01253599999999
 30
0.0
 11
250.5280769496998
 21
10.052776
 31
0.0
  0
LINE
  5
45C
330
40C
100
AcDbEntity
  8
WAKU
100
AcDbLine
 10
250.5280769496998
 20
14.01253599999999
 30
0.0
 11
250.5280769496998
 21
10.052776
 31
0.0
  0
LINE
  5
45D
330
40C
100
AcDbEntity
  8
WAKU
100
AcDbLine
 10
250.5280769496998
 20
14.01253599999999
 30
0.0
 11
250.5280769496998
 21
10.052776
 31
0.0
  0
TEXT
  5
45E
330
40C
100
AcDbEntity
  8
WAKU
 62
     6
100
AcDbText
 10
253.4130357573999
 20
13.0508792929
 30
0.0
 40
1.76775
  1
UNIT
 41
0.7
100
AcDbText
  0
TEXT
  5
45F
330
40C
100
AcDbEntity
  8
WAKU
 62
     6
100
AcDbText
 10
266.9893642426
 20
13.0508792929
 30
0.0
 40
1.76775
  1
DATE
 41
0.7
100
AcDbText
  0
LINE
  5
460
330
40C
100
AcDbEntity
  8
WAKU
 62
     6
100
AcDbLine
 10
265.7448611715999
 20
15.42673599999999
 30
0.0
 11
265.7448611715999
 21
8.638576
 31
0.0
  0
LINE
  5
461
330
40C
100
AcDbEntity
  8
WAKU
 62
     6
100
AcDbLine
 10
265.7448611715999
 20
15.42673599999999
 30
0.0
 11
265.7448611715999
 21
8.638576
 31
0.0
  0
LINE
  5
462
330
40C
100
AcDbEntity
  8
WAKU
 62
     6
100
AcDbLine
 10
265.7448611715999
 20
15.42673599999999
 30
0.0
 11
265.7448611715999
 21
8.638576
 31
0.0
  0
ENDBLK
  5
464
330
40C
100
AcDbEntity
  8
0
100
AcDbBlockEnd
  0
BLOCK
  5
4DE
330
4DC
100
AcDbEntity
  8
0
100
AcDbBlockBegin
  2
1
 70
     0
 10
0.0
 20
0.0
 30
0.0
  3
1
  1

  0
TEXT
  5
4DD
330
4DC
100
AcDbEntity
  8
0
100
AcDbText
 10
0.0
 20
0.0
 30
0.0
 40
2.0
  1
注。出力軸キーは JIS B 1301-1976平行キーに依ります。
100
AcDbText
  0
ENDBLK
  5
4DF
330
4DC
100
AcDbEntity
  8
0
100
AcDbBlockEnd
  0
BLOCK
  5
16A3
330
168B
100
AcDbEntity
  8
0
100
AcDbBlockBegin
  2
GSPEC_H-22T-300-450
 70
     0
 10
0.0
 20
0.0
 30
0.0
  3
GSPEC_H-22T-300-450
  1

  0
LINE
  5
168C
330
168B
100
AcDbEntity
  8
0
100
AcDbLine
 10
131.0
 20
20.32249999999996
 30
0.0
 11
183.0
 21
20.32249999999996
 31
0.0
  0
LINE
  5
168D
330
168B
100
AcDbEntity
  8
0
100
AcDbLine
 10
131.0
 20
16.78699999999997
 30
0.0
 11
183.0
 21
16.78699999999997
 31
0.0
  0
LINE
  5
168E
330
168B
100
AcDbEntity
  8
0
100
AcDbLine
 10
131.0
 20
23.85799999999994
 30
0.0
 11
183.0
 21
23.85799999999994
 31
0.0
  0
LINE
  5
168F
330
168B
100
AcDbEntity
  8
0
100
AcDbLine
 10
131.0
 20
34.46450000000001
 30
0.0
 11
183.0
 21
34.46450000000001
 31
0.0
  0
LINE
  5
1690
330
168B
100
AcDbEntity
  8
0
100
AcDbLine
 10
131.0
 20
30.929
 30
0.0
 11
183.0
 21
30.92899999999997
 31
0.0
  0
LINE
  5
1691
330
168B
100
AcDbEntity
  8
0
100
AcDbLine
 10
131.0
 20
38.0
 30
0.0
 11
183.0
 21
38.0
 31
0.0
  0
LINE
  5
1692
330
168B
100
AcDbEntity
  8
0
100
AcDbLine
 10
131.0
 20
16.78699999999997
 30
0.0
 11
131.0
 21
38.0
 31
0.0
  0
TEXT
  5
1693
330
168B
100
AcDbEntity
  8
0
100
AcDbText
 10
131.6780944417463
 20
21.02959999999995
 30
0.0
 40
2.0
  1
潤滑
100
AcDbText
  0
TEXT
  5
1694
330
168B
100
AcDbEntity
  8
0
100
AcDbText
 10
131.6780944417462
 20
17.4005422092805
 30
0.0
 40
2.0
  1
塗色
100
AcDbText
  0
TEXT
  5
1695
330
168B
100
AcDbEntity
  8
0
100
AcDbText
 10
131.6780944417462
 20
26.15579327977821
 30
0.0
 40
2.0
  1
減速比
100
AcDbText
  0
TEXT
  5
1696
330
168B
100
AcDbEntity
  8
0
100
AcDbText
 10
131.6780944417462
 20
31.6361
 30
0.0
 40
2.0
  1
枠番
100
AcDbText
  0
TEXT
  5
1697
330
168B
100
AcDbEntity
  8
0
100
AcDbText
 10
131.6780944417462
 20
35.17159999999998
 30
0.0
 40
2.0
  1
名称
100
AcDbText
  0
LINE
  5
1698
330
168B
100
AcDbEntity
  8
0
100
AcDbLine
 10
183.0
 20
16.78699999999997
 30
0.0
 11
183.0
 21
38.0
 31
0.0
  0
LINE
  5
1699
330
168B
100
AcDbEntity
  8
0
100
AcDbLine
 10
142.5
 20
16.78699999999997
 30
0.0
 11
142.5
 21
38.0
 31
0.0
  0
TEXT
  5
169A
330
168B
100
AcDbEntity
  8
0
100
AcDbText
 10
143.3531994322572
 20
28.10060000000001
 30
0.0
 40
2.0
  1
1/300 1/375 1/450 
100
AcDbText
  0
TEXT
  5
169B
330
168B
100
AcDbEntity
  8
0
100
AcDbText
 10
143.3531994322572
 20
17.49409999999994
 30
0.0
 40
2.0
  1
グレー（マンセル値 9B6/0.5）
100
AcDbText
  0
LINE
  5
169C
330
168B
100
AcDbEntity
  8
0
100
AcDbLine
 10
142.5
 20
27.39349999999999
 30
0.0
 11
183.0
 21
27.39349999999999
 31
0.0
  0
TEXT
  5
169D
330
168B
100
AcDbEntity
  8
0
100
AcDbText
 10
143.3531994322572
 20
21.02959999999995
 30
0.0
 40
2.0
  1
グリース
100
AcDbText
  0
LINE
  5
169E
330
168B
100
AcDbEntity
  8
0
100
AcDbLine
 10
150.4725366217368
 20
39.41419999999999
 30
0.0
 11
163.5274633782631
 21
39.41419999999999
 31
0.0
  0
LINE
  5
169F
330
168B
100
AcDbEntity
  8
0
100
AcDbLine
 10
150.4725366217368
 20
40.12129999999999
 30
0.0
 11
163.5274633782631
 21
40.12129999999999
 31
0.0
  0
TEXT
  5
16A0
330
168B
100
AcDbEntity
  8
0
100
AcDbText
 10
151.1299348544099
 20
40.47485
 30
0.0
 40
2.0
  1
減速機仕様
100
AcDbText
  0
TEXT
  5
16A1
330
168B
100
AcDbEntity
  8
0
100
AcDbText
 10
143.3531994322572
 20
31.6361
 30
0.0
 40
2.0
  1
22T
100
AcDbText
  0
TEXT
  5
16A2
330
168B
100
AcDbEntity
  8
0
100
AcDbText
 10
143.3531994322572
 20
35.17159999999998
 30
0.0
 40
2.0
  1
GTR
100
AcDbText
  0
ENDBLK
  5
16A4
330
168B
100
AcDbEntity
  8
0
100
AcDbBlockEnd
  0
BLOCK
  5
191E
330
18FB
100
AcDbEntity
  8
0
100
AcDbBlockBegin
  2
MSPEC_S40WF-75
 70
     0
 10
0.0
 20
0.0
 30
0.0
  3
MSPEC_S40WF-75
  1

  0
LINE
  5
18FC
330
18FB
100
AcDbEntity
  8
0
100
AcDbLine
 10
126.0
 20
6.180499999999994
 30
0.0
 11
126.0
 21
37.99999999999997
 31
0.0
  0
TEXT
  5
18FD
330
18FB
100
AcDbEntity
  8
0
100
AcDbText
 10
86.35319943225727
 20
28.10060000000001
 30
0.0
 40
2.0
  1
40 W
100
AcDbText
  0
TEXT
  5
18FE
330
18FB
100
AcDbEntity
  8
0
100
AcDbText
 10
74.67809444174623
 20
28.10059999999998
 30
0.0
 40
2.0
  1
出力
100
AcDbText
  0
LINE
  5
18FF
330
18FB
100
AcDbEntity
  8
0
100
AcDbLine
 10
85.5
 20
6.180499999999994
 30
0.0
 11
85.5
 21
38.0
 31
0.0
  0
LINE
  5
1900
330
18FB
100
AcDbEntity
  8
0
100
AcDbLine
 10
73.99999999999998
 20
6.180500000000023
 30
0.0
 11
74.0
 21
38.0
 31
0.0
  0
TEXT
  5
1901
330
18FB
100
AcDbEntity
  8
0
100
AcDbText
 10
86.35319943225727
 20
13.95859999999993
 30
0.0
 40
2.0
  1
1500/1800 rpm
100
AcDbText
  0
LINE
  5
1902
330
18FB
100
AcDbEntity
  8
0
100
AcDbLine
 10
74.0
 20
6.180500000000023
 30
0.0
 11
126.0
 21
6.180499999999994
 31
0.0
  0
LINE
  5
1903
330
18FB
100
AcDbEntity
  8
0
100
AcDbLine
 10
74.0
 20
9.716000000000008
 30
0.0
 11
126.0
 21
9.715999999999979
 31
0.0
  0
LINE
  5
1904
330
18FB
100
AcDbEntity
  8
0
100
AcDbLine
 10
74.0
 20
13.25149999999999
 30
0.0
 11
126.0
 21
13.25149999999996
 31
0.0
  0
LINE
  5
1905
330
18FB
100
AcDbEntity
  8
0
100
AcDbLine
 10
74.0
 20
23.85799999999994
 30
0.0
 11
126.0
 21
23.85799999999992
 31
0.0
  0
LINE
  5
1906
330
18FB
100
AcDbEntity
  8
0
100
AcDbLine
 10
74.0
 20
16.78699999999997
 30
0.0
 11
126.0
 21
16.78699999999994
 31
0.0
  0
LINE
  5
1907
330
18FB
100
AcDbEntity
  8
0
100
AcDbLine
 10
74.0
 20
20.32249999999996
 30
0.0
 11
126.0
 21
20.32249999999993
 31
0.0
  0
LINE
  5
1908
330
18FB
100
AcDbEntity
  8
0
100
AcDbLine
 10
74.0
 20
27.39349999999999
 30
0.0
 11
126.0
 21
27.39349999999996
 31
0.0
  0
TEXT
  5
1909
330
18FB
100
AcDbEntity
  8
0
100
AcDbText
 10
86.35319943225727
 20
24.56510000000003
 30
0.0
 40
2.0
  1
200 V
100
AcDbText
  0
TEXT
  5
190A
330
18FB
100
AcDbEntity
  8
0
100
AcDbText
 10
86.35319943225727
 20
21.02959999999995
 30
0.0
 40
2.0
  1
50/60 Hz
100
AcDbText
  0
TEXT
  5
190B
330
18FB
100
AcDbEntity
  8
0
100
AcDbText
 10
74.67809444174623
 20
10.3295422092805
 30
0.0
 40
2.0
  1
定格
100
AcDbText
  0
TEXT
  5
190C
330
18FB
100
AcDbEntity
  8
0
100
AcDbText
 10
74.67809444174623
 20
6.794042209280519
 30
0.0
 40
2.0
  1
絶縁
100
AcDbText
  0
TEXT
  5
190D
330
18FB
100
AcDbEntity
  8
0
100
AcDbText
 10
86.35319943225727
 20
10.42309999999994
 30
0.0
 40
2.0
  1
連続
100
AcDbText
  0
TEXT
  5
190E
330
18FB
100
AcDbEntity
  8
0
100
AcDbText
 10
86.35319943225727
 20
6.887599999999963
 30
0.0
 40
2.0
  1
E種
100
AcDbText
  0
TEXT
  5
190F
330
18FB
100
AcDbEntity
  8
0
100
AcDbText
 10
74.67809444174623
 20
13.86504220928048
 30
0.0
 40
2.0
  1
回転速度
100
AcDbText
  0
TEXT
  5
1910
330
18FB
100
AcDbEntity
  8
0
100
AcDbText
 10
74.67809444174633
 20
21.02959999999995
 30
0.0
 40
2.0
  1
周波数
100
AcDbText
  0
TEXT
  5
1911
330
18FB
100
AcDbEntity
  8
0
100
AcDbText
 10
74.67809444174623
 20
17.4005422092805
 30
0.0
 40
2.0
  1
極数
100
AcDbText
  0
TEXT
  5
1912
330
18FB
100
AcDbEntity
  8
0
100
AcDbText
 10
74.67809444174623
 20
24.56509999999997
 30
0.0
 40
2.0
  1
電圧
100
AcDbText
  0
TEXT
  5
1913
330
18FB
100
AcDbEntity
  8
0
100
AcDbText
 10
86.35319943225727
 20
17.49409999999994
 30
0.0
 40
2.0
  1
4
100
AcDbText
  0
TEXT
  5
1914
330
18FB
100
AcDbEntity
  8
0
100
AcDbText
 10
86.35319943225727
 20
31.6361
 30
0.0
 40
2.0
  1
全閉外扇形（ｺﾝﾃﾞﾝｻﾗﾝ）DS-75
100
AcDbText
  0
LINE
  5
1915
330
18FB
100
AcDbEntity
  8
0
100
AcDbLine
 10
74.0
 20
38.0
 30
0.0
 11
126.0
 21
37.99999999999997
 31
0.0
  0
LINE
  5
1916
330
18FB
100
AcDbEntity
  8
0
100
AcDbLine
 10
74.0
 20
30.929
 30
0.0
 11
126.0
 21
30.92899999999994
 31
0.0
  0
LINE
  5
1917
330
18FB
100
AcDbEntity
  8
0
100
AcDbLine
 10
74.0
 20
34.46450000000001
 30
0.0
 11
126.0
 21
34.46449999999998
 31
0.0
  0
TEXT
  5
1918
330
18FB
100
AcDbEntity
  8
0
100
AcDbText
 10
86.35319943225727
 20
35.17159999999998
 30
0.0
 40
2.0
  1
単相誘導電動機
100
AcDbText
  0
TEXT
  5
1919
330
18FB
100
AcDbEntity
  8
0
100
AcDbText
 10
74.67809444174623
 20
31.6361
 30
0.0
 40
2.0
  1
型式
100
AcDbText
  0
TEXT
  5
191A
330
18FB
100
AcDbEntity
  8
0
100
AcDbText
 10
74.67809444174623
 20
35.17159999999998
 30
0.0
 40
2.0
  1
名称
100
AcDbText
  0
LINE
  5
191B
330
18FB
100
AcDbEntity
  8
0
100
AcDbLine
 10
93.80123573807338
 20
40.12129999999999
 30
0.0
 11
106.1987642619266
 21
40.12129999999999
 31
0.0
  0
LINE
  5
191C
330
18FB
100
AcDbEntity
  8
0
100
AcDbLine
 10
93.80123573807338
 20
39.41419999999999
 30
0.0
 11
106.1987642619266
 21
39.41419999999999
 31
0.0
  0
TEXT
  5
191D
330
18FB
100
AcDbEntity
  8
0
100
AcDbText
 10
93.99902987649658
 20
40.47485
 30
0.0
 40
2.0
  1
モータ仕様
100
AcDbText
  0
ENDBLK
  5
191F
330
18FB
100
AcDbEntity
  8
0
100
AcDbBlockEnd
  0
BLOCK
  5
1948
330
1925
100
AcDbEntity
  8
0
100
AcDbBlockBegin
  2
MSPEC_S60F-75
 70
     0
 10
0.0
 20
0.0
 30
0.0
  3
MSPEC_S60F-75
  1

  0
LINE
  5
1926
330
1925
100
AcDbEntity
  8
0
100
AcDbLine
 10
126.0
 20
6.180499999999994
 30
0.0
 11
126.0
 21
37.99999999999997
 31
0.0
  0
TEXT
  5
1927
330
1925
100
AcDbEntity
  8
0
100
AcDbText
 10
86.35319943225727
 20
28.10060000000001
 30
0.0
 40
2.0
  1
60 W
100
AcDbText
  0
TEXT
  5
1928
330
1925
100
AcDbEntity
  8
0
100
AcDbText
 10
74.67809444174623
 20
28.10059999999998
 30
0.0
 40
2.0
  1
出力
100
AcDbText
  0
LINE
  5
1929
330
1925
100
AcDbEntity
  8
0
100
AcDbLine
 10
85.5
 20
6.180499999999994
 30
0.0
 11
85.5
 21
38.0
 31
0.0
  0
LINE
  5
192A
330
1925
100
AcDbEntity
  8
0
100
AcDbLine
 10
73.99999999999998
 20
6.180500000000023
 30
0.0
 11
74.0
 21
38.0
 31
0.0
  0
TEXT
  5
192B
330
1925
100
AcDbEntity
  8
0
100
AcDbText
 10
86.35319943225727
 20
13.95859999999993
 30
0.0
 40
2.0
  1
1500/1800 rpm
100
AcDbText
  0
LINE
  5
192C
330
1925
100
AcDbEntity
  8
0
100
AcDbLine
 10
74.0
 20
6.180500000000023
 30
0.0
 11
126.0
 21
6.180499999999994
 31
0.0
  0
LINE
  5
192D
330
1925
100
AcDbEntity
  8
0
100
AcDbLine
 10
74.0
 20
9.716000000000008
 30
0.0
 11
126.0
 21
9.715999999999979
 31
0.0
  0
LINE
  5
192E
330
1925
100
AcDbEntity
  8
0
100
AcDbLine
 10
74.0
 20
13.25149999999999
 30
0.0
 11
126.0
 21
13.25149999999996
 31
0.0
  0
LINE
  5
192F
330
1925
100
AcDbEntity
  8
0
100
AcDbLine
 10
74.0
 20
23.85799999999994
 30
0.0
 11
126.0
 21
23.85799999999992
 31
0.0
  0
LINE
  5
1930
330
1925
100
AcDbEntity
  8
0
100
AcDbLine
 10
74.0
 20
16.78699999999997
 30
0.0
 11
126.0
 21
16.78699999999994
 31
0.0
  0
LINE
  5
1931
330
1925
100
AcDbEntity
  8
0
100
AcDbLine
 10
74.0
 20
20.32249999999996
 30
0.0
 11
126.0
 21
20.32249999999993
 31
0.0
  0
LINE
  5
1932
330
1925
100
AcDbEntity
  8
0
100
AcDbLine
 10
74.0
 20
27.39349999999999
 30
0.0
 11
126.0
 21
27.39349999999996
 31
0.0
  0
TEXT
  5
1933
330
1925
100
AcDbEntity
  8
0
100
AcDbText
 10
86.35319943225727
 20
24.56510000000003
 30
0.0
 40
2.0
  1
100 V
100
AcDbText
  0
TEXT
  5
1934
330
1925
100
AcDbEntity
  8
0
100
AcDbText
 10
86.35319943225727
 20
21.02959999999995
 30
0.0
 40
2.0
  1
50/60 Hz
100
AcDbText
  0
TEXT
  5
1935
330
1925
100
AcDbEntity
  8
0
100
AcDbText
 10
74.67809444174623
 20
10.3295422092805
 30
0.0
 40
2.0
  1
定格
100
AcDbText
  0
TEXT
  5
1936
330
1925
100
AcDbEntity
  8
0
100
AcDbText
 10
74.67809444174623
 20
6.794042209280519
 30
0.0
 40
2.0
  1
絶縁
100
AcDbText
  0
TEXT
  5
1937
330
1925
100
AcDbEntity
  8
0
100
AcDbText
 10
86.35319943225727
 20
10.42309999999994
 30
0.0
 40
2.0
  1
連続
100
AcDbText
  0
TEXT
  5
1938
330
1925
100
AcDbEntity
  8
0
100
AcDbText
 10
86.35319943225727
 20
6.887599999999963
 30
0.0
 40
2.0
  1
E種
100
AcDbText
  0
TEXT
  5
1939
330
1925
100
AcDbEntity
  8
0
100
AcDbText
 10
74.67809444174623
 20
13.86504220928048
 30
0.0
 40
2.0
  1
回転速度
100
AcDbText
  0
TEXT
  5
193A
330
1925
100
AcDbEntity
  8
0
100
AcDbText
 10
74.67809444174633
 20
21.02959999999995
 30
0.0
 40
2.0
  1
周波数
100
AcDbText
  0
TEXT
  5
193B
330
1925
100
AcDbEntity
  8
0
100
AcDbText
 10
74.67809444174623
 20
17.4005422092805
 30
0.0
 40
2.0
  1
極数
100
AcDbText
  0
TEXT
  5
193C
330
1925
100
AcDbEntity
  8
0
100
AcDbText
 10
74.67809444174623
 20
24.56509999999997
 30
0.0
 40
2.0
  1
電圧
100
AcDbText
  0
TEXT
  5
193D
330
1925
100
AcDbEntity
  8
0
100
AcDbText
 10
86.35319943225727
 20
17.49409999999994
 30
0.0
 40
2.0
  1
4
100
AcDbText
  0
TEXT
  5
193E
330
1925
100
AcDbEntity
  8
0
100
AcDbText
 10
86.35319943225727
 20
31.6361
 30
0.0
 40
2.0
  1
全閉外扇形（ｺﾝﾃﾞﾝｻﾗﾝ）DS-75
100
AcDbText
  0
LINE
  5
193F
330
1925
100
AcDbEntity
  8
0
100
AcDbLine
 10
74.0
 20
38.0
 30
0.0
 11
126.0
 21
37.99999999999997
 31
0.0
  0
LINE
  5
1940
330
1925
100
AcDbEntity
  8
0
100
AcDbLine
 10
74.0
 20
30.929
 30
0.0
 11
126.0
 21
30.92899999999994
 31
0.0
  0
LINE
  5
1941
330
1925
100
AcDbEntity
  8
0
100
AcDbLine
 10
74.0
 20
34.46450000000001
 30
0.0
 11
126.0
 21
34.46449999999998
 31
0.0
  0
TEXT
  5
1942
330
1925
100
AcDbEntity
  8
0
100
AcDbText
 10
86.35319943225727
 20
35.17159999999998
 30
0.0
 40
2.0
  1
単相誘導電動機
100
AcDbText
  0
TEXT
  5
1943
330
1925
100
AcDbEntity
  8
0
100
AcDbText
 10
74.67809444174623
 20
31.6361
 30
0.0
 40
2.0
  1
型式
100
AcDbText
  0
TEXT
  5
1944
330
1925
100
AcDbEntity
  8
0
100
AcDbText
 10
74.67809444174623
 20
35.17159999999998
 30
0.0
 40
2.0
  1
名称
100
AcDbText
  0
LINE
  5
1945
330
1925
100
AcDbEntity
  8
0
100
AcDbLine
 10
93.80123573807338
 20
40.12129999999999
 30
0.0
 11
106.1987642619266
 21
40.12129999999999
 31
0.0
  0
LINE
  5
1946
330
1925
100
AcDbEntity
  8
0
100
AcDbLine
 10
93.80123573807338
 20
39.41419999999999
 30
0.0
 11
106.1987642619266
 21
39.41419999999999
 31
0.0
  0
TEXT
  5
1947
330
1925
100
AcDbEntity
  8
0
100
AcDbText
 10
93.99902987649658
 20
40.47485
 30
0.0
 40
2.0
  1
モータ仕様
100
AcDbText
  0
ENDBLK
  5
1949
330
1925
100
AcDbEntity
  8
0
100
AcDbBlockEnd
  0
BLOCK
  5
196E
330
194B
100
AcDbEntity
  8
0
100
AcDbBlockBegin
  2
MSPEC_S60WF-75
 70
     0
 10
0.0
 20
0.0
 30
0.0
  3
MSPEC_S60WF-75
  1

  0
LINE
  5
194C
330
194B
100
AcDbEntity
  8
0
100
AcDbLine
 10
126.0
 20
6.180499999999994
 30
0.0
 11
126.0
 21
37.99999999999997
 31
0.0
  0
TEXT
  5
194D
330
194B
100
AcDbEntity
  8
0
100
AcDbText
 10
86.35319943225727
 20
28.10060000000001
 30
0.0
 40
2.0
  1
60 W
100
AcDbText
  0
TEXT
  5
194E
330
194B
100
AcDbEntity
  8
0
100
AcDbText
 10
74.67809444174623
 20
28.10059999999998
 30
0.0
 40
2.0
  1
出力
100
AcDbText
  0
LINE
  5
194F
330
194B
100
AcDbEntity
  8
0
100
AcDbLine
 10
85.5
 20
6.180499999999994
 30
0.0
 11
85.5
 21
38.0
 31
0.0
  0
LINE
  5
1950
330
194B
100
AcDbEntity
  8
0
100
AcDbLine
 10
73.99999999999998
 20
6.180500000000023
 30
0.0
 11
74.0
 21
38.0
 31
0.0
  0
TEXT
  5
1951
330
194B
100
AcDbEntity
  8
0
100
AcDbText
 10
86.35319943225727
 20
13.95859999999993
 30
0.0
 40
2.0
  1
1500/1800 rpm
100
AcDbText
  0
LINE
  5
1952
330
194B
100
AcDbEntity
  8
0
100
AcDbLine
 10
74.0
 20
6.180500000000023
 30
0.0
 11
126.0
 21
6.180499999999994
 31
0.0
  0
LINE
  5
1953
330
194B
100
AcDbEntity
  8
0
100
AcDbLine
 10
74.0
 20
9.716000000000008
 30
0.0
 11
126.0
 21
9.715999999999979
 31
0.0
  0
LINE
  5
1954
330
194B
100
AcDbEntity
  8
0
100
AcDbLine
 10
74.0
 20
13.25149999999999
 30
0.0
 11
126.0
 21
13.25149999999996
 31
0.0
  0
LINE
  5
1955
330
194B
100
AcDbEntity
  8
0
100
AcDbLine
 10
74.0
 20
23.85799999999994
 30
0.0
 11
126.0
 21
23.85799999999992
 31
0.0
  0
LINE
  5
1956
330
194B
100
AcDbEntity
  8
0
100
AcDbLine
 10
74.0
 20
16.78699999999997
 30
0.0
 11
126.0
 21
16.78699999999994
 31
0.0
  0
LINE
  5
1957
330
194B
100
AcDbEntity
  8
0
100
AcDbLine
 10
74.0
 20
20.32249999999996
 30
0.0
 11
126.0
 21
20.32249999999993
 31
0.0
  0
LINE
  5
1958
330
194B
100
AcDbEntity
  8
0
100
AcDbLine
 10
74.0
 20
27.39349999999999
 30
0.0
 11
126.0
 21
27.39349999999996
 31
0.0
  0
TEXT
  5
1959
330
194B
100
AcDbEntity
  8
0
100
AcDbText
 10
86.35319943225727
 20
24.56510000000003
 30
0.0
 40
2.0
  1
200 V
100
AcDbText
  0
TEXT
  5
195A
330
194B
100
AcDbEntity
  8
0
100
AcDbText
 10
86.35319943225727
 20
21.02959999999995
 30
0.0
 40
2.0
  1
50/60 Hz
100
AcDbText
  0
TEXT
  5
195B
330
194B
100
AcDbEntity
  8
0
100
AcDbText
 10
74.67809444174623
 20
10.3295422092805
 30
0.0
 40
2.0
  1
定格
100
AcDbText
  0
TEXT
  5
195C
330
194B
100
AcDbEntity
  8
0
100
AcDbText
 10
74.67809444174623
 20
6.794042209280519
 30
0.0
 40
2.0
  1
絶縁
100
AcDbText
  0
TEXT
  5
195D
330
194B
100
AcDbEntity
  8
0
100
AcDbText
 10
86.35319943225727
 20
10.42309999999994
 30
0.0
 40
2.0
  1
連続
100
AcDbText
  0
TEXT
  5
195E
330
194B
100
AcDbEntity
  8
0
100
AcDbText
 10
86.35319943225727
 20
6.887599999999963
 30
0.0
 40
2.0
  1
E種
100
AcDbText
  0
TEXT
  5
195F
330
194B
100
AcDbEntity
  8
0
100
AcDbText
 10
74.67809444174623
 20
13.86504220928048
 30
0.0
 40
2.0
  1
回転速度
100
AcDbText
  0
TEXT
  5
1960
330
194B
100
AcDbEntity
  8
0
100
AcDbText
 10
74.67809444174633
 20
21.02959999999995
 30
0.0
 40
2.0
  1
周波数
100
AcDbText
  0
TEXT
  5
1961
330
194B
100
AcDbEntity
  8
0
100
AcDbText
 10
74.67809444174623
 20
17.4005422092805
 30
0.0
 40
2.0
  1
極数
100
AcDbText
  0
TEXT
  5
1962
330
194B
100
AcDbEntity
  8
0
100
AcDbText
 10
74.67809444174623
 20
24.56509999999997
 30
0.0
 40
2.0
  1
電圧
100
AcDbText
  0
TEXT
  5
1963
330
194B
100
AcDbEntity
  8
0
100
AcDbText
 10
86.35319943225727
 20
17.49409999999994
 30
0.0
 40
2.0
  1
4
100
AcDbText
  0
TEXT
  5
1964
330
194B
100
AcDbEntity
  8
0
100
AcDbText
 10
86.35319943225727
 20
31.6361
 30
0.0
 40
2.0
  1
全閉外扇形（ｺﾝﾃﾞﾝｻﾗﾝ）DS-75
100
AcDbText
  0
LINE
  5
1965
330
194B
100
AcDbEntity
  8
0
100
AcDbLine
 10
74.0
 20
38.0
 30
0.0
 11
126.0
 21
37.99999999999997
 31
0.0
  0
LINE
  5
1966
330
194B
100
AcDbEntity
  8
0
100
AcDbLine
 10
74.0
 20
30.929
 30
0.0
 11
126.0
 21
30.92899999999994
 31
0.0
  0
LINE
  5
1967
330
194B
100
AcDbEntity
  8
0
100
AcDbLine
 10
74.0
 20
34.46450000000001
 30
0.0
 11
126.0
 21
34.46449999999998
 31
0.0
  0
TEXT
  5
1968
330
194B
100
AcDbEntity
  8
0
100
AcDbText
 10
86.35319943225727
 20
35.17159999999998
 30
0.0
 40
2.0
  1
単相誘導電動機
100
AcDbText
  0
TEXT
  5
1969
330
194B
100
AcDbEntity
  8
0
100
AcDbText
 10
74.67809444174623
 20
31.6361
 30
0.0
 40
2.0
  1
型式
100
AcDbText
  0
TEXT
  5
196A
330
194B
100
AcDbEntity
  8
0
100
AcDbText
 10
74.67809444174623
 20
35.17159999999998
 30
0.0
 40
2.0
  1
名称
100
AcDbText
  0
LINE
  5
196B
330
194B
100
AcDbEntity
  8
0
100
AcDbLine
 10
93.80123573807338
 20
40.12129999999999
 30
0.0
 11
106.1987642619266
 21
40.12129999999999
 31
0.0
  0
LINE
  5
196C
330
194B
100
AcDbEntity
  8
0
100
AcDbLine
 10
93.80123573807338
 20
39.41419999999999
 30
0.0
 11
106.1987642619266
 21
39.41419999999999
 31
0.0
  0
TEXT
  5
196D
330
194B
100
AcDbEntity
  8
0
100
AcDbText
 10
93.99902987649658
 20
40.47485
 30
0.0
 40
2.0
  1
モータ仕様
100
AcDbText
  0
ENDBLK
  5
196F
330
194B
100
AcDbEntity
  8
0
100
AcDbBlockEnd
  0
BLOCK
  5
1991
330
197A
100
AcDbEntity
  8
0
100
AcDbBlockBegin
  2
BSPEC_90-90-0038
 70
     0
 10
0.0
 20
0.0
 30
0.0
  3
BSPEC_90-90-0038
  1

  0
TEXT
  5
197B
330
197A
100
AcDbEntity
  8
0
100
AcDbText
 10
35.94757247309064
 20
40.47485
 30
0.0
 40
2.0
  1
ブレーキ仕様
100
AcDbText
  0
LINE
  5
197C
330
197A
100
AcDbEntity
  8
0
100
AcDbLine
 10
35.94757247309064
 20
40.12129999999999
 30
0.0
 11
50.05242752690936
 21
40.12129999999999
 31
0.0
  0
LINE
  5
197D
330
197A
100
AcDbEntity
  8
0
100
AcDbLine
 10
35.94757247309064
 20
39.41419999999999
 30
0.0
 11
50.05242752690936
 21
39.41419999999999
 31
0.0
  0
TEXT
  5
197E
330
197A
100
AcDbEntity
  8
0
100
AcDbText
 10
29.35319943225727
 20
21.29776682820352
 30
0.0
 40
2.0
  1
0.37N・m（0.038kgf・m）
100
AcDbText
  0
TEXT
  5
197F
330
197A
100
AcDbEntity
  8
0
100
AcDbText
 10
29.35319943225727
 20
24.56510000000003
 30
0.0
 40
2.0
  1
12 W （於75℃）
100
AcDbText
  0
TEXT
  5
1980
330
197A
100
AcDbEntity
  8
0
100
AcDbText
 10
29.35319943225727
 20
31.6361
 30
0.0
 40
2.0
  1
無励磁作動形（スプリングクローズ）
100
AcDbText
  0
LINE
  5
1981
330
197A
100
AcDbEntity
  8
0
100
AcDbLine
 10
17.0
 20
20.32249999999996
 30
0.0
 11
69.0
 21
20.32249999999996
 31
0.0
  0
LINE
  5
1982
330
197A
100
AcDbEntity
  8
0
100
AcDbLine
 10
17.0
 20
23.85799999999994
 30
0.0
 11
69.0
 21
23.85799999999994
 31
0.0
  0
LINE
  5
1983
330
197A
100
AcDbEntity
  8
0
100
AcDbLine
 10
17.0
 20
27.39349999999999
 30
0.0
 11
69.0
 21
27.39349999999999
 31
0.0
  0
LINE
  5
1984
330
197A
100
AcDbEntity
  8
0
100
AcDbLine
 10
17.0
 20
30.929
 30
0.0
 11
69.0
 21
30.92899999999997
 31
0.0
  0
LINE
  5
1985
330
197A
100
AcDbEntity
  8
0
100
AcDbLine
 10
17.0
 20
34.46450000000001
 30
0.0
 11
69.0
 21
34.46450000000001
 31
0.0
  0
LINE
  5
1986
330
197A
100
AcDbEntity
  8
0
100
AcDbLine
 10
17.0
 20
38.0
 30
0.0
 11
69.0
 21
38.0
 31
0.0
  0
TEXT
  5
1987
330
197A
100
AcDbEntity
  8
0
100
AcDbText
 10
29.35319943225727
 20
28.10060000000001
 30
0.0
 40
2.0
  1
DC 90V
100
AcDbText
  0
TEXT
  5
1988
330
197A
100
AcDbEntity
  8
0
100
AcDbText
 10
17.67809444174622
 20
28.10059999999998
 30
0.0
 40
2.0
  1
入力電圧
100
AcDbText
  0
LINE
  5
1989
330
197A
100
AcDbEntity
  8
0
100
AcDbLine
 10
28.5
 20
20.32249999999996
 30
0.0
 11
28.5
 21
38.0
 31
0.0
  0
LINE
  5
198A
330
197A
100
AcDbEntity
  8
0
100
AcDbLine
 10
17.0
 20
20.32249999999996
 30
0.0
 11
17.0
 21
38.0
 31
0.0
  0
TEXT
  5
198B
330
197A
100
AcDbEntity
  8
0
100
AcDbText
 10
17.67809444174622
 20
20.93604220928048
 30
0.0
 40
2.0
  1
定格トルク
 41
0.85
100
AcDbText
  0
TEXT
  5
198C
330
197A
100
AcDbEntity
  8
0
100
AcDbText
 10
17.67809444174622
 20
24.56509999999994
 30
0.0
 40
2.0
  1
容量
100
AcDbText
  0
TEXT
  5
198D
330
197A
100
AcDbEntity
  8
0
100
AcDbText
 10
17.67809444174622
 20
35.17159999999998
 30
0.0
 40
2.0
  1
型式
100
AcDbText
  0
TEXT
  5
198E
330
197A
100
AcDbEntity
  8
0
100
AcDbText
 10
17.67809444174622
 20
31.6361
 30
0.0
 40
2.0
  1
方式
100
AcDbText
  0
TEXT
  5
198F
330
197A
100
AcDbEntity
  8
0
100
AcDbText
 10
29.35319943225727
 20
35.17159999999998
 30
0.0
 40
2.0
  1
BS-90
100
AcDbText
  0
LINE
  5
1990
330
197A
100
AcDbEntity
  8
0
100
AcDbLine
 10
69.0
 20
20.32249999999996
 30
0.0
 11
69.0
 21
38.0
 31
0.0
  0
ENDBLK
  5
1992
330
197A
100
AcDbEntity
  8
0
100
AcDbBlockEnd
  0
BLOCK
  5
1A2A
330
1A13
100
AcDbEntity
  8
0
100
AcDbBlockBegin
  2
BSPEC_90-45-0038
 70
     0
 10
0.0
 20
0.0
 30
0.0
  3
BSPEC_90-45-0038
  1

  0
TEXT
  5
1A14
330
1A13
100
AcDbEntity
  8
0
100
AcDbText
 10
35.94757247309064
 20
40.47485
 30
0.0
 40
2.0
  1
ブレーキ仕様
100
AcDbText
  0
LINE
  5
1A15
330
1A13
100
AcDbEntity
  8
0
100
AcDbLine
 10
35.94757247309064
 20
40.12129999999999
 30
0.0
 11
50.05242752690936
 21
40.12129999999999
 31
0.0
  0
LINE
  5
1A16
330
1A13
100
AcDbEntity
  8
0
100
AcDbLine
 10
35.94757247309064
 20
39.41419999999999
 30
0.0
 11
50.05242752690936
 21
39.41419999999999
 31
0.0
  0
TEXT
  5
1A17
330
1A13
100
AcDbEntity
  8
0
100
AcDbText
 10
29.35319943225727
 20
21.29776682820352
 30
0.0
 40
2.0
  1
0.37N・m（0.038kgf・m）
100
AcDbText
  0
TEXT
  5
1A18
330
1A13
100
AcDbEntity
  8
0
100
AcDbText
 10
29.35319943225727
 20
24.56510000000003
 30
0.0
 40
2.0
  1
10 W （於75℃）
100
AcDbText
  0
TEXT
  5
1A19
330
1A13
100
AcDbEntity
  8
0
100
AcDbText
 10
29.35319943225727
 20
31.6361
 30
0.0
 40
2.0
  1
無励磁作動形（スプリングクローズ）
100
AcDbText
  0
LINE
  5
1A1A
330
1A13
100
AcDbEntity
  8
0
100
AcDbLine
 10
17.0
 20
20.32249999999996
 30
0.0
 11
69.0
 21
20.32249999999996
 31
0.0
  0
LINE
  5
1A1B
330
1A13
100
AcDbEntity
  8
0
100
AcDbLine
 10
17.0
 20
23.85799999999994
 30
0.0
 11
69.0
 21
23.85799999999994
 31
0.0
  0
LINE
  5
1A1C
330
1A13
100
AcDbEntity
  8
0
100
AcDbLine
 10
17.0
 20
27.39349999999999
 30
0.0
 11
69.0
 21
27.39349999999999
 31
0.0
  0
LINE
  5
1A1D
330
1A13
100
AcDbEntity
  8
0
100
AcDbLine
 10
17.0
 20
30.929
 30
0.0
 11
69.0
 21
30.92899999999997
 31
0.0
  0
LINE
  5
1A1E
330
1A13
100
AcDbEntity
  8
0
100
AcDbLine
 10
17.0
 20
34.46450000000001
 30
0.0
 11
69.0
 21
34.46450000000001
 31
0.0
  0
LINE
  5
1A1F
330
1A13
100
AcDbEntity
  8
0
100
AcDbLine
 10
17.0
 20
38.0
 30
0.0
 11
69.0
 21
38.0
 31
0.0
  0
TEXT
  5
1A20
330
1A13
100
AcDbEntity
  8
0
100
AcDbText
 10
29.35319943225727
 20
28.10060000000001
 30
0.0
 40
2.0
  1
DC 45V
100
AcDbText
  0
TEXT
  5
1A21
330
1A13
100
AcDbEntity
  8
0
100
AcDbText
 10
17.67809444174622
 20
28.10059999999998
 30
0.0
 40
2.0
  1
入力電圧
100
AcDbText
  0
LINE
  5
1A22
330
1A13
100
AcDbEntity
  8
0
100
AcDbLine
 10
28.5
 20
20.32249999999996
 30
0.0
 11
28.5
 21
38.0
 31
0.0
  0
LINE
  5
1A23
330
1A13
100
AcDbEntity
  8
0
100
AcDbLine
 10
17.0
 20
20.32249999999996
 30
0.0
 11
17.0
 21
38.0
 31
0.0
  0
TEXT
  5
1A24
330
1A13
100
AcDbEntity
  8
0
100
AcDbText
 10
17.67809444174622
 20
20.93604220928048
 30
0.0
 40
2.0
  1
定格トルク
 41
0.85
100
AcDbText
  0
TEXT
  5
1A25
330
1A13
100
AcDbEntity
  8
0
100
AcDbText
 10
17.67809444174622
 20
24.56509999999994
 30
0.0
 40
2.0
  1
容量
100
AcDbText
  0
TEXT
  5
1A26
330
1A13
100
AcDbEntity
  8
0
100
AcDbText
 10
17.67809444174622
 20
35.17159999999998
 30
0.0
 40
2.0
  1
型式
100
AcDbText
  0
TEXT
  5
1A27
330
1A13
100
AcDbEntity
  8
0
100
AcDbText
 10
17.67809444174622
 20
31.6361
 30
0.0
 40
2.0
  1
方式
100
AcDbText
  0
TEXT
  5
1A28
330
1A13
100
AcDbEntity
  8
0
100
AcDbText
 10
29.35319943225727
 20
35.17159999999998
 30
0.0
 40
2.0
  1
BS-90
100
AcDbText
  0
LINE
  5
1A29
330
1A13
100
AcDbEntity
  8
0
100
AcDbLine
 10
69.0
 20
20.32249999999996
 30
0.0
 11
69.0
 21
38.0
 31
0.0
  0
ENDBLK
  5
1A2B
330
1A13
100
AcDbEntity
  8
0
100
AcDbBlockEnd
  0
ENDSEC
  0
SECTION
  2
ENTITIES
  0
LINE
  5
6B7
330
2
100
AcDbEntity
  8
0
100
AcDbLine
 10
361.2066916899972
 20
357.4643027756156
 30
0.0
 11
390.6447716899972
 21
357.4643027756156
 31
0.0
  0
LINE
  5
6B8
330
2
100
AcDbEntity
  8
0
100
AcDbLine
 10
322.5138506899972
 20
463.4643027756156
 30
0.0
 11
372.8995326899972
 21
463.4643027756156
 31
0.0
  0
LINE
  5
6B9
330
2
100
AcDbEntity
  8
0
100
AcDbLine
 10
322.5138506899972
 20
367.4643027756155
 30
0.0
 11
372.8995326899972
 21
367.4643027756155
 31
0.0
  0
LINE
  5
6BA
330
2
100
AcDbEntity
  8
0
100
AcDbLine
 10
390.6447716899972
 20
473.4643027756155
 30
0.0
 11
361.2066916899972
 21
473.4643027756155
 31
0.0
  0
LINE
  5
6BB
330
2
100
AcDbEntity
  8
0
100
AcDbLine
 10
296.4886586899972
 20
383.4643027756155
 30
0.0
 11
395.2346456899972
 21
383.4643027756155
 31
0.0
  0
LINE
  5
6BC
330
2
100
AcDbEntity
  8
0
100
AcDbLine
 10
296.4886586899972
 20
447.4643027756155
 30
0.0
 11
395.2346456899972
 21
447.4643027756155
 31
0.0
  0
LINE
  5
6BD
330
2
100
AcDbEntity
  8
CENTER
100
AcDbLine
 10
48.45680368999729
 20
415.4643027756156
 30
0.0
 11
410.7066916899971
 21
415.4643027756155
 31
0.0
  0
ARC
  5
6BE
330
2
100
AcDbEntity
  8
0
100
AcDbCircle
 10
347.7066916899972
 20
174.1742196871732
 30
0.0
 40
30.15
100
AcDbArc
 50
172.447403
 51
7.552696999999989
  0
ARC
  5
6BF
330
2
100
AcDbEntity
  8
0
100
AcDbCircle
 10
364.4566916899972
 20
132.6742196871732
 30
0.0
 40
19.0
100
AcDbArc
 50
270.0
 51
7.552700000000432
  0
ARC
  5
6C0
330
2
100
AcDbEntity
  8
0
100
AcDbCircle
 10
364.4566916899972
 20
132.6742196871732
 30
0.0
 40
20.6
100
AcDbArc
 50
270.0
 51
7.552700000000432
  0
ARC
  5
6C1
330
2
100
AcDbEntity
  8
0
100
AcDbCircle
 10
347.7066916899972
 20
174.1742196871732
 30
0.0
 40
31.75
100
AcDbArc
 50
7.552696999999989
 51
172.447403
  0
CIRCLE
  5
6C2
330
2
100
AcDbEntity
  8
0
100
AcDbCircle
 10
347.7066916899972
 20
174.1742196871732
 30
0.0
 40
27.5
  0
LINE
  5
6C4
330
2
100
AcDbEntity
  8
0
100
AcDbLine
 10
398.5656696899972
 20
197.6664606871732
 30
0.0
 11
368.9950826899972
 21
218.2762016871732
 31
0.0
  0
LINE
  5
6C5
330
2
100
AcDbEntity
  8
0
100
AcDbLine
 10
294.7066766899972
 20
69.17422168717326
 30
0.0
 11
400.7066916899971
 21
69.17422168717326
 31
0.0
  0
LINE
  5
6C6
330
2
100
AcDbEntity
  8
CENTER
100
AcDbLine
 10
305.6787905118194
 20
174.1742196871732
 30
0.0
 11
389.7345735735344
 21
174.1742196871732
 31
0.0
  0
LINE
  5
6C7
330
2
100
AcDbEntity
  8
CENTER
100
AcDbLine
 10
48.45668168999726
 20
132.6742196871732
 30
0.0
 11
315.7066916899972
 21
132.6742196871732
 31
0.0
  0
LINE
  5
6C8
330
2
100
AcDbEntity
  8
0
100
AcDbLine
 10
116.9566806899972
 20
102.4252426871732
 30
0.0
 11
222.9566766899972
 21
102.4252426871732
 31
0.0
  0
LINE
  5
6C9
330
2
100
AcDbEntity
  8
0
100
AcDbLine
 10
116.9566806899972
 20
162.9232056871732
 30
0.0
 11
222.9566766899972
 21
162.9232056871732
 31
0.0
  0
LINE
  5
6CA
330
2
100
AcDbEntity
  8
0
100
AcDbLine
 10
116.9566806899972
 20
94.67424268717326
 30
0.0
 11
230.9566766899972
 21
94.67424268717326
 31
0.0
  0
LINE
  5
6CB
330
2
100
AcDbEntity
  8
0
100
AcDbLine
 10
116.9566806899972
 20
170.6742046871732
 30
0.0
 11
230.9566766899972
 21
170.6742046871732
 31
0.0
  0
LINE
  5
6CC
330
2
100
AcDbEntity
  8
0
100
AcDbLine
 10
116.9566806899972
 20
94.67422168717325
 30
0.0
 11
116.9566806899972
 21
170.6742046871732
 31
0.0
  0
LINE
  5
6CD
330
2
100
AcDbEntity
  8
0
100
AcDbLine
 10
58.45668168999726
 20
97.67420068717326
 30
0.0
 11
58.45668168999726
 21
167.6742046871732
 31
0.0
  0
LINE
  5
6CE
330
2
100
AcDbEntity
  8
0
100
AcDbLine
 10
107.4566806899972
 20
92.67420068717326
 30
0.0
 11
107.4566806899972
 21
172.6742046871732
 31
0.0
  0
LINE
  5
6D0
330
2
100
AcDbEntity
  8
0
100
AcDbLine
 10
60.95668168999726
 20
108.6742006871732
 30
0.0
 11
107.4566806899972
 21
108.6742006871732
 31
0.0
  0
LINE
  5
6D1
330
2
100
AcDbEntity
  8
0
100
AcDbLine
 10
63.45668168999726
 20
92.67420068717326
 30
0.0
 11
107.4566806899972
 21
92.67420068717326
 31
0.0
  0
ARC
  5
6D2
330
2
100
AcDbEntity
  8
0
100
AcDbCircle
 10
63.45668168999726
 20
97.67420068717326
 30
0.0
 40
5.0
100
AcDbArc
 50
180.0
 51
270.0
  0
LINE
  5
6D3
330
2
100
AcDbEntity
  8
0
100
AcDbLine
 10
107.4566806899972
 20
102.4252006871732
 30
0.0
 11
116.9566806899972
 21
102.4252006871732
 31
0.0
  0
LINE
  5
6D4
330
2
100
AcDbEntity
  8
0
100
AcDbLine
 10
107.4566806899972
 20
94.67420068717325
 30
0.0
 11
116.9566806899972
 21
94.67420068717325
 31
0.0
  0
LINE
  5
6D5
330
2
100
AcDbEntity
  8
0
100
AcDbLine
 10
60.95668168999726
 20
158.6742046871732
 30
0.0
 11
107.4566806899972
 21
158.6742046871732
 31
0.0
  0
LINE
  5
6D6
330
2
100
AcDbEntity
  8
0
100
AcDbLine
 10
63.45668168999726
 20
172.6742046871732
 30
0.0
 11
107.4566806899972
 21
172.6742046871732
 31
0.0
  0
ARC
  5
6D7
330
2
100
AcDbEntity
  8
0
100
AcDbCircle
 10
63.45668168999726
 20
167.6742046871732
 30
0.0
 40
5.0
100
AcDbArc
 50
90.0
 51
180.0
  0
LINE
  5
6D8
330
2
100
AcDbEntity
  8
0
100
AcDbLine
 10
107.4566806899972
 20
162.9232056871732
 30
0.0
 11
116.9566806899972
 21
162.9232056871732
 31
0.0
  0
LINE
  5
6DB
330
2
100
AcDbEntity
  8
0
100
AcDbLine
 10
107.4566806899972
 20
170.6742046871732
 30
0.0
 11
116.9566806899972
 21
170.6742046871732
 31
0.0
  0
ARC
  5
6DC
330
2
100
AcDbEntity
  8
0
100
AcDbCircle
 10
107.4566806899972
 20
157.0432996871732
 30
0.0
 40
4.5
100
AcDbArc
 50
0.0
 51
90.0
  0
LINE
  5
6DD
330
2
100
AcDbEntity
  8
0
100
AcDbLine
 10
111.9566806899972
 20
157.0432996871732
 30
0.0
 11
111.9566806899972
 21
152.5432996871732
 31
0.0
  0
LINE
  5
6DE
330
2
100
AcDbEntity
  8
0
100
AcDbLine
 10
110.4566806899972
 20
157.0432996871732
 30
0.0
 11
110.4566806899972
 21
152.5432996871732
 31
0.0
  0
LINE
  5
6DF
330
2
100
AcDbEntity
  8
0
100
AcDbLine
 10
108.9566806899972
 20
157.0432996871732
 30
0.0
 11
108.9566806899972
 21
152.0277046871732
 31
0.0
  0
LINE
  5
6E0
330
2
100
AcDbEntity
  8
HOJO
100
AcDbLine
 10
108.9566806899972
 20
152.0432996871732
 30
0.0
 11
110.4566806899972
 21
152.5432996871732
 31
0.0
  0
LINE
  5
6E1
330
2
100
AcDbEntity
  8
HOJO
100
AcDbLine
 10
110.4566806899972
 20
153.0432996871732
 30
0.0
 11
111.9566806899972
 21
152.5432996871732
 31
0.0
  0
ARC
  5
6E2
330
2
100
AcDbEntity
  8
0
100
AcDbCircle
 10
107.4566806899972
 20
157.0432996871732
 30
0.0
 40
3.0
100
AcDbArc
 50
0.0
 51
90.0
  0
ARC
  5
6E3
330
2
100
AcDbEntity
  8
0
100
AcDbCircle
 10
107.4566806899972
 20
157.0432996871732
 30
0.0
 40
1.5
100
AcDbArc
 50
0.0
 51
90.0
  0
LINE
  5
6EC
330
2
100
AcDbEntity
  8
0
100
AcDbLine
 10
230.9566766899972
 20
170.6742196871732
 30
0.0
 11
230.9566766899972
 21
94.67422168717325
 31
0.0
  0
LINE
  5
6ED
330
2
100
AcDbEntity
  8
0
100
AcDbLine
 10
274.9566766899972
 20
200.1742276871732
 30
0.0
 11
274.9566766899972
 21
102.7615646871732
 31
0.0
  0
LINE
  5
6EE
330
2
100
AcDbEntity
  8
0
100
AcDbLine
 10
222.9566766899972
 20
168.6742046871732
 30
0.0
 11
222.9566766899972
 21
96.67422168717326
 31
0.0
  0
LINE
  5
6EF
330
2
100
AcDbEntity
  8
0
100
AcDbLine
 10
282.9567066899972
 20
201.1742276871732
 30
0.0
 11
282.9566766899972
 21
86.17422168717325
 31
0.0
  0
LINE
  5
6F0
330
2
100
AcDbEntity
  8
0
100
AcDbLine
 10
357.6754726899972
 20
131.7054696871732
 30
0.0
 11
357.6754726899972
 21
128.0333126871732
 31
0.0
  0
ARC
  5
6F1
330
2
100
AcDbEntity
  8
0
100
AcDbCircle
 10
360.5036886899972
 20
129.9710986871732
 30
0.0
 40
1.954124999999999
100
AcDbArc
 50
277.4147259999995
 51
62.41184999999949
  0
ARC
  5
6F2
330
2
100
AcDbEntity
  8
0
100
AcDbCircle
 10
360.5036886899972
 20
129.9710986871732
 30
0.0
 40
3.203125999999999
100
AcDbArc
 50
286.0181269999995
 51
90.00350999999964
  0
LINE
  5
6F3
330
2
100
AcDbEntity
  8
0
100
AcDbLine
 10
333.0504726899972
 20
130.4604706871732
 30
0.0
 11
333.0504726899972
 21
123.5471406871732
 31
0.0
  0
LINE
  5
6F4
330
2
100
AcDbEntity
  8
0
100
AcDbLine
 10
331.7066916899972
 20
131.3144636871732
 30
0.0
 11
331.7066916899972
 21
122.7313836871732
 31
0.0
  0
LINE
  5
6F5
330
2
100
AcDbEntity
  8
0
100
AcDbLine
 10
356.3004726899972
 20
131.7054696871732
 30
0.0
 11
356.3004726899972
 21
122.4242236871732
 31
0.0
  0
LINE
  5
6F6
330
2
100
AcDbEntity
  8
0
100
AcDbLine
 10
348.4254726899972
 20
131.7054696871732
 30
0.0
 11
348.4254726899972
 21
122.4867236871732
 31
0.0
  0
LINE
  5
6F7
330
2
100
AcDbEntity
  8
0
100
AcDbLine
 10
346.9254726899972
 20
131.7054696871732
 30
0.0
 11
346.9254726899972
 21
122.4867236871732
 31
0.0
  0
ARC
  5
6F8
330
2
100
AcDbEntity
  8
0
100
AcDbCircle
 10
330.9566916899972
 20
132.6742196871732
 30
0.0
 40
19.0
100
AcDbArc
 50
172.4476009999999
 51
270.0
  0
ARC
  5
6F9
330
2
100
AcDbEntity
  8
0
100
AcDbCircle
 10
330.9566916899972
 20
132.6742196871732
 30
0.0
 40
20.6
100
AcDbArc
 50
172.447403
 51
270.0
  0
LINE
  5
6FA
330
2
100
AcDbEntity
  8
0
100
AcDbLine
 10
290.9566766899972
 20
98.17422168717326
 30
0.0
 11
290.9566766899972
 21
189.1742196871732
 31
0.0
  0
LINE
  5
6FB
330
2
100
AcDbEntity
  8
CENTER
100
AcDbLine
 10
347.7066916899971
 20
229.1742276871732
 30
0.0
 11
347.7066916899971
 21
59.17422168717326
 31
0.0
  0
LINE
  5
6FC
330
2
100
AcDbEntity
  8
0
100
AcDbLine
 10
230.9566766899972
 20
113.0742216871732
 30
0.0
 11
274.9566766899972
 21
113.0742216871732
 31
0.0
  0
LINE
  5
6FD
330
2
100
AcDbEntity
  8
0
100
AcDbLine
 10
230.9566766899972
 20
123.2742226871732
 30
0.0
 11
274.9566766899972
 21
123.2742226871732
 31
0.0
  0
LINE
  5
6FE
330
2
100
AcDbEntity
  8
0
100
AcDbLine
 10
282.9566766899972
 20
92.85834168717327
 30
0.0
 11
230.9566766899972
 21
94.67422168717325
 31
0.0
  0
ARC
  5
6FF
330
2
100
AcDbEntity
  8
0
100
AcDbCircle
 10
224.9566766899972
 20
96.67424268717326
 30
0.0
 40
2.0
100
AcDbArc
 50
180.0
 51
270.0
  0
LINE
  5
700
330
2
100
AcDbEntity
  8
CENTER
100
AcDbLine
 10
312.7066766899972
 20
86.17422168717325
 30
0.0
 11
312.7066766899972
 21
64.17422168717326
 31
0.0
  0
LINE
  5
701
330
2
100
AcDbEntity
  8
0
100
AcDbLine
 10
400.7066916899972
 20
81.17422168717325
 30
0.0
 11
294.7066766899972
 21
81.17422168717325
 31
0.0
  0
ARC
  5
702
330
2
100
AcDbEntity
  8
0
100
AcDbCircle
 10
288.9566766899972
 20
98.17422168717326
 30
0.0
 40
2.0
100
AcDbArc
 50
270.0
 51
0.0
  0
ARC
  5
703
330
2
100
AcDbEntity
  8
0
100
AcDbCircle
 10
289.7067066899971
 20
81.42420168717325
 30
0.0
 40
5.0
100
AcDbArc
 50
0.0
 51
90.0
  0
ARC
  5
704
330
2
100
AcDbEntity
  8
0
100
AcDbCircle
 10
292.7066766899972
 20
94.17422168717326
 30
0.0
 40
2.0
100
AcDbArc
 50
0.0
 51
90.0
  0
LINE
  5
705
330
2
100
AcDbEntity
  8
0
100
AcDbLine
 10
277.4566766899972
 20
86.17422168717325
 30
0.0
 11
282.9566766899972
 21
86.17422168717325
 31
0.0
  0
LINE
  5
706
330
2
100
AcDbEntity
  8
0
100
AcDbLine
 10
274.9566766899972
 20
88.67422168717325
 30
0.0
 11
274.9566766899972
 21
90.72348668717324
 31
0.0
  0
ARC
  5
707
330
2
100
AcDbEntity
  8
0
100
AcDbCircle
 10
277.4566766899972
 20
88.67422168717325
 30
0.0
 40
2.5
100
AcDbArc
 50
180.0
 51
270.0
  0
ARC
  5
708
330
2
100
AcDbEntity
  8
0
100
AcDbCircle
 10
272.4566766899972
 20
90.72348668717324
 30
0.0
 40
2.5
100
AcDbArc
 50
0.0
 51
88.00000000000043
  0
LINE
  5
709
330
2
100
AcDbEntity
  8
0
100
AcDbLine
 10
282.9566766899972
 20
86.42422168717326
 30
0.0
 11
289.7067066899971
 21
86.42422168717326
 31
0.0
  0
LINE
  5
70A
330
2
100
AcDbEntity
  8
0
100
AcDbLine
 10
288.9566766899972
 20
96.17422168717325
 30
0.0
 11
282.9566766899972
 21
96.17422168717325
 31
0.0
  0
LINE
  5
70B
330
2
100
AcDbEntity
  8
0
100
AcDbLine
 10
288.9566766899972
 20
96.17422168717325
 30
0.0
 11
292.7066766899972
 21
96.17422168717325
 31
0.0
  0
LINE
  5
70C
330
2
100
AcDbEntity
  8
0
100
AcDbLine
 10
294.7066766899972
 20
94.17422168717326
 30
0.0
 11
294.7066766899972
 21
69.17422168717326
 31
0.0
  0
LINE
  5
70D
330
2
100
AcDbEntity
  8
0
100
AcDbLine
 10
300.7066766899972
 20
80.11172168717326
 30
0.0
 11
300.7066766899972
 21
69.17422168717326
 31
0.0
  0
LINE
  5
70E
330
2
100
AcDbEntity
  8
HIDS
  6
SEKKEI_H
100
AcDbLine
 10
318.2066916899972
 20
81.17422168717325
 30
0.0
 11
318.2066916899972
 21
69.17422168717326
 31
0.0
  0
LINE
  5
70F
330
2
100
AcDbEntity
  8
HIDS
  6
SEKKEI_H
100
AcDbLine
 10
307.2066766899972
 20
81.17422168717325
 30
0.0
 11
307.2066766899972
 21
69.17422168717326
 31
0.0
  0
LINE
  5
710
330
2
100
AcDbEntity
  8
0
100
AcDbLine
 10
276.0817526899973
 20
100.5202246871732
 30
0.0
 11
282.9566766899972
 21
100.5202246871732
 31
0.0
  0
LINE
  5
711
330
2
100
AcDbEntity
  8
0
100
AcDbLine
 10
282.9566766899972
 20
111.7142206871732
 30
0.0
 11
289.9566766899972
 21
111.7142206871732
 31
0.0
  0
LINE
  5
713
330
2
100
AcDbEntity
  8
0
100
AcDbLine
 10
334.2682756899971
 20
91.17422168717325
 30
0.0
 11
361.1450766899972
 21
91.17422168717325
 31
0.0
  0
ARC
  5
714
330
2
100
AcDbEntity
  8
0
100
AcDbCircle
 10
331.7066916899972
 20
82.17422168717325
 30
0.0
 40
1.0
100
AcDbArc
 50
270.0
 51
0.0
  0
ARC
  5
715
330
2
100
AcDbEntity
  8
0
100
AcDbCircle
 10
328.6450766899972
 20
83.17422168717326
 30
0.0
 40
2.0
100
AcDbArc
 50
270.0
 51
345.963715
  0
LINE
  5
716
330
2
100
AcDbEntity
  8
0
100
AcDbLine
 10
330.5854756899972
 20
82.68914168717325
 30
0.0
 11
332.3278766899972
 21
89.65930268717324
 31
0.0
  0
ARC
  5
717
330
2
100
AcDbEntity
  8
0
100
AcDbCircle
 10
334.2682756899971
 20
89.17422168717326
 30
0.0
 40
2.0
100
AcDbArc
 50
90.0
 51
165.9638980000002
  0
LINE
  5
718
330
2
100
AcDbEntity
  8
0
100
AcDbLine
 10
332.7066916899972
 20
89.54922168717326
 30
0.0
 11
332.7066916899972
 21
82.17422168717325
 31
0.0
  0
ARC
  5
719
330
2
100
AcDbEntity
  8
0
100
AcDbCircle
 10
363.7066916899972
 20
82.17422168717325
 30
0.0
 40
1.0
100
AcDbArc
 50
180.0
 51
270.0
  0
ARC
  5
71A
330
2
100
AcDbEntity
  8
0
100
AcDbCircle
 10
366.7682756899972
 20
83.17422168717326
 30
0.0
 40
2.0
100
AcDbArc
 50
194.0361940000001
 51
270.0
  0
ARC
  5
71B
330
2
100
AcDbEntity
  8
0
100
AcDbCircle
 10
361.1450766899972
 20
89.17422168717326
 30
0.0
 40
2.0
100
AcDbArc
 50
14.03644
 51
90.0
  0
LINE
  5
71C
330
2
100
AcDbEntity
  8
0
100
AcDbLine
 10
364.8278766899971
 20
82.68914168717325
 30
0.0
 11
363.0854756899972
 21
89.65928368717323
 31
0.0
  0
LINE
  5
71D
330
2
100
AcDbEntity
  8
0
100
AcDbLine
 10
362.7066916899972
 20
89.73672168717326
 30
0.0
 11
362.7066916899972
 21
82.17422168717325
 31
0.0
  0
LINE
  5
71E
330
2
100
AcDbEntity
  8
0
100
AcDbLine
 10
330.9566916899972
 20
113.6742236871732
 30
0.0
 11
364.4566916899972
 21
113.6742236871732
 31
0.0
  0
LINE
  5
71F
330
2
100
AcDbEntity
  8
0
100
AcDbLine
 10
330.9566916899972
 20
112.0742216871732
 30
0.0
 11
364.4566916899972
 21
112.0742216871732
 31
0.0
  0
LINE
  5
720
330
2
100
AcDbEntity
  8
0
100
AcDbLine
 10
331.7066916899972
 20
122.7313836871732
 30
0.0
 11
333.2498736899972
 21
121.1742236871732
 31
0.0
  0
LINE
  5
721
330
2
100
AcDbEntity
  8
0
100
AcDbLine
 10
338.5504726899972
 20
122.1307816871732
 30
0.0
 11
337.4102746899972
 21
121.1742236871732
 31
0.0
  0
LINE
  5
722
330
2
100
AcDbEntity
  8
0
100
AcDbLine
 10
338.5504726899972
 20
122.1307816871732
 30
0.0
 11
338.5504726899972
 21
121.1742236871732
 31
0.0
  0
LINE
  5
723
330
2
100
AcDbEntity
  8
0
100
AcDbLine
 10
339.7066916899972
 20
128.1429736871732
 30
0.0
 11
339.7066916899972
 21
121.1742236871732
 31
0.0
  0
LINE
  5
724
330
2
100
AcDbEntity
  8
0
100
AcDbLine
 10
337.4102746899972
 20
121.1742236871732
 30
0.0
 11
333.2498736899972
 21
121.1742236871732
 31
0.0
  0
LINE
  5
725
330
2
100
AcDbEntity
  8
0
100
AcDbLine
 10
338.5504726899972
 20
121.1742236871732
 30
0.0
 11
339.7066916899972
 21
121.1742236871732
 31
0.0
  0
ARC
  5
726
330
2
100
AcDbEntity
  8
0
100
AcDbCircle
 10
336.0504726899972
 20
125.0804666871732
 30
0.0
 40
2.5
100
AcDbArc
 50
270.0002139999998
 51
0.0001089999998967
  0
LINE
  5
727
330
2
100
AcDbEntity
  8
0
100
AcDbLine
 10
338.5504726899972
 20
126.8304736871732
 30
0.0
 11
336.4566916899972
 21
126.8304736871732
 31
0.0
  0
LINE
  5
728
330
2
100
AcDbEntity
  8
0
100
AcDbLine
 10
336.4566916899972
 20
128.1429736871732
 30
0.0
 11
339.7066916899972
 21
128.1429736871732
 31
0.0
  0
LINE
  5
729
330
2
100
AcDbEntity
  8
0
100
AcDbLine
 10
336.4566916899972
 20
128.1429736871732
 30
0.0
 11
336.4566916899972
 21
126.8304736871732
 31
0.0
  0
LINE
  5
72A
330
2
100
AcDbEntity
  8
0
100
AcDbLine
 10
336.0504726899972
 20
122.5804626871732
 30
0.0
 11
333.9680746899972
 21
122.5804626871732
 31
0.0
  0
LINE
  5
72B
330
2
100
AcDbEntity
  8
0
100
AcDbLine
 10
333.0504726899972
 20
123.5471406871732
 30
0.0
 11
333.9680746899972
 21
122.5804626871732
 31
0.0
  0
LINE
  5
72C
330
2
100
AcDbEntity
  8
0
100
AcDbLine
 10
338.5504726899972
 20
126.8304736871732
 30
0.0
 11
338.5504726899972
 21
125.0804696871732
 31
0.0
  0
LINE
  5
72D
330
2
100
AcDbEntity
  8
0
100
AcDbLine
 10
338.5504726899972
 20
125.5804736871732
 30
0.0
 11
338.5504726899972
 21
126.5804736871732
 31
0.0
  0
LINE
  5
72E
330
2
100
AcDbEntity
  8
0
100
AcDbLine
 10
358.2222856899972
 20
121.1742236871732
 30
0.0
 11
355.7066916899972
 21
121.1742236871732
 31
0.0
  0
LINE
  5
72F
330
2
100
AcDbEntity
  8
0
100
AcDbLine
 10
355.7066916899972
 20
122.4242236871732
 30
0.0
 11
355.7066916899972
 21
121.1742236871732
 31
0.0
  0
LINE
  5
730
330
2
100
AcDbEntity
  8
0
100
AcDbLine
 10
348.9254726899972
 20
122.4867236871732
 30
0.0
 11
348.9254726899972
 21
121.1742236871732
 31
0.0
  0
LINE
  5
731
330
2
100
AcDbEntity
  8
0
100
AcDbLine
 10
346.3316916899972
 20
122.4867236871732
 30
0.0
 11
346.3316916899972
 21
121.1742236871732
 31
0.0
  0
LINE
  5
732
330
2
100
AcDbEntity
  8
0
100
AcDbLine
 10
346.3316916899972
 20
121.1742236871732
 30
0.0
 11
348.9254726899972
 21
121.1742236871732
 31
0.0
  0
LINE
  5
733
330
2
100
AcDbEntity
  8
0
100
AcDbLine
 10
346.3316916899972
 20
122.4867236871732
 30
0.0
 11
346.9254726899972
 21
122.4867236871732
 31
0.0
  0
LINE
  5
734
330
2
100
AcDbEntity
  8
0
100
AcDbLine
 10
348.4254726899972
 20
122.4867236871732
 30
0.0
 11
348.9254726899972
 21
122.4867236871732
 31
0.0
  0
LINE
  5
735
330
2
100
AcDbEntity
  8
0
100
AcDbLine
 10
355.7066916899972
 20
122.4242236871732
 30
0.0
 11
356.3004726899972
 21
122.4242236871732
 31
0.0
  0
LINE
  5
736
330
2
100
AcDbEntity
  8
0
100
AcDbLine
 10
358.2222856899972
 20
122.4242236871732
 30
0.0
 11
358.2222856899972
 21
121.1742236871732
 31
0.0
  0
LINE
  5
737
330
2
100
AcDbEntity
  8
0
100
AcDbLine
 10
361.8628806899972
 20
122.4242236871732
 30
0.0
 11
361.8628806899972
 21
121.1742236871732
 31
0.0
  0
LINE
  5
738
330
2
100
AcDbEntity
  8
0
100
AcDbLine
 10
363.7066916899972
 20
122.4242236871732
 30
0.0
 11
363.7066916899972
 21
121.1742236871732
 31
0.0
  0
LINE
  5
739
330
2
100
AcDbEntity
  8
0
100
AcDbLine
 10
361.8628806899972
 20
121.1742236871732
 30
0.0
 11
363.7066916899972
 21
121.1742236871732
 31
0.0
  0
LINE
  5
73A
330
2
100
AcDbEntity
  8
0
100
AcDbLine
 10
357.6754726899972
 20
126.7835946871732
 30
0.0
 11
360.2358666899972
 21
126.7835946871732
 31
0.0
  0
LINE
  5
73B
330
2
100
AcDbEntity
  8
0
100
AcDbLine
 10
363.3698696899972
 20
122.4242236871732
 30
0.0
 11
363.7066916899972
 21
122.4242236871732
 31
0.0
  0
LINE
  5
73C
330
2
100
AcDbEntity
  8
0
100
AcDbLine
 10
361.8628806899972
 20
122.4242236871732
 30
0.0
 11
362.1120876899972
 21
122.4242236871732
 31
0.0
  0
LINE
  5
73D
330
2
100
AcDbEntity
  8
0
100
AcDbLine
 10
357.6754726899972
 20
122.4242236871732
 30
0.0
 11
358.2222856899972
 21
122.4242236871732
 31
0.0
  0
LINE
  5
73E
330
2
100
AcDbEntity
  8
0
100
AcDbLine
 10
360.2358666899972
 20
126.7835946871732
 30
0.0
 11
362.1120876899972
 21
122.4242236871732
 31
0.0
  0
LINE
  5
73F
330
2
100
AcDbEntity
  8
0
100
AcDbLine
 10
361.3874776899972
 20
126.8923326871732
 30
0.0
 11
363.3698696899972
 21
122.4242236871732
 31
0.0
  0
LINE
  5
740
330
2
100
AcDbEntity
  8
0
100
AcDbLine
 10
360.7556726899972
 20
128.0333126871732
 30
0.0
 11
357.6754726899972
 21
128.0333126871732
 31
0.0
  0
LINE
  5
741
330
2
100
AcDbEntity
  8
0
100
AcDbLine
 10
357.6754726899972
 20
126.7835946871732
 30
0.0
 11
357.6754726899972
 21
122.4242236871732
 31
0.0
  0
LINE
  5
742
330
2
100
AcDbEntity
  8
0
100
AcDbLine
 10
273.5435596899971
 20
183.9920226871732
 30
0.0
 11
247.6001246899973
 21
171.4676156871732
 31
0.0
  0
LINE
  5
743
330
2
100
AcDbEntity
  8
0
100
AcDbLine
 10
272.5439266899972
 20
172.1264826871732
 30
0.0
 11
230.9566766899972
 21
170.6742196871732
 31
0.0
  0
ARC
  5
745
330
2
100
AcDbEntity
  8
0
100
AcDbCircle
 10
224.9566766899972
 20
168.6742196871732
 30
0.0
 40
2.0
100
AcDbArc
 50
90.0
 51
180.0
  0
ARC
  5
746
330
2
100
AcDbEntity
  8
0
100
AcDbCircle
 10
246.5132556899972
 20
173.7189966871732
 30
0.0
 40
2.5
100
AcDbArc
 50
271.9999999999995
 51
295.769318
  0
ARC
  5
748
330
2
100
AcDbEntity
  8
0
100
AcDbCircle
 10
292.7066766899972
 20
193.1742196871732
 30
0.0
 40
2.0
100
AcDbArc
 50
270.0
 51
0.0
  0
LINE
  5
749
330
2
100
AcDbEntity
  8
0
100
AcDbLine
 10
312.1214866899972
 20
135.1715116871732
 30
0.0
 11
317.8182946899972
 21
178.1370416871732
 31
0.0
  0
LINE
  5
74A
330
2
100
AcDbEntity
  8
0
100
AcDbLine
 10
310.5354876899972
 20
135.3818086871732
 30
0.0
 11
316.2320826899972
 21
178.3473236871732
 31
0.0
  0
ARC
  5
74B
330
2
100
AcDbEntity
  8
0
100
AcDbCircle
 10
272.4566766899972
 20
174.6249566871732
 30
0.0
 40
2.5
100
AcDbArc
 50
271.9999999999995
 51
0.0
  0
LINE
  5
74C
330
2
100
AcDbEntity
  8
0
100
AcDbLine
 10
282.9566766899972
 20
175.6342186871732
 30
0.0
 11
289.8316766899972
 21
175.6342186871732
 31
0.0
  0
ARC
  5
74D
330
2
100
AcDbEntity
  8
0
100
AcDbCircle
 10
272.4566766899972
 20
186.2434036871732
 30
0.0
 40
2.5
100
AcDbArc
 50
295.7693249999996
 51
0.0
  0
LINE
  5
74E
330
2
100
AcDbEntity
  8
0
100
AcDbLine
 10
282.9566766899972
 20
191.1742196871732
 30
0.0
 11
292.7066766899972
 21
191.1742196871732
 31
0.0
  0
ARC
  5
74F
330
2
100
AcDbEntity
  8
0
100
AcDbCircle
 10
288.9567066899971
 20
189.1742196871732
 30
0.0
 40
2.0
100
AcDbArc
 50
0.0
 51
90.0
  0
LINE
  5
750
330
2
100
AcDbEntity
  8
0
100
AcDbLine
 10
345.0244716899972
 20
131.7054696871732
 30
0.0
 11
344.5946926899972
 21
130.6742236871732
 31
0.0
  0
LINE
  5
751
330
2
100
AcDbEntity
  8
0
100
AcDbLine
 10
343.7066916899972
 20
133.1742196871732
 30
0.0
 11
351.7066916899972
 21
133.1742196871732
 31
0.0
  0
LINE
  5
752
330
2
100
AcDbEntity
  8
0
100
AcDbLine
 10
333.1590846899972
 20
133.1742196871732
 30
0.0
 11
331.7066916899972
 21
131.3144636871732
 31
0.0
  0
LINE
  5
753
330
2
100
AcDbEntity
  8
0
100
AcDbLine
 10
333.1590846899972
 20
133.1742196871732
 30
0.0
 11
338.5384786899972
 21
133.1742196871732
 31
0.0
  0
LINE
  5
754
330
2
100
AcDbEntity
  8
0
100
AcDbLine
 10
338.5504726899972
 20
130.8633676871732
 30
0.0
 11
337.7934836899972
 21
131.5804736871732
 31
0.0
  0
LINE
  5
755
330
2
100
AcDbEntity
  8
0
100
AcDbLine
 10
333.9536706899972
 20
131.5804736871732
 30
0.0
 11
333.0504726899972
 21
130.4604706871732
 31
0.0
  0
LINE
  5
756
330
2
100
AcDbEntity
  8
0
100
AcDbLine
 10
337.8086816899972
 20
131.5804736871732
 30
0.0
 11
333.9536706899972
 21
131.5804736871732
 31
0.0
  0
LINE
  5
757
330
2
100
AcDbEntity
  8
0
100
AcDbLine
 10
338.5504726899972
 20
130.8633676871732
 30
0.0
 11
338.5504726899972
 21
130.6742236871732
 31
0.0
  0
LINE
  5
758
330
2
100
AcDbEntity
  8
0
100
AcDbLine
 10
343.7066916899972
 20
130.6742236871732
 30
0.0
 11
344.5946926899972
 21
130.6742236871732
 31
0.0
  0
LINE
  5
759
330
2
100
AcDbEntity
  8
0
100
AcDbLine
 10
339.7066916899972
 20
131.8777336871732
 30
0.0
 11
339.7066916899972
 21
130.6742236871732
 31
0.0
  0
LINE
  5
75A
330
2
100
AcDbEntity
  8
0
100
AcDbLine
 10
338.5504726899972
 20
130.6742236871732
 30
0.0
 11
339.7066916899972
 21
130.6742236871732
 31
0.0
  0
LINE
  5
75B
330
2
100
AcDbEntity
  8
0
100
AcDbLine
 10
338.5384786899972
 20
133.1742196871732
 30
0.0
 11
339.7066916899972
 21
131.8777336871732
 31
0.0
  0
LINE
  5
75C
330
2
100
AcDbEntity
  8
0
100
AcDbLine
 10
343.7066916899972
 20
130.6742236871732
 30
0.0
 11
343.7066916899972
 21
133.1742196871732
 31
0.0
  0
LINE
  5
75D
330
2
100
AcDbEntity
  8
0
100
AcDbLine
 10
355.7066916899972
 20
133.1742196871732
 30
0.0
 11
360.5036886899972
 21
133.1742196871732
 31
0.0
  0
LINE
  5
75E
330
2
100
AcDbEntity
  8
0
100
AcDbLine
 10
350.8722796899972
 20
130.6742236871732
 30
0.0
 11
351.7066916899972
 21
130.6742236871732
 31
0.0
  0
LINE
  5
75F
330
2
100
AcDbEntity
  8
0
100
AcDbLine
 10
346.9254726899972
 20
131.7054696871732
 30
0.0
 11
345.0244716899972
 21
131.7054696871732
 31
0.0
  0
LINE
  5
760
330
2
100
AcDbEntity
  8
0
100
AcDbLine
 10
348.4254726899972
 20
131.7054696871732
 30
0.0
 11
350.5098836899972
 21
131.7054696871732
 31
0.0
  0
LINE
  5
761
330
2
100
AcDbEntity
  8
0
100
AcDbLine
 10
350.5098836899972
 20
131.7054696871732
 30
0.0
 11
350.8722796899972
 21
130.6742236871732
 31
0.0
  0
LINE
  5
762
330
2
100
AcDbEntity
  8
0
100
AcDbLine
 10
355.7066916899972
 20
131.7054696871732
 30
0.0
 11
356.3004726899972
 21
131.7054696871732
 31
0.0
  0
LINE
  5
763
330
2
100
AcDbEntity
  8
0
100
AcDbLine
 10
355.7066916899972
 20
133.1742196871732
 30
0.0
 11
355.7066916899972
 21
131.7054696871732
 31
0.0
  0
LINE
  5
764
330
2
100
AcDbEntity
  8
0
100
AcDbLine
 10
351.7066916899972
 20
130.6742236871732
 30
0.0
 11
351.7066916899972
 21
133.1742196871732
 31
0.0
  0
LINE
  5
765
330
2
100
AcDbEntity
  8
0
100
AcDbLine
 10
357.6754726899972
 20
131.7054696871732
 30
0.0
 11
361.4084736899972
 21
131.7030436871732
 31
0.0
  0
ARC
  5
766
330
2
100
AcDbEntity
  8
0
100
AcDbCircle
 10
347.7066916899972
 20
174.1742196871732
 30
0.0
 40
11.0
100
AcDbArc
 50
15.82660000000016
 51
344.1734009999996
  0
LINE
  5
767
330
2
100
AcDbEntity
  8
0
100
AcDbLine
 10
361.2066916899972
 20
171.1742656871732
 30
0.0
 11
361.2066916899972
 21
177.1742656871732
 31
0.0
  0
LINE
  5
768
330
2
100
AcDbEntity
  8
0
100
AcDbLine
 10
355.2066916899972
 20
171.1742426871732
 30
0.0
 11
355.2066916899972
 21
177.1742426871732
 31
0.0
  0
LINE
  5
769
330
2
100
AcDbEntity
  8
0
100
AcDbLine
 10
361.2066916899972
 20
171.1742656871732
 30
0.0
 11
355.2066916899972
 21
171.1742426871732
 31
0.0
  0
LINE
  5
76A
330
2
100
AcDbEntity
  8
0
100
AcDbLine
 10
361.2066916899972
 20
177.1742656871732
 30
0.0
 11
355.2066916899972
 21
177.1742426871732
 31
0.0
  0
LINE
  5
76B
330
2
100
AcDbEntity
  8
0
100
AcDbLine
 10
296.8476826899972
 20
197.6664606871732
 30
0.0
 11
326.4182696899972
 21
218.2762016871732
 31
0.0
  0
LINE
  5
76C
330
2
100
AcDbEntity
  8
0
100
AcDbLine
 10
282.9566766899972
 20
200.9242276871732
 30
0.0
 11
300.5796776899972
 21
200.9242276871732
 31
0.0
  0
LINE
  5
76D
330
2
100
AcDbEntity
  8
0
100
AcDbLine
 10
275.9566766899972
 20
201.1742276871732
 30
0.0
 11
282.9567066899972
 21
201.1742276871732
 31
0.0
  0
ARC
  5
76E
330
2
100
AcDbEntity
  8
0
100
AcDbCircle
 10
275.9566766899972
 20
200.1742276871732
 30
0.0
 40
1.0
100
AcDbArc
 50
90.0
 51
180.0
  0
LINE
  5
76F
330
2
100
AcDbEntity
  8
0
100
AcDbLine
 10
294.7067066899971
 20
193.5644786871732
 30
0.0
 11
294.7066766899972
 21
193.1742196871732
 31
0.0
  0
ARC
  5
770
330
2
100
AcDbEntity
  8
0
100
AcDbCircle
 10
299.7066766899972
 20
193.5644786871732
 30
0.0
 40
5.0
100
AcDbArc
 50
124.8757019999997
 51
180.0
  0
ARC
  5
771
330
2
100
AcDbEntity
  8
0
100
AcDbCircle
 10
300.5794786899972
 20
203.9242276871732
 30
0.0
 40
3.0
100
AcDbArc
 50
270.0
 51
304.8753969999998
  0
LINE
  5
772
330
2
100
AcDbEntity
  8
0
100
AcDbLine
 10
329.2772786899972
 20
219.1742276871732
 30
0.0
 11
366.1360736899972
 21
219.1742276871732
 31
0.0
  0
ARC
  5
773
330
2
100
AcDbEntity
  8
0
100
AcDbCircle
 10
329.2772786899972
 20
214.1742276871732
 30
0.0
 40
5.0
100
AcDbArc
 50
90.0
 51
124.8756030000001
  0
ARC
  5
774
330
2
100
AcDbEntity
  8
0
100
AcDbCircle
 10
366.1360736899972
 20
214.1742276871732
 30
0.0
 40
5.0
100
AcDbArc
 50
55.12480900000042
 51
90.0
  0
LINE
  5
775
330
2
100
AcDbEntity
  8
0
100
AcDbLine
 10
157.9564826899973
 20
392.4643027756155
 30
0.0
 11
222.9567986899971
 21
392.4643027756155
 31
0.0
  0
LINE
  5
776
330
2
100
AcDbEntity
  8
0
100
AcDbLine
 10
157.9566806899972
 20
438.4643027756155
 30
0.0
 11
222.9567986899971
 21
438.4643027756156
 31
0.0
  0
LINE
  5
777
330
2
100
AcDbEntity
  8
0
100
AcDbLine
 10
116.9568026899971
 20
377.4643327756155
 30
0.0
 11
230.9567986899971
 21
377.4643327756155
 31
0.0
  0
LINE
  5
778
330
2
100
AcDbEntity
  8
0
100
AcDbLine
 10
116.9568026899971
 20
453.4642717756155
 30
0.0
 11
230.9567986899971
 21
453.4642717756155
 31
0.0
  0
LINE
  5
779
330
2
100
AcDbEntity
  8
0
100
AcDbLine
 10
58.45680368999729
 20
380.4642717756155
 30
0.0
 11
58.45680368999729
 21
450.4642717756155
 31
0.0
  0
LINE
  5
77A
330
2
100
AcDbEntity
  8
0
100
AcDbLine
 10
107.4568026899971
 20
375.4642717756155
 30
0.0
 11
107.4568026899971
 21
407.9643027756155
 31
0.0
  0
LINE
  5
77B
330
2
100
AcDbEntity
  8
0
100
AcDbLine
 10
116.9568026899971
 20
453.4642717756155
 30
0.0
 11
116.9568026899971
 21
440.4643027756155
 31
0.0
  0
LINE
  5
77C
330
2
100
AcDbEntity
  8
0
100
AcDbLine
 10
60.95680368999729
 20
389.4642717756155
 30
0.0
 11
107.4568026899971
 21
389.4642717756155
 31
0.0
  0
LINE
  5
77D
330
2
100
AcDbEntity
  8
0
100
AcDbLine
 10
63.45680368999729
 20
375.4642717756155
 30
0.0
 11
107.4568026899971
 21
375.4642717756155
 31
0.0
  0
ARC
  5
77E
330
2
100
AcDbEntity
  8
0
100
AcDbCircle
 10
63.45680368999729
 20
380.4642717756155
 30
0.0
 40
5.0
100
AcDbArc
 50
180.0
 51
270.0
  0
LINE
  5
781
330
2
100
AcDbEntity
  8
0
100
AcDbLine
 10
107.9566046899974
 20
392.4642717756155
 30
0.0
 11
107.4568026899971
 21
392.4642717756155
 31
0.0
  0
LINE
  5
782
330
2
100
AcDbEntity
  8
0
100
AcDbLine
 10
116.9568026899971
 20
377.4642717756155
 30
0.0
 11
107.4568026899971
 21
377.4642717756155
 31
0.0
  0
ARC
  5
783
330
2
100
AcDbEntity
  8
0
100
AcDbCircle
 10
107.4568026899971
 20
383.1944357756156
 30
0.0
 40
4.5
100
AcDbArc
 50
0.0
 51
90.0
  0
LINE
  5
784
330
2
100
AcDbEntity
  8
0
100
AcDbLine
 10
111.9568026899971
 20
383.1944357756156
 30
0.0
 11
111.9568026899971
 21
378.6944357756155
 31
0.0
  0
LINE
  5
785
330
2
100
AcDbEntity
  8
0
100
AcDbLine
 10
110.4568026899971
 20
383.1944357756156
 30
0.0
 11
110.4568026899971
 21
378.6944357756155
 31
0.0
  0
LINE
  5
786
330
2
100
AcDbEntity
  8
0
100
AcDbLine
 10
108.9568026899971
 20
383.1944357756156
 30
0.0
 11
108.9568026899971
 21
378.1788407756156
 31
0.0
  0
LINE
  5
787
330
2
100
AcDbEntity
  8
HOJO
100
AcDbLine
 10
108.9568026899971
 20
378.1944357756156
 30
0.0
 11
110.4568026899971
 21
378.6944357756155
 31
0.0
  0
LINE
  5
788
330
2
100
AcDbEntity
  8
HOJO
100
AcDbLine
 10
110.4568026899971
 20
379.1944357756156
 30
0.0
 11
111.9568026899971
 21
378.6944357756155
 31
0.0
  0
ARC
  5
789
330
2
100
AcDbEntity
  8
0
100
AcDbCircle
 10
107.4568026899971
 20
383.1944357756156
 30
0.0
 40
3.0
100
AcDbArc
 50
0.0
 51
90.0
  0
ARC
  5
78A
330
2
100
AcDbEntity
  8
0
100
AcDbCircle
 10
107.4568026899971
 20
383.1944357756156
 30
0.0
 40
1.5
100
AcDbArc
 50
0.0
 51
90.0
  0
LINE
  5
794
330
2
100
AcDbEntity
  8
0
100
AcDbLine
 10
116.9568026899971
 20
390.4643027756156
 30
0.0
 11
116.9568026899971
 21
377.4642717756155
 31
0.0
  0
LINE
  5
798
330
2
100
AcDbEntity
  8
0
100
AcDbLine
 10
60.95680368999729
 20
439.4642717756155
 30
0.0
 11
107.4568026899971
 21
439.4642717756155
 31
0.0
  0
LINE
  5
799
330
2
100
AcDbEntity
  8
0
100
AcDbLine
 10
63.45680368999729
 20
455.4642717756155
 30
0.0
 11
107.4568026899971
 21
455.4642717756155
 31
0.0
  0
ARC
  5
79A
330
2
100
AcDbEntity
  8
0
100
AcDbCircle
 10
63.45680368999729
 20
450.4642717756155
 30
0.0
 40
5.0
100
AcDbArc
 50
90.0
 51
180.0
  0
LINE
  5
79B
330
2
100
AcDbEntity
  8
0
100
AcDbLine
 10
107.9565736899972
 20
438.4642717756155
 30
0.0
 11
107.4568026899971
 21
438.4642717756155
 31
0.0
  0
LINE
  5
79C
330
2
100
AcDbEntity
  8
0
100
AcDbLine
 10
116.9568026899971
 20
453.4642717756155
 30
0.0
 11
107.4568026899971
 21
453.4642717756155
 31
0.0
  0
LINE
  5
79D
330
2
100
AcDbEntity
  8
0
100
AcDbLine
 10
274.0884966899972
 20
445.5702897756156
 30
0.0
 11
252.3353846899972
 21
426.8281637756155
 31
0.0
  0
LINE
  5
79E
330
2
100
AcDbEntity
  8
0
100
AcDbLine
 10
230.9566766899972
 20
453.4643027756155
 30
0.0
 11
230.9566766899972
 21
377.4643027756155
 31
0.0
  0
LINE
  5
79F
330
2
100
AcDbEntity
  8
0
100
AcDbLine
 10
230.9566766899972
 20
453.4643027756155
 30
0.0
 11
230.9566766899972
 21
377.4643027756155
 31
0.0
  0
LINE
  5
7A0
330
2
100
AcDbEntity
  8
0
100
AcDbLine
 10
274.9566766899972
 20
360.4643027756155
 30
0.0
 11
274.9566766899972
 21
470.4643027756155
 31
0.0
  0
LINE
  5
7A1
330
2
100
AcDbEntity
  8
0
100
AcDbLine
 10
282.9566766899972
 20
472.9643027756155
 30
0.0
 11
282.9566766899972
 21
357.9643027756155
 31
0.0
  0
LINE
  5
7A2
330
2
100
AcDbEntity
  8
0
100
AcDbLine
 10
327.7066916899972
 20
385.4643027756155
 30
0.0
 11
327.7066916899972
 21
445.4643027756155
 31
0.0
  0
LINE
  5
7A3
330
2
100
AcDbEntity
  8
0
100
AcDbLine
 10
367.7066916899972
 20
385.4643027756155
 30
0.0
 11
367.7066916899972
 21
445.4643027756155
 31
0.0
  0
LINE
  5
7A4
330
2
100
AcDbEntity
  8
CENTER
100
AcDbLine
 10
347.7066916899971
 20
515.4643027756155
 30
0.0
 11
347.7066916899971
 21
315.4643027756155
 31
0.0
  0
LINE
  5
7A5
330
2
100
AcDbEntity
  8
0
100
AcDbLine
 10
274.0884966899972
 20
385.3583147756156
 30
0.0
 11
252.3353846899972
 21
404.1004107756156
 31
0.0
  0
LINE
  5
7A6
330
2
100
AcDbEntity
  8
0
100
AcDbLine
 10
272.5439266899972
 20
376.0120317756155
 30
0.0
 11
230.9566766899972
 21
377.4643027756155
 31
0.0
  0
ARC
  5
7A7
330
2
100
AcDbEntity
  8
0
100
AcDbCircle
 10
262.1263086899972
 20
415.4643027756155
 30
0.0
 40
15.0
100
AcDbArc
 50
130.7476199999996
 51
229.2523800000003
  0
LINE
  5
7A8
330
2
100
AcDbEntity
  8
0
100
AcDbLine
 10
222.9567986899971
 20
392.4643027756155
 30
0.0
 11
222.9567986899971
 21
379.4643027756155
 31
0.0
  0
ARC
  5
7A9
330
2
100
AcDbEntity
  8
0
100
AcDbCircle
 10
224.9567986899971
 20
379.4643327756155
 30
0.0
 40
2.0
100
AcDbArc
 50
180.0
 51
270.0
  0
LINE
  5
7AA
330
2
100
AcDbEntity
  8
0
100
AcDbLine
 10
317.5504416899972
 20
377.4643027756155
 30
0.0
 11
319.6143756899972
 21
369.6941307756155
 31
0.0
  0
CIRCLE
  5
7AB
330
2
100
AcDbEntity
  8
0
100
AcDbCircle
 10
312.7066766899972
 20
370.4643027756155
 30
0.0
 40
5.5
  0
LINE
  5
7AD
330
2
100
AcDbEntity
  8
0
100
AcDbLine
 10
299.8746146899973
 20
361.4400567756155
 30
0.0
 11
295.2954826899972
 21
383.3198327756155
 31
0.0
  0
LINE
  5
7AE
330
2
100
AcDbEntity
  8
0
100
AcDbLine
 10
291.0331836899972
 20
361.1357657756156
 30
0.0
 11
291.4903676899972
 21
378.5951927756155
 31
0.0
  0
LINE
  5
7B0
330
2
100
AcDbEntity
  8
0
100
AcDbLine
 10
304.7685816899972
 20
357.4643027756156
 30
0.0
 11
336.7066916899972
 21
357.4643027756156
 31
0.0
  0
LINE
  5
7B1
330
2
100
AcDbEntity
  8
0
100
AcDbLine
 10
277.4566766899972
 20
357.9643027756155
 30
0.0
 11
282.9566766899972
 21
357.9643027756155
 31
0.0
  0
ARC
  5
7B2
330
2
100
AcDbEntity
  8
0
100
AcDbCircle
 10
277.4566766899972
 20
360.4643027756155
 30
0.0
 40
2.5
100
AcDbArc
 50
180.0
 51
270.0
  0
LINE
  5
7B3
330
2
100
AcDbEntity
  8
0
100
AcDbLine
 10
288.0342066899972
 20
358.2143027756155
 30
0.0
 11
282.9566766899972
 21
358.2143027756155
 31
0.0
  0
ARC
  5
7B4
330
2
100
AcDbEntity
  8
0
100
AcDbCircle
 10
288.0342066899972
 20
361.2143027756155
 30
0.0
 40
3.0
100
AcDbArc
 50
270.0
 51
358.4999999999997
  0
LINE
  5
7B5
330
2
100
AcDbEntity
  8
0
100
AcDbLine
 10
282.9566766899972
 20
367.9643027756156
 30
0.0
 11
288.2895316899972
 21
367.9643027756156
 31
0.0
  0
ARC
  5
7B6
330
2
100
AcDbEntity
  8
0
100
AcDbCircle
 10
288.2895316899972
 20
370.9643027756155
 30
0.0
 40
3.0
100
AcDbArc
 50
270.0
 51
358.4999999999997
  0
ARC
  5
7B7
330
2
100
AcDbEntity
  8
0
100
AcDbCircle
 10
304.7685816899972
 20
362.4643027756155
 30
0.0
 40
5.0
100
AcDbArc
 50
191.8206019999996
 51
270.0
  0
LINE
  5
7B8
330
2
100
AcDbEntity
  8
0
100
AcDbLine
 10
358.2896996899972
 20
325.4643027756155
 30
0.0
 11
358.2896996899972
 21
360.4643027756155
 31
0.0
  0
LINE
  5
7B9
330
2
100
AcDbEntity
  8
0
100
AcDbLine
 10
361.2066916899972
 20
360.4643027756155
 30
0.0
 11
361.2066916899972
 21
325.4643027756155
 31
0.0
  0
LINE
  5
7BA
330
2
100
AcDbEntity
  8
0
100
AcDbLine
 10
336.7066916899972
 20
365.4643027756155
 30
0.0
 11
336.7066916899972
 21
325.4643027756155
 31
0.0
  0
LINE
  5
7BB
330
2
100
AcDbEntity
  8
0
100
AcDbLine
 10
336.7066916899972
 20
325.4643027756155
 30
0.0
 11
361.2066916899972
 21
325.4643027756155
 31
0.0
  0
LINE
  5
7BC
330
2
100
AcDbEntity
  8
0
100
AcDbLine
 10
335.2066916899972
 20
365.4643027756155
 30
0.0
 11
360.2066916899972
 21
365.4643027756155
 31
0.0
  0
ARC
  5
7BD
330
2
100
AcDbEntity
  8
0
100
AcDbCircle
 10
322.5138506899972
 20
370.4643027756155
 30
0.0
 40
3.0
100
AcDbArc
 50
194.8756869999999
 51
270.0
  0
LINE
  5
7BE
330
2
100
AcDbEntity
  8
0
100
AcDbLine
 10
335.2066916899972
 20
367.4643027756155
 30
0.0
 11
335.2066916899972
 21
365.4643027756155
 31
0.0
  0
LINE
  5
7BF
330
2
100
AcDbEntity
  8
0
100
AcDbLine
 10
358.7066916899972
 20
365.4643027756155
 30
0.0
 11
358.7066916899972
 21
360.4643027756155
 31
0.0
  0
LINE
  5
7C0
330
2
100
AcDbEntity
  8
0
100
AcDbLine
 10
358.2896996899972
 20
360.4643027756155
 30
0.0
 11
361.2066916899972
 21
360.4643027756155
 31
0.0
  0
LINE
  5
7C1
330
2
100
AcDbEntity
  8
0
100
AcDbLine
 10
360.2066916899972
 20
367.4643027756155
 30
0.0
 11
360.2066916899972
 21
365.4643027756155
 31
0.0
  0
LINE
  5
7C2
330
2
100
AcDbEntity
  8
0
100
AcDbLine
 10
301.5216786899971
 20
433.4643027756156
 30
0.0
 11
301.5216786899971
 21
397.4643027756155
 31
0.0
  0
ARC
  5
7C3
330
2
100
AcDbEntity
  8
0
100
AcDbCircle
 10
296.4886586899972
 20
378.4643027756156
 30
0.0
 40
5.0
100
AcDbArc
 50
90.0
 51
178.4999999999997
  0
ARC
  5
7C4
330
2
100
AcDbEntity
  8
0
100
AcDbCircle
 10
272.4566766899972
 20
373.5135577756155
 30
0.0
 40
2.5
100
AcDbArc
 50
0.0
 51
88.00000000000043
  0
ARC
  5
7C5
330
2
100
AcDbEntity
  8
0
100
AcDbCircle
 10
272.4566766899972
 20
383.4643327756155
 30
0.0
 40
2.5
100
AcDbArc
 50
0.0
 51
49.25237300000009
  0
LINE
  5
7C6
330
2
100
AcDbEntity
  8
0
100
AcDbLine
 10
291.2471576899972
 20
383.4643027756155
 30
0.0
 11
282.9566766899972
 21
383.4643027756155
 31
0.0
  0
LINE
  5
7C7
330
2
100
AcDbEntity
  8
0
100
AcDbLine
 10
311.3641316899972
 20
379.6941307756156
 30
0.0
 11
310.9549826899972
 21
381.2344747756156
 31
0.0
  0
ARC
  5
7C8
330
2
100
AcDbEntity
  8
0
100
AcDbCircle
 10
314.2635916899972
 20
380.4643027756156
 30
0.0
 40
3.0
100
AcDbArc
 50
194.8756869999999
 51
270.0
  0
LINE
  5
7C9
330
2
100
AcDbEntity
  8
0
100
AcDbLine
 10
317.5504416899972
 20
377.4643027756155
 30
0.0
 11
314.2635916899972
 21
377.4643027756155
 31
0.0
  0
ARC
  5
7CA
330
2
100
AcDbEntity
  8
0
100
AcDbCircle
 10
308.0555226899972
 20
380.4643027756156
 30
0.0
 40
3.0
100
AcDbArc
 50
14.87568200000016
 51
90.0
  0
LINE
  5
7CB
330
2
100
AcDbEntity
  8
0
100
AcDbLine
 10
272.5439266899972
 20
454.9165427756155
 30
0.0
 11
230.9566766899972
 21
453.4643027756155
 31
0.0
  0
ARC
  5
7CC
330
2
100
AcDbEntity
  8
0
100
AcDbCircle
 10
224.9567986899971
 20
451.4643027756156
 30
0.0
 40
2.0
100
AcDbArc
 50
90.0
 51
180.0
  0
LINE
  5
7CD
330
2
100
AcDbEntity
  8
0
100
AcDbLine
 10
222.9567986899971
 20
451.4642717756155
 30
0.0
 11
222.9567986899971
 21
438.4643027756156
 31
0.0
  0
LINE
  5
7CE
330
2
100
AcDbEntity
  8
0
100
AcDbLine
 10
358.2896996899972
 20
505.4643027756156
 30
0.0
 11
358.2896996899972
 21
470.4643027756155
 31
0.0
  0
LINE
  5
7CF
330
2
100
AcDbEntity
  8
0
100
AcDbLine
 10
361.2066916899972
 20
470.4643027756155
 30
0.0
 11
361.2066916899972
 21
505.4643027756156
 31
0.0
  0
LINE
  5
7D0
330
2
100
AcDbEntity
  8
0
100
AcDbLine
 10
336.7066916899972
 20
465.4643027756155
 30
0.0
 11
336.7066916899972
 21
505.4643027756156
 31
0.0
  0
LINE
  5
7D1
330
2
100
AcDbEntity
  8
0
100
AcDbLine
 10
336.7066916899972
 20
473.4643027756155
 30
0.0
 11
304.5904196899972
 21
473.4643027756155
 31
0.0
  0
LINE
  5
7D2
330
2
100
AcDbEntity
  8
0
100
AcDbLine
 10
317.5504416899972
 20
453.4643027756155
 30
0.0
 11
319.6143756899972
 21
461.2344747756155
 31
0.0
  0
LINE
  5
7D5
330
2
100
AcDbEntity
  8
0
100
AcDbLine
 10
299.8746146899973
 20
469.4885337756155
 30
0.0
 11
295.2954826899972
 21
447.6087427756155
 31
0.0
  0
LINE
  5
7D6
330
2
100
AcDbEntity
  8
0
100
AcDbLine
 10
291.0331836899972
 20
469.7928247756156
 30
0.0
 11
291.4903676899972
 21
452.3334127756156
 31
0.0
  0
ARC
  5
7D7
330
2
100
AcDbEntity
  8
0
100
AcDbCircle
 10
296.4886586899972
 20
452.4643027756155
 30
0.0
 40
5.0
100
AcDbArc
 50
181.5000000000002
 51
270.0
  0
ARC
  5
7D8
330
2
100
AcDbEntity
  8
0
100
AcDbCircle
 10
272.4566766899972
 20
447.4642717756155
 30
0.0
 40
2.5
100
AcDbArc
 50
310.7476269999999
 51
0.0
  0
LINE
  5
7D9
330
2
100
AcDbEntity
  8
0
100
AcDbLine
 10
291.2471576899972
 20
447.4643027756155
 30
0.0
 11
282.9566766899972
 21
447.4643027756155
 31
0.0
  0
ARC
  5
7DA
330
2
100
AcDbEntity
  8
0
100
AcDbCircle
 10
272.4566766899972
 20
457.4150477756155
 30
0.0
 40
2.5
100
AcDbArc
 50
271.9999999999995
 51
0.0
  0
LINE
  5
7DB
330
2
100
AcDbEntity
  8
0
100
AcDbLine
 10
282.9566766899972
 20
462.9643027756156
 30
0.0
 11
288.2895316899972
 21
462.9643027756156
 31
0.0
  0
ARC
  5
7DC
330
2
100
AcDbEntity
  8
0
100
AcDbCircle
 10
288.2895316899972
 20
459.9643027756155
 30
0.0
 40
3.0
100
AcDbArc
 50
1.500000000000274
 51
90.0
  0
ARC
  5
7DD
330
2
100
AcDbEntity
  8
0
100
AcDbCircle
 10
314.2635916899972
 20
450.4643027756156
 30
0.0
 40
3.0
100
AcDbArc
 50
90.0
 51
165.124313
  0
ARC
  5
7DE
330
2
100
AcDbEntity
  8
0
100
AcDbCircle
 10
308.0555226899972
 20
450.4643027756156
 30
0.0
 40
3.0
100
AcDbArc
 50
270.0
 51
345.1243179999998
  0
LINE
  5
7DF
330
2
100
AcDbEntity
  8
0
100
AcDbLine
 10
311.3641316899972
 20
451.2344747756156
 30
0.0
 11
310.9549826899972
 21
449.6941307756156
 31
0.0
  0
CIRCLE
  5
7E0
330
2
100
AcDbEntity
  8
0
100
AcDbCircle
 10
312.7066766899972
 20
460.4643027756155
 30
0.0
 40
5.5
  0
LINE
  5
7E1
330
2
100
AcDbEntity
  8
0
100
AcDbLine
 10
317.5504416899972
 20
453.4643027756155
 30
0.0
 11
314.2635916899972
 21
453.4643027756155
 31
0.0
  0
LINE
  5
7E2
330
2
100
AcDbEntity
  8
0
100
AcDbLine
 10
277.4566766899972
 20
472.9643027756155
 30
0.0
 11
282.9566766899972
 21
472.9643027756155
 31
0.0
  0
ARC
  5
7E3
330
2
100
AcDbEntity
  8
0
100
AcDbCircle
 10
277.4566766899972
 20
470.4643027756155
 30
0.0
 40
2.5
100
AcDbArc
 50
90.0
 51
180.0
  0
LINE
  5
7E4
330
2
100
AcDbEntity
  8
0
100
AcDbLine
 10
282.9566766899972
 20
472.7143027756155
 30
0.0
 11
288.0342066899972
 21
472.7143027756155
 31
0.0
  0
ARC
  5
7E5
330
2
100
AcDbEntity
  8
0
100
AcDbCircle
 10
288.0342066899972
 20
469.7143027756156
 30
0.0
 40
3.0
100
AcDbArc
 50
1.500000000000274
 51
90.0
  0
ARC
  5
7E6
330
2
100
AcDbEntity
  8
0
100
AcDbCircle
 10
304.7685816899972
 20
468.4643027756155
 30
0.0
 40
5.0
100
AcDbArc
 50
90.0
 51
168.1793980000003
  0
LINE
  5
7E7
330
2
100
AcDbEntity
  8
0
100
AcDbLine
 10
358.7066916899972
 20
465.4643027756155
 30
0.0
 11
358.7066916899972
 21
470.4643027756155
 31
0.0
  0
LINE
  5
7E8
330
2
100
AcDbEntity
  8
0
100
AcDbLine
 10
335.2066916899972
 20
465.4643027756155
 30
0.0
 11
360.2066916899972
 21
465.4643027756155
 31
0.0
  0
ARC
  5
7E9
330
2
100
AcDbEntity
  8
0
100
AcDbCircle
 10
322.5138506899972
 20
460.4643027756155
 30
0.0
 40
3.0
100
AcDbArc
 50
90.0
 51
165.124313
  0
LINE
  5
7EA
330
2
100
AcDbEntity
  8
0
100
AcDbLine
 10
335.2066916899972
 20
463.4643027756156
 30
0.0
 11
335.2066916899972
 21
465.4643027756155
 31
0.0
  0
LINE
  5
7EB
330
2
100
AcDbEntity
  8
0
100
AcDbLine
 10
360.2066916899972
 20
463.4643027756156
 30
0.0
 11
360.2066916899972
 21
465.4643027756155
 31
0.0
  0
LINE
  5
7EC
330
2
100
AcDbEntity
  8
0
100
AcDbLine
 10
358.2896996899972
 20
470.4643027756155
 30
0.0
 11
361.2066916899972
 21
470.4643027756155
 31
0.0
  0
LINE
  5
7ED
330
2
100
AcDbEntity
  8
0
100
AcDbLine
 10
336.7066916899972
 20
505.4643027756156
 30
0.0
 11
361.2066916899972
 21
505.4643027756156
 31
0.0
  0
LINE
  5
7EE
330
2
100
AcDbEntity
  8
0
100
AcDbLine
 10
568.4566916899972
 20
70.17422168717326
 30
0.0
 11
616.4566916899972
 21
70.17422168717326
 31
0.0
  0
LINE
  5
7EF
330
2
100
AcDbEntity
  8
0
100
AcDbLine
 10
562.6866716899971
 20
196.1742276871732
 30
0.0
 11
622.3566546899972
 21
196.1742276871732
 31
0.0
  0
LINE
  5
7F0
330
2
100
AcDbEntity
  8
0
100
AcDbLine
 10
562.4216876899972
 20
218.6498596871732
 30
0.0
 11
592.4566916899972
 21
219.1742276871732
 31
0.0
  0
LINE
  5
7F1
330
2
100
AcDbEntity
  8
CENTER
100
AcDbLine
 10
492.4566916899972
 20
174.1742196871732
 30
0.0
 11
692.4566916899972
 21
174.1742196871732
 31
0.0
  0
LINE
  5
7F2
330
2
100
AcDbEntity
  8
CENTER
100
AcDbLine
 10
524.9566916899972
 20
143.6742196871732
 30
0.0
 11
659.9566916899972
 21
143.6742196871732
 31
0.0
  0
ARC
  5
7F3
330
2
100
AcDbEntity
  8
0
100
AcDbCircle
 10
592.4566916899972
 20
143.6742196871732
 30
0.0
 40
57.5
100
AcDbArc
 50
160.176102
 51
213.9971309999994
  0
ARC
  5
7F4
330
2
100
AcDbEntity
  8
0
100
AcDbCircle
 10
592.4566916899972
 20
143.6742196871732
 30
0.0
 40
57.25
100
AcDbArc
 50
160.0859069999998
 51
212.5019070000004
  0
LINE
  5
7F5
330
2
100
AcDbEntity
  8
0
100
AcDbLine
 10
554.4566916899972
 20
115.9790636871732
 30
0.0
 11
554.4566916899972
 21
176.2442196871732
 31
0.0
  0
LINE
  5
7F6
330
2
100
AcDbEntity
  8
0
100
AcDbLine
 10
560.4566916899973
 20
69.17422168717326
 30
0.0
 11
560.4566916899972
 21
216.6501496871732
 31
0.0
  0
LINE
  5
7F7
330
2
100
AcDbEntity
  8
0
100
AcDbLine
 10
400.7066916899971
 20
193.5644636871732
 30
0.0
 11
400.7066916899971
 21
69.17424268717326
 31
0.0
  0
LINE
  5
7F8
330
2
100
AcDbEntity
  8
CENTER
100
AcDbLine
 10
382.7066916899973
 20
86.17422168717325
 30
0.0
 11
382.7066916899972
 21
64.17422168717326
 31
0.0
  0
LINE
  5
7F9
330
2
100
AcDbEntity
  8
HIDS
  6
SEKKEI_H
100
AcDbLine
 10
377.2066916899972
 20
81.17422168717325
 30
0.0
 11
377.2066916899972
 21
69.17422168717326
 31
0.0
  0
LINE
  5
7FA
330
2
100
AcDbEntity
  8
HIDS
  6
SEKKEI_H
100
AcDbLine
 10
388.2066916899972
 20
81.17422168717325
 30
0.0
 11
388.2066916899972
 21
69.17422168717326
 31
0.0
  0
LINE
  5
7FB
330
2
100
AcDbEntity
  8
0
100
AcDbLine
 10
394.7066916899972
 20
80.11172168717326
 30
0.0
 11
394.7066916899972
 21
69.17422168717326
 31
0.0
  0
LINE
  5
7FC
330
2
100
AcDbEntity
  8
CENTER
100
AcDbLine
 10
547.4566916899973
 20
86.17422168717325
 30
0.0
 11
547.4566916899973
 21
64.17422168717326
 31
0.0
  0
ARC
  5
7FD
330
2
100
AcDbEntity
  8
0
100
AcDbCircle
 10
549.9566916899972
 20
101.1742236871732
 30
0.0
 40
5.0
100
AcDbArc
 50
180.0
 51
270.0
  0
LINE
  5
7FE
330
2
100
AcDbEntity
  8
0
100
AcDbLine
 10
559.1746786899973
 20
90.68114168717324
 30
0.0
 11
535.7386736899973
 21
81.66732268717325
 31
0.0
  0
LINE
  5
7FF
330
2
100
AcDbEntity
  8
0
100
AcDbLine
 10
536.4566916899972
 20
81.17422168717325
 30
0.0
 11
557.4566916899972
 21
81.17422168717325
 31
0.0
  0
LINE
  5
800
330
2
100
AcDbEntity
  8
0
100
AcDbLine
 10
534.4566916899972
 20
69.17422168717326
 30
0.0
 11
567.4566916899972
 21
69.17422168717326
 31
0.0
  0
ARC
  5
801
330
2
100
AcDbEntity
  8
0
100
AcDbCircle
 10
536.4566916899972
 20
79.80064168717325
 30
0.0
 40
2.0
100
AcDbArc
 50
111.0379029999999
 51
180.0
  0
ARC
  5
802
330
2
100
AcDbEntity
  8
0
100
AcDbCircle
 10
536.4566916899972
 20
79.17422168717326
 30
0.0
 40
2.0
100
AcDbArc
 50
90.0
 51
180.0
  0
LINE
  5
803
330
2
100
AcDbEntity
  8
0
100
AcDbLine
 10
534.4566916899972
 20
79.80062168717324
 30
0.0
 11
534.4566916899972
 21
69.17422168717326
 31
0.0
  0
LINE
  5
804
330
2
100
AcDbEntity
  8
HIDS
  6
SEKKEI_H
100
AcDbLine
 10
541.9566916899972
 20
81.17422168717325
 30
0.0
 11
541.9566916899972
 21
69.17422168717326
 31
0.0
  0
ARC
  5
805
330
2
100
AcDbEntity
  8
0
100
AcDbCircle
 10
557.4566916899972
 20
84.17420068717325
 30
0.0
 40
3.0
100
AcDbArc
 50
270.0
 51
0.0
  0
LINE
  5
807
330
2
100
AcDbEntity
  8
HIDS
  6
SEKKEI_H
100
AcDbLine
 10
552.9566916899972
 20
81.17422168717325
 30
0.0
 11
552.9566916899972
 21
69.17422168717326
 31
0.0
  0
LINE
  5
808
330
2
100
AcDbEntity
  8
0
100
AcDbLine
 10
567.4566916899972
 20
69.17422168717326
 30
0.0
 11
568.4566916899972
 21
70.17422168717326
 31
0.0
  0
LINE
  5
80A
330
2
100
AcDbEntity
  8
0
100
AcDbLine
 10
549.9566916899972
 20
96.17422168717325
 30
0.0
 11
558.9878806899971
 21
96.17422168717325
 31
0.0
  0
ARC
  5
80B
330
2
100
AcDbEntity
  8
0
100
AcDbCircle
 10
592.4566916899972
 20
143.6742196871732
 30
0.0
 40
57.5
100
AcDbArc
 50
236.0028229999999
 51
236.1844020000003
  0
ARC
  5
80C
330
2
100
AcDbEntity
  8
0
100
AcDbCircle
 10
558.4566916899972
 20
98.67422168717325
 30
0.0
 40
4.0
100
AcDbArc
 50
218.645996
 51
270.0
  0
LINE
  5
80D
330
2
100
AcDbEntity
  8
0
100
AcDbLine
 10
558.4566916899972
 20
94.67422168717325
 30
0.0
 11
560.4566916899972
 21
94.67422168717325
 31
0.0
  0
ARC
  5
80E
330
2
100
AcDbEntity
  8
0
100
AcDbCircle
 10
559.0080836899971
 20
91.17422168717325
 30
0.0
 40
5.0
100
AcDbArc
 50
73.92828399999989
 51
90.23046100000007
  0
ARC
  5
80F
330
2
100
AcDbEntity
  8
0
100
AcDbCircle
 10
558.4566916899972
 20
92.54782168717325
 30
0.0
 40
2.0
100
AcDbArc
 50
291.0378109999998
 51
0.0
  0
LINE
  5
810
330
2
100
AcDbEntity
  8
0
100
AcDbLine
 10
544.9566916899972
 20
101.1742236871732
 30
0.0
 11
544.9566916899972
 21
110.2255616871732
 31
0.0
  0
ARC
  5
811
330
2
100
AcDbEntity
  8
0
100
AcDbCircle
 10
539.9566916899972
 20
110.2255616871732
 30
0.0
 40
5.0
100
AcDbArc
 50
0.0
 51
32.49969100000006
  0
ARC
  5
812
330
2
100
AcDbEntity
  8
0
100
AcDbCircle
 10
557.4566916899972
 20
115.9790826871732
 30
0.0
 40
3.0
100
AcDbArc
 50
180.0
 51
255.0689999999999
  0
ARC
  5
813
330
2
100
AcDbEntity
  8
0
100
AcDbCircle
 10
557.4566916899972
 20
109.7693816871732
 30
0.0
 40
3.0
100
AcDbArc
 50
0.0
 51
75.06877900000036
  0
LINE
  5
814
330
2
100
AcDbEntity
  8
0
100
AcDbLine
 10
556.6836816899972
 20
113.0803406871732
 30
0.0
 11
558.2296716899973
 21
112.6680826871732
 31
0.0
  0
LINE
  5
815
330
2
100
AcDbEntity
  8
0
100
AcDbLine
 10
377.5950886899972
 20
178.1370796871732
 30
0.0
 11
383.2918966899971
 21
135.1715496871732
 31
0.0
  0
LINE
  5
816
330
2
100
AcDbEntity
  8
0
100
AcDbLine
 10
379.1812706899972
 20
178.3473846871732
 30
0.0
 11
384.8778956899972
 21
135.3818466871732
 31
0.0
  0
ARC
  5
817
330
2
100
AcDbEntity
  8
0
100
AcDbCircle
 10
395.7066916899972
 20
193.5644636871732
 30
0.0
 40
5.0
100
AcDbArc
 50
0.0
 51
55.1248509999997
  0
LINE
  5
818
330
2
100
AcDbEntity
  8
0
100
AcDbLine
 10
544.4566916899971
 20
148.9813716871732
 30
0.0
 11
544.4566916899971
 21
199.3670686871732
 31
0.0
  0
LINE
  5
819
330
2
100
AcDbEntity
  8
0
100
AcDbLine
 10
534.4566916899972
 20
171.1742196871732
 30
0.0
 11
502.4566916899972
 21
171.1742196871732
 31
0.0
  0
LINE
  5
81A
330
2
100
AcDbEntity
  8
0
100
AcDbLine
 10
534.4566916899972
 20
177.1742196871732
 30
0.0
 11
502.4566916899972
 21
177.1742196871732
 31
0.0
  0
LINE
  5
81B
330
2
100
AcDbEntity
  8
0
100
AcDbLine
 10
542.4566916899972
 20
163.1742196871732
 30
0.0
 11
502.4566916899972
 21
163.1742196871732
 31
0.0
  0
LINE
  5
81C
330
2
100
AcDbEntity
  8
0
100
AcDbLine
 10
542.4566916899972
 20
185.1742196871732
 30
0.0
 11
502.4566916899972
 21
185.1742196871732
 31
0.0
  0
LINE
  5
81D
330
2
100
AcDbEntity
  8
0
100
AcDbLine
 10
502.4566916899972
 20
163.1742196871732
 30
0.0
 11
502.4566916899972
 21
185.1742196871732
 31
0.0
  0
LINE
  5
81E
330
2
100
AcDbEntity
  8
0
100
AcDbLine
 10
546.6864886899973
 20
146.0819196871732
 30
0.0
 11
552.2268946899973
 21
144.6102706871732
 31
0.0
  0
ARC
  5
81F
330
2
100
AcDbEntity
  8
0
100
AcDbCircle
 10
547.4566916899972
 20
148.9813946871732
 30
0.0
 40
3.0
100
AcDbArc
 50
180.0
 51
255.124603
  0
ARC
  5
820
330
2
100
AcDbEntity
  8
0
100
AcDbCircle
 10
551.4566916899972
 20
141.7108026871732
 30
0.0
 40
3.0
100
AcDbArc
 50
0.0
 51
75.12449599999964
  0
ARC
  5
821
330
2
100
AcDbEntity
  8
0
100
AcDbCircle
 10
534.4566916899972
 20
174.1742196871732
 30
0.0
 40
3.0
100
AcDbArc
 50
270.0
 51
90.0
  0
LINE
  5
822
330
2
100
AcDbEntity
  8
0
100
AcDbLine
 10
542.4566916899972
 20
186.6742196871732
 30
0.0
 11
542.4566916899972
 21
161.6742196871732
 31
0.0
  0
LINE
  5
823
330
2
100
AcDbEntity
  8
0
100
AcDbLine
 10
544.4566916899971
 20
161.6742196871732
 30
0.0
 11
542.4566916899972
 21
161.6742196871732
 31
0.0
  0
LINE
  5
824
330
2
100
AcDbEntity
  8
0
100
AcDbLine
 10
544.4566916899971
 20
186.6742196871732
 30
0.0
 11
542.4566916899972
 21
186.6742196871732
 31
0.0
  0
LINE
  5
825
330
2
100
AcDbEntity
  8
0
100
AcDbLine
 10
546.6864886899973
 20
202.2665276871732
 30
0.0
 11
558.2268946899972
 21
205.3319276871732
 31
0.0
  0
ARC
  5
826
330
2
100
AcDbEntity
  8
0
100
AcDbCircle
 10
547.4566916899972
 20
199.3670836871732
 30
0.0
 40
3.0
100
AcDbArc
 50
104.8760990000001
 51
180.0
  0
ARC
  5
827
330
2
100
AcDbEntity
  8
0
100
AcDbCircle
 10
557.4566916899972
 20
208.2313566871732
 30
0.0
 40
3.0
100
AcDbArc
 50
284.8758469999996
 51
0.0
  0
ARC
  5
828
330
2
100
AcDbEntity
  8
0
100
AcDbCircle
 10
562.4566916899972
 20
216.6501646871732
 30
0.0
 40
2.0
100
AcDbArc
 50
91.00058000000009
 51
180.0
  0
ARC
  5
829
330
2
100
AcDbEntity
  8
0
100
AcDbCircle
 10
592.4566916899972
 20
143.6742196871732
 30
0.0
 40
57.5
100
AcDbArc
 50
326.0028759999996
 51
19.82390399999968
  0
ARC
  5
82A
330
2
100
AcDbEntity
  8
0
100
AcDbCircle
 10
592.4566916899972
 20
143.6742196871732
 30
0.0
 40
57.25
100
AcDbArc
 50
327.4981120000001
 51
19.91411000000002
  0
LINE
  5
82B
330
2
100
AcDbEntity
  8
0
100
AcDbLine
 10
630.4566916899972
 20
115.9790636871732
 30
0.0
 11
630.4566916899972
 21
176.2442196871732
 31
0.0
  0
LINE
  5
82C
330
2
100
AcDbEntity
  8
0
100
AcDbLine
 10
624.4566916899972
 20
69.17422168717326
 30
0.0
 11
624.4566916899972
 21
216.6505006871732
 31
0.0
  0
LINE
  5
82D
330
2
100
AcDbEntity
  8
CENTER
100
AcDbLine
 10
592.4566916899972
 20
59.17422168717326
 30
0.0
 11
592.4566916899972
 21
229.1742276871732
 31
0.0
  0
LINE
  5
82E
330
2
100
AcDbEntity
  8
CENTER
100
AcDbLine
 10
637.4566916899971
 20
86.17422168717325
 30
0.0
 11
637.4566916899971
 21
64.17422168717326
 31
0.0
  0
ARC
  5
82F
330
2
100
AcDbEntity
  8
0
100
AcDbCircle
 10
592.4566916899972
 20
143.6742196871732
 30
0.0
 40
57.5
100
AcDbArc
 50
303.815582
 51
303.9971619999996
  0
LINE
  5
830
330
2
100
AcDbEntity
  8
0
100
AcDbLine
 10
617.4566916899972
 20
69.17422168717326
 30
0.0
 11
650.4566916899972
 21
69.17422168717326
 31
0.0
  0
LINE
  5
831
330
2
100
AcDbEntity
  8
0
100
AcDbLine
 10
626.4566916899972
 20
94.67422168717325
 30
0.0
 11
624.4566916899972
 21
94.67422168717325
 31
0.0
  0
ARC
  5
832
330
2
100
AcDbEntity
  8
0
100
AcDbCircle
 10
627.4566916899972
 20
109.7694046871732
 30
0.0
 40
3.0
100
AcDbArc
 50
104.9318009999999
 51
180.0
  0
ARC
  5
833
330
2
100
AcDbEntity
  8
0
100
AcDbCircle
 10
626.4566916899972
 20
92.54784268717324
 30
0.0
 40
2.0
100
AcDbArc
 50
180.0
 51
248.9627989999998
  0
ARC
  5
834
330
2
100
AcDbEntity
  8
0
100
AcDbCircle
 10
627.4566916899972
 20
84.17422168717326
 30
0.0
 40
3.0
100
AcDbArc
 50
180.0
 51
270.0
  0
LINE
  5
836
330
2
100
AcDbEntity
  8
0
100
AcDbLine
 10
617.4566916899972
 20
69.17422168717326
 30
0.0
 11
616.4566916899972
 21
70.17422168717326
 31
0.0
  0
ARC
  5
838
330
2
100
AcDbEntity
  8
0
100
AcDbCircle
 10
634.9566916899972
 20
101.1742236871732
 30
0.0
 40
5.0
100
AcDbArc
 50
270.0
 51
0.0
  0
ARC
  5
839
330
2
100
AcDbEntity
  8
0
100
AcDbCircle
 10
648.4566916899972
 20
79.80062168717324
 30
0.0
 40
2.0
100
AcDbArc
 50
0.0
 51
68.9626460000002
  0
ARC
  5
83A
330
2
100
AcDbEntity
  8
0
100
AcDbCircle
 10
648.4566916899972
 20
79.17422168717326
 30
0.0
 40
2.0
100
AcDbArc
 50
0.0
 51
90.0
  0
LINE
  5
83B
330
2
100
AcDbEntity
  8
0
100
AcDbLine
 10
625.7386736899973
 20
90.68112268717323
 30
0.0
 11
649.1747096899972
 21
81.66732268717325
 31
0.0
  0
LINE
  5
83C
330
2
100
AcDbEntity
  8
0
100
AcDbLine
 10
648.4566916899972
 20
81.17422168717325
 30
0.0
 11
627.4566916899972
 21
81.17422168717325
 31
0.0
  0
LINE
  5
83D
330
2
100
AcDbEntity
  8
HIDS
  6
SEKKEI_H
100
AcDbLine
 10
631.9566916899972
 20
81.17422168717325
 30
0.0
 11
631.9566916899972
 21
69.17422168717326
 31
0.0
  0
LINE
  5
83E
330
2
100
AcDbEntity
  8
HIDS
  6
SEKKEI_H
100
AcDbLine
 10
642.9566916899972
 20
81.17422168717325
 30
0.0
 11
642.9566916899972
 21
69.17422168717326
 31
0.0
  0
LINE
  5
83F
330
2
100
AcDbEntity
  8
0
100
AcDbLine
 10
634.9566916899972
 20
96.17422168717325
 30
0.0
 11
625.9052996899972
 21
96.17422168717325
 31
0.0
  0
ARC
  5
840
330
2
100
AcDbEntity
  8
0
100
AcDbCircle
 10
626.4566916899972
 20
98.67422168717325
 30
0.0
 40
4.0
100
AcDbArc
 50
270.0
 51
322.3110049999998
  0
ARC
  5
841
330
2
100
AcDbEntity
  8
0
100
AcDbCircle
 10
625.9052996899972
 20
91.17422168717325
 30
0.0
 40
5.0
100
AcDbArc
 50
90.0
 51
106.0718000000002
  0
LINE
  5
842
330
2
100
AcDbEntity
  8
0
100
AcDbLine
 10
650.4566916899972
 20
79.80062168717324
 30
0.0
 11
650.4566916899972
 21
69.17422168717326
 31
0.0
  0
ARC
  5
843
330
2
100
AcDbEntity
  8
0
100
AcDbCircle
 10
627.4566916899972
 20
115.9790636871732
 30
0.0
 40
3.0
100
AcDbArc
 50
284.9315800000002
 51
0.0
  0
LINE
  5
844
330
2
100
AcDbEntity
  8
0
100
AcDbLine
 10
628.2297016899972
 20
113.0803636871732
 30
0.0
 11
626.6836816899972
 21
112.6680826871732
 31
0.0
  0
LINE
  5
845
330
2
100
AcDbEntity
  8
0
100
AcDbLine
 10
639.9566916899972
 20
101.1742236871732
 30
0.0
 11
639.9566916899972
 21
110.2255616871732
 31
0.0
  0
ARC
  5
846
330
2
100
AcDbEntity
  8
0
100
AcDbCircle
 10
644.9566916899972
 20
110.2255616871732
 30
0.0
 40
5.0
100
AcDbArc
 50
147.4983060000003
 51
180.0
  0
LINE
  5
847
330
2
100
AcDbEntity
  8
0
100
AcDbLine
 10
650.4566916899972
 20
171.1742196871732
 30
0.0
 11
682.4566916899972
 21
171.1742196871732
 31
0.0
  0
LINE
  5
848
330
2
100
AcDbEntity
  8
0
100
AcDbLine
 10
650.4566916899972
 20
177.1742196871732
 30
0.0
 11
682.4566916899972
 21
177.1742196871732
 31
0.0
  0
LINE
  5
849
330
2
100
AcDbEntity
  8
0
100
AcDbLine
 10
642.4566916899972
 20
163.1742196871732
 30
0.0
 11
682.4566916899972
 21
163.1742196871732
 31
0.0
  0
LINE
  5
84A
330
2
100
AcDbEntity
  8
0
100
AcDbLine
 10
642.4566916899972
 20
185.1742196871732
 30
0.0
 11
682.4566916899972
 21
185.1742196871732
 31
0.0
  0
LINE
  5
84B
330
2
100
AcDbEntity
  8
0
100
AcDbLine
 10
640.4566916899972
 20
148.9813796871732
 30
0.0
 11
640.4566916899972
 21
199.3670686871732
 31
0.0
  0
LINE
  5
84C
330
2
100
AcDbEntity
  8
0
100
AcDbLine
 10
638.2268946899972
 20
146.0819196871732
 30
0.0
 11
632.6864886899971
 21
144.6102706871732
 31
0.0
  0
ARC
  5
84D
330
2
100
AcDbEntity
  8
0
100
AcDbCircle
 10
633.4566916899972
 20
141.7108336871732
 30
0.0
 40
3.0
100
AcDbArc
 50
104.8760990000001
 51
180.0
  0
ARC
  5
84E
330
2
100
AcDbEntity
  8
0
100
AcDbCircle
 10
637.4566916899972
 20
148.9813716871732
 30
0.0
 40
3.0
100
AcDbArc
 50
284.8757930000001
 51
0.0
  0
ARC
  5
84F
330
2
100
AcDbEntity
  8
0
100
AcDbCircle
 10
650.4566916899972
 20
174.1742196871732
 30
0.0
 40
3.0
100
AcDbArc
 50
90.0
 51
270.0
  0
LINE
  5
850
330
2
100
AcDbEntity
  8
0
100
AcDbLine
 10
642.4566916899972
 20
186.6742196871732
 30
0.0
 11
642.4566916899972
 21
161.6742196871732
 31
0.0
  0
LINE
  5
851
330
2
100
AcDbEntity
  8
0
100
AcDbLine
 10
640.4566916899972
 20
161.6742196871732
 30
0.0
 11
642.4566916899972
 21
161.6742196871732
 31
0.0
  0
LINE
  5
852
330
2
100
AcDbEntity
  8
0
100
AcDbLine
 10
640.4566916899972
 20
186.6742196871732
 30
0.0
 11
642.4566916899972
 21
186.6742196871732
 31
0.0
  0
ARC
  5
853
330
2
100
AcDbEntity
  8
0
100
AcDbCircle
 10
627.4566916899972
 20
208.2314026871732
 30
0.0
 40
3.0
100
AcDbArc
 50
180.0
 51
255.124603
  0
ARC
  5
854
330
2
100
AcDbEntity
  8
0
100
AcDbCircle
 10
622.4566916899972
 20
216.6505006871732
 30
0.0
 40
2.0
100
AcDbArc
 50
0.0
 51
89.00051899999992
  0
LINE
  5
855
330
2
100
AcDbEntity
  8
0
100
AcDbLine
 10
622.4914816899971
 20
218.6501946871732
 30
0.0
 11
592.4566916899972
 21
219.1742276871732
 31
0.0
  0
LINE
  5
856
330
2
100
AcDbEntity
  8
0
100
AcDbLine
 10
638.2268946899972
 20
202.2665276871732
 30
0.0
 11
626.6864886899972
 21
205.3319276871732
 31
0.0
  0
ARC
  5
857
330
2
100
AcDbEntity
  8
0
100
AcDbCircle
 10
637.4566916899972
 20
199.3670686871732
 30
0.0
 40
3.0
100
AcDbArc
 50
0.0
 51
75.12441300000024
  0
LINE
  5
858
330
2
100
AcDbEntity
  8
0
100
AcDbLine
 10
682.4566916899972
 20
163.1742196871732
 30
0.0
 11
682.4566916899972
 21
185.1742196871732
 31
0.0
  0
LINE
  5
859
330
2
100
AcDbEntity
  8
0
100
AcDbLine
 10
400.7066916899971
 20
415.4643027756155
 30
0.0
 11
400.1481286899972
 21
447.4643027756155
 31
0.0
  0
LINE
  5
85A
330
2
100
AcDbEntity
  8
0
100
AcDbLine
 10
377.8629416899972
 20
377.4643027756155
 30
0.0
 11
375.7989766899972
 21
369.6941307756155
 31
0.0
  0
CIRCLE
  5
85B
330
2
100
AcDbEntity
  8
0
100
AcDbCircle
 10
382.7066916899972
 20
370.4643027756155
 30
0.0
 40
5.5
  0
LINE
  5
85D
330
2
100
AcDbEntity
  8
0
100
AcDbLine
 10
395.5387536899972
 20
361.4400567756155
 30
0.0
 11
400.1481286899972
 21
383.4643027756155
 31
0.0
  0
ARC
  5
85E
330
2
100
AcDbEntity
  8
0
100
AcDbCircle
 10
390.6447716899972
 20
362.4643027756155
 30
0.0
 40
5.0
100
AcDbArc
 50
270.0
 51
348.1794040000001
  0
ARC
  5
860
330
2
100
AcDbEntity
  8
0
100
AcDbCircle
 10
372.8995326899972
 20
370.4643027756155
 30
0.0
 40
3.0
100
AcDbArc
 50
270.0
 51
345.1243289999998
  0
LINE
  5
861
330
2
100
AcDbEntity
  8
0
100
AcDbLine
 10
400.7066916899971
 20
415.4643027756155
 30
0.0
 11
400.1481286899972
 21
383.4643027756155
 31
0.0
  0
ARC
  5
862
330
2
100
AcDbEntity
  8
0
100
AcDbCircle
 10
395.2346456899972
 20
388.4643027756155
 30
0.0
 40
5.0
100
AcDbArc
 50
270.0
 51
358.9999999999998
  0
ARC
  5
863
330
2
100
AcDbEntity
  8
0
100
AcDbCircle
 10
381.1497766899972
 20
380.4643027756156
 30
0.0
 40
3.0
100
AcDbArc
 50
270.0
 51
345.1243289999998
  0
LINE
  5
864
330
2
100
AcDbEntity
  8
0
100
AcDbLine
 10
377.8629416899972
 20
377.4643027756155
 30
0.0
 11
381.1497766899972
 21
377.4643027756155
 31
0.0
  0
LINE
  5
865
330
2
100
AcDbEntity
  8
0
100
AcDbLine
 10
384.0492206899972
 20
379.6941307756156
 30
0.0
 11
384.4583696899972
 21
381.2344747756156
 31
0.0
  0
ARC
  5
866
330
2
100
AcDbEntity
  8
0
100
AcDbCircle
 10
387.3578456899972
 20
380.4643027756156
 30
0.0
 40
3.0
100
AcDbArc
 50
90.0
 51
165.124313
  0
LINE
  5
868
330
2
100
AcDbEntity
  8
CENTER
100
AcDbLine
 10
382.7066916899972
 20
451.2507717756156
 30
0.0
 11
382.7066916899972
 21
469.6778337756155
 31
0.0
  0
LINE
  5
869
330
2
100
AcDbEntity
  8
0
100
AcDbLine
 10
395.5387536899972
 20
469.4885337756155
 30
0.0
 11
400.1481286899972
 21
447.4643027756155
 31
0.0
  0
ARC
  5
86A
330
2
100
AcDbEntity
  8
0
100
AcDbCircle
 10
395.2346456899972
 20
442.4643027756156
 30
0.0
 40
5.0
100
AcDbArc
 50
1.000000000000147
 51
90.0
  0
ARC
  5
86B
330
2
100
AcDbEntity
  8
0
100
AcDbCircle
 10
381.1497766899972
 20
450.4643027756156
 30
0.0
 40
3.0
100
AcDbArc
 50
14.87567100000014
 51
90.0
  0
ARC
  5
86C
330
2
100
AcDbEntity
  8
0
100
AcDbCircle
 10
387.3578456899972
 20
450.4643027756156
 30
0.0
 40
3.0
100
AcDbArc
 50
194.8756869999999
 51
270.0
  0
LINE
  5
86D
330
2
100
AcDbEntity
  8
0
100
AcDbLine
 10
384.0492206899972
 20
451.2344747756156
 30
0.0
 11
384.4583696899972
 21
449.6941307756156
 31
0.0
  0
CIRCLE
  5
86E
330
2
100
AcDbEntity
  8
0
100
AcDbCircle
 10
382.7066916899972
 20
460.4643027756155
 30
0.0
 40
5.5
  0
CIRCLE
  5
86F
330
2
100
AcDbEntity
  8
0
100
AcDbCircle
 10
382.7066916899972
 20
460.4643027756155
 30
0.0
 40
5.5
  0
LINE
  5
870
330
2
100
AcDbEntity
  8
CENTER
100
AcDbLine
 10
373.4931606899972
 20
460.4643027756155
 30
0.0
 11
391.9202226899972
 21
460.4643027756155
 31
0.0
  0
LINE
  5
871
330
2
100
AcDbEntity
  8
0
100
AcDbLine
 10
377.8629416899972
 20
453.4643027756155
 30
0.0
 11
375.7989766899972
 21
461.2344747756155
 31
0.0
  0
LINE
  5
872
330
2
100
AcDbEntity
  8
0
100
AcDbLine
 10
377.8629416899972
 20
453.4643027756155
 30
0.0
 11
381.1497766899972
 21
453.4643027756155
 31
0.0
  0
ARC
  5
873
330
2
100
AcDbEntity
  8
0
100
AcDbCircle
 10
372.8995326899972
 20
460.4643027756155
 30
0.0
 40
3.0
100
AcDbArc
 50
14.87567100000014
 51
90.0
  0
ARC
  5
874
330
2
100
AcDbEntity
  8
0
100
AcDbCircle
 10
390.6447716899972
 20
468.4643027756155
 30
0.0
 40
5.0
100
AcDbArc
 50
11.82059599999985
 51
90.0
  0
LINE
  5
925
330
2
100
AcDbEntity
  8
CENTER
100
AcDbLine
 10
303.4931456899971
 20
460.4643027756155
 30
0.0
 11
321.9202076899971
 21
460.4643027756155
 31
0.0
  0
LINE
  5
926
330
2
100
AcDbEntity
  8
CENTER
100
AcDbLine
 10
312.7066766899972
 20
451.2507717756156
 30
0.0
 11
312.7066766899972
 21
469.6778337756155
 31
0.0
  0
LINE
  5
927
330
2
100
AcDbEntity
  8
CENTER
100
AcDbLine
 10
303.4931456899971
 20
370.4643027756155
 30
0.0
 11
321.9202076899971
 21
370.4643027756155
 31
0.0
  0
LINE
  5
928
330
2
100
AcDbEntity
  8
CENTER
100
AcDbLine
 10
312.7066766899972
 20
361.2507717756155
 30
0.0
 11
312.7066766899972
 21
379.6778337756155
 31
0.0
  0
LINE
  5
929
330
2
100
AcDbEntity
  8
CENTER
100
AcDbLine
 10
373.4931606899972
 20
370.4643027756155
 30
0.0
 11
391.9202226899972
 21
370.4643027756155
 31
0.0
  0
LINE
  5
92A
330
2
100
AcDbEntity
  8
CENTER
100
AcDbLine
 10
382.7066916899972
 20
361.2507717756155
 30
0.0
 11
382.7066916899972
 21
379.6778337756155
 31
0.0
  0
TEXT
  5
949
330
2
100
AcDbEntity
  8
TITLE
100
AcDbText
 10
429.1885964879461
 20
368.8708461468491
 30
0.0
 40
7.5
  1
HLMN-22T-300~450-T60WT
 41
0.8
100
AcDbText
  0
TEXT
  5
94A
330
2
100
AcDbEntity
  8
TITLE
100
AcDbText
 10
429.1885964879461
 20
380.8708461468492
 30
0.0
 40
7.5
  1
HLMN-22T-300~450-T60T
 41
0.8
100
AcDbText
  0
TEXT
  5
94B
330
2
100
AcDbEntity
  8
TITLE
100
AcDbText
 10
429.1885964879461
 20
392.8708461468492
 30
0.0
 40
7.5
  1
HLMN-22T-300~450-T40WT
 41
0.8
100
AcDbText
  0
TEXT
  5
94C
330
2
100
AcDbEntity
  8
TITLE
100
AcDbText
 10
429.1885964879461
 20
404.8708461468492
 30
0.0
 40
7.5
  1
HLMN-22T-300~450-T40T
 41
0.8
100
AcDbText
  0
TEXT
  5
94D
330
2
100
AcDbEntity
  8
TITLE
100
AcDbText
 10
429.1885964879461
 20
416.8708461468492
 30
0.0
 40
7.5
  1
HLMN-22T-300~900-T25WT
 41
0.8
100
AcDbText
  0
TEXT
  5
94E
330
2
100
AcDbEntity
  8
TITLE
100
AcDbText
 10
429.1885964879461
 20
428.8708461468492
 30
0.0
 40
7.5
  1
HLMN-22T-300~900-T25T
 41
0.8
100
AcDbText
  0
TEXT
  5
94F
330
2
100
AcDbEntity
  8
TITLE
100
AcDbText
 10
429.1885964879461
 20
452.8708461468491
 30
0.0
 40
7.5
  1
HLMN-22T-300~1800-T15T
 41
0.8
100
AcDbText
  0
TEXT
  5
950
330
2
100
AcDbEntity
  8
TITLE
100
AcDbText
 10
429.1885964879461
 20
440.8708461468491
 30
0.0
 40
7.5
  1
HLMN-22T-300~1800-T15WT
 41
0.8
100
AcDbText
  0
TEXT
  5
951
330
2
100
AcDbEntity
  8
TITLE
100
AcDbText
 10
575.2802928438073
 20
392.8708461468492
 30
0.0
 40
7.5
  1
HLMN-22T-300~450-S40WT
 41
0.8
100
AcDbText
  0
TEXT
  5
952
330
2
100
AcDbEntity
  8
TITLE
100
AcDbText
 10
575.2802928438073
 20
368.8708461468491
 30
0.0
 40
7.5
  1
HLMN-22T-300~450-S60WT
 41
0.8
100
AcDbText
  0
TEXT
  5
953
330
2
100
AcDbEntity
  8
TITLE
100
AcDbText
 10
575.2802928438073
 20
380.8708461468492
 30
0.0
 40
7.5
  1
HLMN-22T-300~450-S60T
 41
0.8
100
AcDbText
  0
TEXT
  5
954
330
2
100
AcDbEntity
  8
TITLE
100
AcDbText
 10
575.2802928438073
 20
404.8708461468492
 30
0.0
 40
7.5
  1
HLMN-22T-300~450-S40T
 41
0.8
100
AcDbText
  0
TEXT
  5
955
330
2
100
AcDbEntity
  8
TITLE
100
AcDbText
 10
575.2802928438073
 20
416.8708461468492
 30
0.0
 40
7.5
  1
HLMN-22T-300~900-S25WT
 41
0.8
100
AcDbText
  0
TEXT
  5
956
330
2
100
AcDbEntity
  8
TITLE
100
AcDbText
 10
575.2802928438073
 20
428.8708461468492
 30
0.0
 40
7.5
  1
HLMN-22T-300~900-S25T
 41
0.8
100
AcDbText
  0
TEXT
  5
957
330
2
100
AcDbEntity
  8
TITLE
100
AcDbText
 10
575.2802928438073
 20
440.8708461468491
 30
0.0
 40
7.5
  1
HLMN-22T-300~1800-S15WT
 41
0.8
100
AcDbText
  0
TEXT
  5
958
330
2
100
AcDbEntity
  8
TITLE
100
AcDbText
 10
575.2802928438073
 20
452.8708461468491
 30
0.0
 40
7.5
  1
HLMN-22T-300~1800-S15T
 41
0.8
100
AcDbText
  0
LINE
  5
BBE
330
2
100
AcDbEntity
  8
CENTER
100
AcDbLine
 10
215.1278197232915
 20
143.6742196871731
 30
0.0
 11
295.9219512176315
 21
143.6742196871731
 31
0.0
  0
LINE
  5
1FC2
330
2
100
AcDbEntity
  8
CENTER
100
AcDbLine
 10
132.9566806899972
 20
450.8535287197233
 30
0.0
 11
132.9566806899972
 21
379.7143027756155
 31
0.0
  0
LINE
  5
1FC4
330
2
100
AcDbEntity
  8
CENTER
100
AcDbLine
 10
95.01292468999725
 20
193.6742026871732
 30
0.0
 11
166.9089836537353
 21
193.6742026871732
 31
0.0
  0
LINE
  5
1FDF
330
2
100
AcDbEntity
  8
CENTER
100
AcDbLine
 10
132.9566806899972
 20
162.4805036871732
 30
0.0
 11
132.9566806899972
 21
213.5617026871732
 31
0.0
  0
LINE
  5
1FE0
330
2
100
AcDbEntity
  8
0
100
AcDbLine
 10
115.4566741185682
 20
202.1742026871732
 30
0.0
 11
157.9566876899973
 21
202.1742026871732
 31
0.0
  0
LINE
  5
1FE1
330
2
100
AcDbEntity
  8
0
100
AcDbLine
 10
105.9566736899972
 20
184.1742046871732
 30
0.0
 11
157.9566806899972
 21
184.1742046871732
 31
0.0
  0
LINE
  5
1FE2
330
2
100
AcDbEntity
  8
0
100
AcDbLine
 10
112.7945895060228
 20
203.1742026871732
 30
0.0
 11
156.9566806899972
 21
203.1742026871732
 31
0.0
  0
LINE
  5
1FE4
330
2
100
AcDbEntity
  8
0
100
AcDbLine
 10
107.9566736899972
 20
174.1742046871732
 30
0.0
 11
157.9566806899972
 21
174.1742046871732
 31
0.0
  0
LINE
  5
1FE5
330
2
100
AcDbEntity
  8
0
100
AcDbLine
 10
109.4566736899972
 20
172.1742046871732
 30
0.0
 11
155.9566806899972
 21
172.1742046871732
 31
0.0
  0
LINE
  5
1FE6
330
2
100
AcDbEntity
  8
0
100
AcDbLine
 10
107.9566736899972
 20
202.1742026871732
 30
0.0
 11
107.9566736899972
 21
174.1742046871732
 31
0.0
  0
LINE
  5
1FE7
330
2
100
AcDbEntity
  8
0
100
AcDbLine
 10
109.4566736899972
 20
172.1742046871732
 30
0.0
 11
109.4566736899972
 21
170.6742046871732
 31
0.0
  0
LINE
  5
1FE8
330
2
100
AcDbEntity
  8
0
100
AcDbLine
 10
107.9566736899972
 20
174.1742046871732
 30
0.0
 11
109.9566736899972
 21
172.1742046871732
 31
0.0
  0
LINE
  5
1FE9
330
2
100
AcDbEntity
  8
0
100
AcDbLine
 10
102.4566886899972
 20
197.6742026871732
 30
0.0
 11
102.4566886899972
 21
189.6742026871732
 31
0.0
  0
LINE
  5
1FEA
330
2
100
AcDbEntity
  8
0
100
AcDbLine
 10
105.9566886899972
 20
200.1742026871732
 30
0.0
 11
105.9566736899972
 21
184.1742046871732
 31
0.0
  0
LINE
  5
1FEB
330
2
100
AcDbEntity
  8
0
100
AcDbLine
 10
102.4566736899972
 20
189.6742026871732
 30
0.0
 11
105.9566736899972
 21
188.1742026871732
 31
0.0
  0
LINE
  5
1FEC
330
2
100
AcDbEntity
  8
0
100
AcDbLine
 10
111.7441806904523
 20
201.7572026871731
 30
0.0
 11
111.1691806895423
 21
201.7572026871731
 31
0.0
  0
ARC
  5
1FED
330
2
100
AcDbEntity
  8
0
100
AcDbCircle
 10
111.4566806899973
 20
194.2742026871731
 30
0.0
 40
9.0
100
AcDbArc
 50
74.11914999172198
 51
105.880850008278
  0
LINE
  5
1FEE
330
2
100
AcDbEntity
  8
0
100
AcDbLine
 10
115.4566741185682
 20
200.6742026871731
 30
0.0
 11
107.9566741185682
 21
200.6742026871731
 31
0.0
  0
LINE
  5
1FEF
330
2
100
AcDbEntity
  8
0
100
AcDbLine
 10
107.9566736899972
 20
202.1742026871732
 30
0.0
 11
108.9566736899972
 21
203.1742026871732
 31
0.0
  0
LINE
  5
1FF0
330
2
100
AcDbEntity
  8
0
100
AcDbLine
 10
108.9566741185682
 20
203.1742026871731
 30
0.0
 11
107.9566736899972
 21
202.1742026871732
 31
0.0
  0
ARC
  5
1FF1
330
2
100
AcDbEntity
  8
0
100
AcDbCircle
 10
109.3496699364043
 20
201.6803154114195
 30
0.0
 40
1.3
100
AcDbArc
 50
105.880850008278
 51
174.9999999999999
  0
SPLINE
  5
1FF2
330
2
100
AcDbEntity
  8
0
100
AcDbSpline
210
0.0
220
0.0
230
1.0
 70
     8
 71
     3
 72
    11
 73
     7
 74
     0
 42
0.0000000001
 43
0.0000000001
 40
0.0
 40
0.0
 40
0.0
 40
0.0
 40
0.4601364636755307
 40
1.04988694485363
 40
1.713742833862792
 40
2.320347933405154
 40
2.320347933405154
 40
2.320347933405154
 40
2.320347933405179
 10
111.1691806895423
 20
201.7572026871731
 30
0.0
 10
111.1467630324344
 20
201.912226126853
 30
0.0
 10
111.0956129772012
 20
202.2659409447705
 30
0.0
 10
110.6597278156675
 20
202.6906686163722
 30
0.0
 10
110.0546771006602
 20
202.9098557963381
 30
0.0
 10
109.6294924764843
 20
202.8408644967274
 30
0.0
 10
109.4269408668333
 20
202.8266442245507
 30
0.0
  0
LINE
  5
1FF3
330
2
100
AcDbEntity
  8
0
100
AcDbLine
 10
107.9566806899973
 20
200.6742026871731
 30
0.0
 11
108.0546168288851
 21
201.7936178769914
 31
0.0
  0
LINE
  5
1FF4
330
2
100
AcDbEntity
  8
0
100
AcDbLine
 10
108.9566736899972
 20
203.1742026871732
 30
0.0
 11
110.1187718739719
 21
203.1742026871732
 31
0.0
  0
LINE
  5
1FF5
330
2
100
AcDbEntity
  8
0
100
AcDbLine
 10
109.4269408668333
 20
202.8266442245507
 30
0.0
 11
109.4066806899973
 21
203.0376209700123
 31
0.0
  0
ARC
  5
1FF6
330
2
100
AcDbEntity
  8
0
100
AcDbCircle
 10
106.9566886899972
 20
200.1742026871732
 30
0.0
 40
1.0
100
AcDbArc
 50
90.0
 51
180.0
  0
LINE
  5
1FF7
330
2
100
AcDbEntity
  8
0
100
AcDbLine
 10
106.9566736899972
 20
201.1742026871732
 30
0.0
 11
107.9566736899972
 21
201.1742026871732
 31
0.0
  0
LINE
  5
1FF8
330
2
100
AcDbEntity
  8
0
100
AcDbLine
 10
102.4566886899972
 20
197.6742026871732
 30
0.0
 11
105.9566886899972
 21
199.1742026871732
 31
0.0
  0
LINE
  5
1FF9
330
2
100
AcDbEntity
  8
0
100
AcDbLine
 10
115.9566741185682
 20
203.1742026871731
 30
0.0
 11
115.4566741185682
 21
202.6742026871731
 31
0.0
  0
LINE
  5
1FFA
330
2
100
AcDbEntity
  8
0
100
AcDbLine
 10
115.4566741185682
 20
200.6742026871731
 30
0.0
 11
115.4566741185682
 21
202.6742026871731
 31
0.0
  0
LINE
  5
1FFB
330
2
100
AcDbEntity
  8
0
100
AcDbLine
 10
114.9566806899972
 20
200.6742026871731
 30
0.0
 11
114.8587445511094
 21
201.7936178769914
 31
0.0
  0
SPLINE
  5
1FFC
330
2
100
AcDbEntity
  8
0
100
AcDbSpline
210
0.0
220
0.0
230
1.0
 70
     8
 71
     3
 72
    11
 73
     7
 74
     0
 42
0.0000000001
 43
0.0000000001
 40
0.0
 40
0.0
 40
0.0
 40
0.0
 40
0.4601364636755307
 40
1.04988694485363
 40
1.713742833862792
 40
2.320347933405154
 40
2.320347933405154
 40
2.320347933405154
 40
2.320347933405179
 10
111.7441806904523
 20
201.7572026871731
 30
0.0
 10
111.7665983475602
 20
201.912226126853
 30
0.0
 10
111.8177484027935
 20
202.2659409447705
 30
0.0
 10
112.2536335643271
 20
202.6906686163722
 30
0.0
 10
112.8586842793345
 20
202.9098557963381
 30
0.0
 10
113.2838689035104
 20
202.8408644967274
 30
0.0
 10
113.4864205131614
 20
202.8266442245507
 30
0.0
  0
LINE
  5
1FFD
330
2
100
AcDbEntity
  8
0
100
AcDbLine
 10
113.4864205131614
 20
202.8266442245507
 30
0.0
 11
113.5066806899974
 21
203.0376209700123
 31
0.0
  0
ARC
  5
1FFE
330
2
100
AcDbEntity
  8
0
100
AcDbCircle
 10
113.5636914435901
 20
201.6803154114195
 30
0.0
 40
1.3
100
AcDbArc
 50
5.000000000000026
 51
74.11914999172198
  0
LINE
  5
1FFF
330
2
100
AcDbEntity
  8
0
100
AcDbLine
 10
115.4566741185682
 20
202.6742026871731
 30
0.0
 11
114.4016580796175
 21
202.6742026871731
 31
0.0
  0
LINE
  5
2001
330
2
100
AcDbEntity
  8
0
100
AcDbLine
 10
157.9566806899972
 20
202.1742026871732
 30
0.0
 11
157.9566806899972
 21
174.1742046871732
 31
0.0
  0
LINE
  5
2002
330
2
100
AcDbEntity
  8
0
100
AcDbLine
 10
155.4566806899972
 20
172.1742046871732
 30
0.0
 11
155.4566806899972
 21
170.6742046871732
 31
0.0
  0
LINE
  5
2003
330
2
100
AcDbEntity
  8
0
100
AcDbLine
 10
155.9566806899972
 20
172.1742046871732
 30
0.0
 11
157.9566806899972
 21
174.1742046871732
 31
0.0
  0
LINE
  5
2004
330
2
100
AcDbEntity
  8
0
100
AcDbLine
 10
156.9566876899973
 20
203.1742026871732
 30
0.0
 11
157.9566876899973
 21
202.1742026871732
 31
0.0
  0
ARC
  5
2006
330
2
100
AcDbEntity
  8
0
100
AcDbCircle
 10
156.4864726899974
 20
434.9346027756155
 30
0.0
 40
1.742199999999999
100
AcDbArc
 50
89.99869033450025
 51
180.0013096654997
  0
ARC
  5
2007
330
2
100
AcDbEntity
  8
0
100
AcDbCircle
 10
152.4270726899973
 20
434.9346027756155
 30
0.0
 40
1.742199999999999
100
AcDbArc
 50
359.9986903345002
 51
90.00130966549322
  0
ARC
  5
2008
330
2
100
AcDbEntity
  8
0
100
AcDbCircle
 10
154.4567726899972
 20
436.9643027756155
 30
0.0
 40
4.0
100
AcDbArc
 50
180.0
 51
270.0
  0
LINE
  5
2009
330
2
100
AcDbEntity
  8
0
100
AcDbLine
 10
157.9565736899972
 20
438.4643027756155
 30
0.0
 11
157.9565736899971
 21
392.4643027756155
 31
0.0
  0
LINE
  5
200A
330
2
100
AcDbEntity
  8
0
100
AcDbLine
 10
109.3566676899972
 20
438.0642937756156
 30
0.0
 11
109.3566746899972
 21
397.9643027756155
 31
0.0
  0
LINE
  5
200B
330
2
100
AcDbEntity
  8
0
100
AcDbLine
 10
107.9566736899972
 20
438.4643027756156
 30
0.0
 11
107.9566736899972
 21
392.4643027756155
 31
0.0
  0
CIRCLE
  5
200C
330
2
100
AcDbEntity
  8
0
100
AcDbCircle
 10
154.4567726899972
 20
436.9643027756155
 30
0.0
 40
3.500000000000028
  0
LINE
  5
200D
330
2
100
AcDbEntity
  8
0
100
AcDbLine
 10
155.5567786899972
 20
391.8642967756155
 30
0.0
 11
115.4566736899972
 21
391.8642967756155
 31
0.0
  0
LINE
  5
200E
330
2
100
AcDbEntity
  8
0
100
AcDbLine
 10
109.9566736899972
 20
390.4643027756155
 30
0.0
 11
155.9565736899971
 21
390.4643027756155
 31
0.0
  0
LINE
  5
200F
330
2
100
AcDbEntity
  8
0
100
AcDbLine
 10
105.9566736899972
 20
409.9643027756155
 30
0.0
 11
102.4566736899972
 21
413.4643027756156
 31
0.0
  0
LINE
  5
2010
330
2
100
AcDbEntity
  8
0
100
AcDbLine
 10
105.9566736899972
 20
408.9643027756156
 30
0.0
 11
105.9566736899972
 21
421.9643027756156
 31
0.0
  0
ARC
  5
2011
330
2
100
AcDbEntity
  8
0
100
AcDbCircle
 10
111.4567036899972
 20
393.9643027756155
 30
0.0
 40
4.0
100
AcDbArc
 50
0.0
 51
90.0
  0
ARC
  5
2012
330
2
100
AcDbEntity
  8
0
100
AcDbCircle
 10
113.4864036899973
 20
391.9346027756155
 30
0.0
 40
1.742199999999999
100
AcDbArc
 50
89.99869033450025
 51
180.0013096654997
  0
ARC
  5
2013
330
2
100
AcDbEntity
  8
0
100
AcDbCircle
 10
109.4270036899972
 20
391.9346027756155
 30
0.0
 40
1.742199999999999
100
AcDbArc
 50
359.9986903345002
 51
90.00130966549322
  0
ARC
  5
2014
330
2
100
AcDbEntity
  8
0
100
AcDbCircle
 10
111.4567036899972
 20
393.9643027756155
 30
0.0
 40
2.049999999999998
100
AcDbArc
 50
261.9380399160178
 51
270.0
  0
ARC
  5
2015
330
2
100
AcDbEntity
  8
0
100
AcDbCircle
 10
111.4567036899972
 20
393.9643027756155
 30
0.0
 40
2.049999999999998
100
AcDbArc
 50
90.0
 51
98.06196008398211
  0
ARC
  5
2016
330
2
100
AcDbEntity
  8
0
100
AcDbCircle
 10
113.4864036899973
 20
395.9940027756155
 30
0.0
 40
1.742199999999999
100
AcDbArc
 50
179.9986903345002
 51
270.0013096654932
  0
LINE
  5
2017
330
2
100
AcDbEntity
  8
0
100
AcDbLine
 10
111.4567036899973
 20
397.9643027756155
 30
0.0
 11
107.9567036899973
 21
397.9643027756155
 31
0.0
  0
ARC
  5
2018
330
2
100
AcDbEntity
  8
0
100
AcDbCircle
 10
109.4270036899972
 20
395.9940027756155
 30
0.0
 40
1.742199999999999
100
AcDbArc
 50
269.9986903345002
 51
0.0013096654997424
  0
CIRCLE
  5
2019
330
2
100
AcDbEntity
  8
0
100
AcDbCircle
 10
111.4567036899972
 20
393.9643027756155
 30
0.0
 40
3.500000000000028
  0
ARC
  5
201A
330
2
100
AcDbEntity
  8
0
100
AcDbCircle
 10
111.4567036899972
 20
393.9643027756155
 30
0.0
 40
2.049999999999998
100
AcDbArc
 50
171.9380399160183
 51
180.0
  0
ARC
  5
201B
330
2
100
AcDbEntity
  8
0
100
AcDbCircle
 10
111.4567036899972
 20
393.9643027756155
 30
0.0
 40
2.049999999999998
100
AcDbArc
 50
180.0
 51
188.0619600839816
  0
LINE
  5
201C
330
2
100
AcDbEntity
  8
0
100
AcDbLine
 10
107.9566736899972
 20
392.4643027756155
 30
0.0
 11
109.9566736899972
 21
390.4643027756155
 31
0.0
  0
LINE
  5
201D
330
2
100
AcDbEntity
  8
0
100
AcDbLine
 10
107.9566736899972
 20
392.4643027756155
 30
0.0
 11
109.9566736899972
 21
390.4643027756155
 31
0.0
  0
LINE
  5
201E
330
2
100
AcDbEntity
  8
0
100
AcDbLine
 10
115.4566736899972
 20
393.9643027756155
 30
0.0
 11
115.4566736899972
 21
390.4645017756156
 31
0.0
  0
ARC
  5
201F
330
2
100
AcDbEntity
  8
0
100
AcDbCircle
 10
111.4567036899972
 20
393.9643027756155
 30
0.0
 40
2.049999999999998
100
AcDbArc
 50
270.0
 51
278.061960083982
  0
ARC
  5
2020
330
2
100
AcDbEntity
  8
0
100
AcDbCircle
 10
111.4567036899972
 20
393.9643027756155
 30
0.0
 40
2.049999999999998
100
AcDbArc
 50
0.0
 51
8.061960083981649
  0
ARC
  5
2021
330
2
100
AcDbEntity
  8
0
100
AcDbCircle
 10
111.4567036899972
 20
393.9643027756155
 30
0.0
 40
2.049999999999998
100
AcDbArc
 50
81.93803991601789
 51
90.0
  0
ARC
  5
2022
330
2
100
AcDbEntity
  8
0
100
AcDbCircle
 10
111.4567036899972
 20
393.9643027756155
 30
0.0
 40
2.049999999999998
100
AcDbArc
 50
351.9380399160183
 51
0.0
  0
LINE
  5
2023
330
2
100
AcDbEntity
  8
0
100
AcDbLine
 10
106.9566736899972
 20
407.9643027756155
 30
0.0
 11
107.9566736899972
 21
407.9643027756155
 31
0.0
  0
ARC
  5
2024
330
2
100
AcDbEntity
  8
0
100
AcDbCircle
 10
106.9566736899971
 20
408.9643027756156
 30
0.0
 40
1.0
100
AcDbArc
 50
180.0
 51
270.0
  0
ARC
  5
2025
330
2
100
AcDbEntity
  8
0
100
AcDbCircle
 10
106.9566886899972
 20
421.9643027756156
 30
0.0
 40
1.0
100
AcDbArc
 50
90.0
 51
180.0
  0
LINE
  5
2026
330
2
100
AcDbEntity
  8
0
100
AcDbLine
 10
102.4566736899972
 20
417.4643027756156
 30
0.0
 11
105.9566736899972
 21
420.9643027756156
 31
0.0
  0
LINE
  5
2027
330
2
100
AcDbEntity
  8
0
100
AcDbLine
 10
102.4566736899972
 20
417.4643027756156
 30
0.0
 11
102.4566736899972
 21
413.4643027756156
 31
0.0
  0
LINE
  5
2028
330
2
100
AcDbEntity
  8
0
100
AcDbLine
 10
106.9566736899972
 20
422.9643027756155
 30
0.0
 11
107.9566736899972
 21
422.9643027756155
 31
0.0
  0
LINE
  5
2029
330
2
100
AcDbEntity
  8
0
100
AcDbLine
 10
156.5567786899972
 20
392.8642967756155
 30
0.0
 11
156.5567786899972
 21
432.9643027756155
 31
0.0
  0
LINE
  5
202A
330
2
100
AcDbEntity
  8
0
100
AcDbLine
 10
157.9565736899971
 20
392.4643027756155
 30
0.0
 11
155.9565736899971
 21
390.4643027756155
 31
0.0
  0
LINE
  5
202B
330
2
100
AcDbEntity
  8
0
100
AcDbLine
 10
157.9565736899971
 20
392.4643027756155
 30
0.0
 11
155.9565736899971
 21
390.4643027756155
 31
0.0
  0
LINE
  5
202C
330
2
100
AcDbEntity
  8
0
100
AcDbLine
 10
157.9567726899972
 20
392.4643027756155
 30
0.0
 11
155.9565736899971
 21
390.4643027756155
 31
0.0
  0
LINE
  5
202D
330
2
100
AcDbEntity
  8
0
100
AcDbLine
 10
155.5567786899972
 20
391.8642967756155
 30
0.0
 11
156.5567786899972
 21
392.8642967756155
 31
0.0
  0
LINE
  5
202E
330
2
100
AcDbEntity
  8
0
100
AcDbLine
 10
154.4565736899973
 20
432.9643027756155
 30
0.0
 11
157.9565736899972
 21
432.9643027756155
 31
0.0
  0
ARC
  5
202F
330
2
100
AcDbEntity
  8
0
100
AcDbCircle
 10
154.4567726899972
 20
436.9643027756155
 30
0.0
 40
2.049999999999998
100
AcDbArc
 50
261.9380399160178
 51
270.0
  0
ARC
  5
2030
330
2
100
AcDbEntity
  8
0
100
AcDbCircle
 10
154.4567726899972
 20
436.9643027756155
 30
0.0
 40
2.049999999999998
100
AcDbArc
 50
270.0
 51
278.061960083982
  0
LINE
  5
2031
330
2
100
AcDbEntity
  8
0
100
AcDbLine
 10
109.9566736899972
 20
440.4643027756155
 30
0.0
 11
155.9565736899973
 21
440.4643027756155
 31
0.0
  0
LINE
  5
2032
330
2
100
AcDbEntity
  8
0
100
AcDbLine
 10
110.3566746899972
 20
439.0642937756155
 30
0.0
 11
150.4565736899972
 21
439.0642937756155
 31
0.0
  0
LINE
  5
2033
330
2
100
AcDbEntity
  8
0
100
AcDbLine
 10
109.3566676899972
 20
438.0642937756156
 30
0.0
 11
110.3566746899972
 21
439.0642937756155
 31
0.0
  0
LINE
  5
2034
330
2
100
AcDbEntity
  8
0
100
AcDbLine
 10
107.9566736899972
 20
438.4643027756156
 30
0.0
 11
109.9566736899972
 21
440.4643027756155
 31
0.0
  0
LINE
  5
2035
330
2
100
AcDbEntity
  8
0
100
AcDbLine
 10
157.9565736899972
 20
438.4643027756155
 30
0.0
 11
155.9565736899973
 21
440.4643027756155
 31
0.0
  0
LINE
  5
2036
330
2
100
AcDbEntity
  8
0
100
AcDbLine
 10
155.9565736899973
 20
440.4643027756155
 30
0.0
 11
157.9565736899972
 21
438.4643027756155
 31
0.0
  0
ARC
  5
2037
330
2
100
AcDbEntity
  8
0
100
AcDbCircle
 10
154.4567726899972
 20
436.9643027756155
 30
0.0
 40
2.049999999999998
100
AcDbArc
 50
180.0
 51
188.0619600839816
  0
ARC
  5
2038
330
2
100
AcDbEntity
  8
0
100
AcDbCircle
 10
152.4270726899973
 20
438.9940027756154
 30
0.0
 40
1.742199999999999
100
AcDbArc
 50
269.9986903345002
 51
0.0013096654997424
  0
ARC
  5
2039
330
2
100
AcDbEntity
  8
0
100
AcDbCircle
 10
154.4567726899972
 20
436.9643027756155
 30
0.0
 40
2.049999999999998
100
AcDbArc
 50
90.0
 51
98.06196008398211
  0
ARC
  5
203A
330
2
100
AcDbEntity
  8
0
100
AcDbCircle
 10
154.4567726899972
 20
436.9643027756155
 30
0.0
 40
2.049999999999998
100
AcDbArc
 50
81.93803991601789
 51
90.0
  0
ARC
  5
203B
330
2
100
AcDbEntity
  8
0
100
AcDbCircle
 10
154.4567726899972
 20
436.9643027756155
 30
0.0
 40
2.049999999999998
100
AcDbArc
 50
0.0
 51
8.061960083981649
  0
ARC
  5
203C
330
2
100
AcDbEntity
  8
0
100
AcDbCircle
 10
154.4567726899972
 20
436.9643027756155
 30
0.0
 40
2.049999999999998
100
AcDbArc
 50
351.9380399160183
 51
0.0
  0
ARC
  5
203D
330
2
100
AcDbEntity
  8
0
100
AcDbCircle
 10
156.4864726899974
 20
438.9940027756154
 30
0.0
 40
1.742199999999999
100
AcDbArc
 50
179.9986903345002
 51
270.0013096654932
  0
ARC
  5
203E
330
2
100
AcDbEntity
  8
0
100
AcDbCircle
 10
154.4567726899972
 20
436.9643027756155
 30
0.0
 40
2.049999999999998
100
AcDbArc
 50
171.9380399160183
 51
180.0
  0
LINE
  5
203F
330
2
100
AcDbEntity
  8
0
100
AcDbLine
 10
150.4565736899972
 20
436.9643027756155
 30
0.0
 11
150.4565736899972
 21
440.4643027756155
 31
0.0
  0
LINE
  5
20DF
330
2
100
AcDbEntity
  8
0
100
AcDbLine
 10
107.4568026899971
 20
422.9643027756155
 30
0.0
 11
107.4568026899971
 21
455.4642717756155
 31
0.0
  0
VIEWPORT
  5
156A
330
1569
100
AcDbEntity
 67
     1
  8
0
100
AcDbViewport
 10
144.6494032678484
 20
98.18346866433632
 30
0.0
 40
337.078217044107
 41
215.1146463957828
 68
     1
 69
     1
1001
ACAD
1000
MVIEW
1002
{
1070
    16
1010
0.0
1020
0.0
1030
0.0
1010
0.0
1020
0.0
1030
1.0
1040
0.0
1040
215.1146463957828
1040
144.6494032678484
1040
98.18346866433632
1040
50.0
1040
0.0
1040
0.0
1070
     0
1070
   100
1070
     1
1070
     1
1070
     0
1070
     0
1070
     0
1070
     0
1040
0.0
1040
0.0
1040
0.0
1040
10.0
1040
10.0
1040
10.0
1040
10.0
1070
     0
1002
{
1002
}
1002
}
  0
TEXT
  5
156B
330
1569
100
AcDbEntity
 67
     1
  8
TEXT
100
AcDbText
 10
266.4665517915716
 20
9.492177985111482
 30
0.0
 40
2.0
  1
2006.03.09
 41
0.7
100
AcDbText
  0
TEXT
  5
156C
330
1569
100
AcDbEntity
 67
     1
  8
TEXT
100
AcDbText
 10
221.2876186247744
 20
25.81289445791026
 30
0.0
 40
2.0
  1
HLMN22T-S40WT
100
AcDbText
  0
INSERT
  5
156D
330
1569
100
AcDbEntity
 67
     1
  8
0
100
AcDbBlockReference
 66
     1
  2
外寸枠A4テンプレート
 10
0.0
 20
0.0
 30
0.0
  0
ATTRIB
  5
156E
330
156D
100
AcDbEntity
 67
     1
  8
TEXT
100
AcDbText
 10
214.1380285714284
 20
34.33735183158626
 30
0.0
 40
2.500000000000001
  1
HLMN-22T-300~450-S40WT
 72
     4
 11
241.8165999999999
 21
35.58735183158626
 31
0.0
100
AcDbAttribute
  2
T　I　T　L　E
 70
     0
  0
ATTRIB
  5
156F
330
156D
100
AcDbEntity
 67
     1
  8
TEXT
100
AcDbText
 10
231.4275923057046
 20
7.13444951887557
 30
0.0
 40
2.0
  1
1：3
 72
     4
 11
234.056163734276
 21
8.13444951887557
 31
0.0
100
AcDbAttribute
  2
FREE
 70
     0
  0
ATTRIB
  5
1570
330
156D
100
AcDbEntity
 67
     1
  8
TEXT
100
AcDbText
 10
205.1985180173093
 20
6.884449518875568
 30
0.0
 40
2.500000000000004
  1
海野
 72
     4
 11
207.865184683976
 21
8.13444951887557
 31
0.0
100
AcDbAttribute
  2
海野
 70
     0
  0
ATTRIB
  5
1571
330
156D
100
AcDbEntity
 67
     1
  8
TEXT
100
AcDbText
 10
222.7519560922427
 20
6.884449518875568
 30
0.0
 40
2.500000000000004
  1
吉田
 72
     4
 11
225.3352894255761
 21
8.13444951887557
 31
0.0
100
AcDbAttribute
  2
鳥居
 70
     0
  0
ATTRIB
  5
1572
330
156D
100
AcDbEntity
 67
     1
  8
TEXT
100
AcDbText
 10
213.9476826899094
 20
6.884449518875567
 30
0.0
 40
2.500000000000004
  1
永坂
 72
     4
 11
216.6143493565761
 21
8.13444951887557
 31
0.0
100
AcDbAttribute
  2
永坂
 70
     0
  0
SEQEND
  5
1573
330
156D
100
AcDbEntity
 67
     1
  8
0
  0
INSERT
  5
1574
330
1569
100
AcDbEntity
 67
     1
  8
TEXT
100
AcDbBlockReference
  2
1
 10
202.0
 20
40.0
 30
0.0
  0
VIEWPORT
  5
1575
330
1569
100
AcDbEntity
 67
     1
  8
DEFPOINTS
100
AcDbViewport
 10
141.5
 20
123.7457936083873
 30
0.0
 40
277.0
 41
100.573081632136
 68
    -1
 69
     2
1001
ACAD
1000
MVIEW
1002
{
1070
    16
1010
0.0
1020
0.0
1030
0.0
1010
0.0
1020
0.0
1030
1.0
1040
0.0
1040
301.7192452445759
1040
388.4432004144471
1040
156.4741817835387
1040
50.0
1040
0.0
1040
0.0
1070
     0
1070
   100
1070
     1
1070
     3
1070
     0
1070
     0
1070
     0
1070
     0
1040
0.0
1040
0.0
1040
0.0
1040
10.0
1040
10.0
1040
10.0
1040
10.0
1070
     0
1002
{
1003
TITLE
1002
}
1002
}
  0
INSERT
  5
16C3
330
1569
100
AcDbEntity
 67
     1
  8
TEXT
100
AcDbBlockReference
  2
GSPEC_H-22T-300-450
 10
3.0
 20
3.999999999999998
 30
0.0
  0
INSERT
  5
1920
330
1569
100
AcDbEntity
 67
     1
  8
TEXT
100
AcDbBlockReference
  2
MSPEC_S40WF-75
 10
3.0
 20
4.0
 30
0.0
  0
INSERT
  5
1A08
330
1569
100
AcDbEntity
 67
     1
  8
TEXT
100
AcDbBlockReference
  2
BSPEC_90-90-0038
 10
3.0
 20
4.0
 30
0.0
  0
ENDSEC
  0
SECTION
  2
OBJECTS
  0
DICTIONARY
  5
7
330
0
100
AcDbDictionary
  3
ACAD_GROUP
350
75
  3
ACAD_LAYOUT
350
61
  3
ACAD_MLINESTYLE
350
76
  3
ACAD_PLOTSETTINGS
350
77
  3
ACAD_PLOTSTYLENAME
350
6
  3
ACADDIM
350
480
  3
ACDBHEADERROUNDTRIPXREC
350
215C
  3
ACDBVARIABLEDICTIONARY
350
102
  3
DWGPROPS
350
3D2
  0
DICTIONARY
  5
217D
330
2
100
AcDbDictionary
280
     1
  3
ACAD_LAYOUTSELFREF
360
217E
  0
DICTIONARY
  5
2180
330
1569
100
AcDbDictionary
280
     1
  3
ACAD_LAYOUTSELFREF
360
2181
  0
DICTIONARY
  5
75
102
{ACAD_REACTORS
330
7
102
}
330
7
100
AcDbDictionary
  0
DICTIONARY
  5
61
102
{ACAD_REACTORS
330
7
102
}
330
7
100
AcDbDictionary
  0
DICTIONARY
  5
76
102
{ACAD_REACTORS
330
7
102
}
330
7
100
AcDbDictionary
  3
STANDARD
350
78
  0
DICTIONARY
  5
77
102
{ACAD_REACTORS
330
7
102
}
330
7
100
AcDbDictionary
  0
ACDBDICTIONARYWDFLT
  5
6
102
{ACAD_REACTORS
330
7
102
}
330
7
100
AcDbDictionary
281
     1
  3
Normal
350
5
100
AcDbDictionaryWithDefault
340
5
  0
XRECORD
  5
480
102
{ACAD_REACTORS
330
7
102
}
330
7
100
AcDbXrecord
 90
   990106
  3

 60
     0
 61
     0
 62
     1
 63
     3
 64
     1
 65
     0
 66
     0
 67
     3
 68
     1
 69
     0
 70
     0
 71
     0
 72
     0
 40
0.0
170
     2
340
0
  0
DICTIONARY
  5
215C
102
{ACAD_REACTORS
330
7
102
}
330
7
100
AcDbDictionary
  3
CEPSNTYPE
350
2166
  3
DIMSTYLEDATA
350
216A
  3
FINGERPRINTGUID
350
2167
  3
HYPERLINKBASE
350
215F
  3
INSUNITS
350
2165
  3
LAYOUTDICT
350
2161
  3
LWETCUNION
350
2164
  3
PLOTSETDICT
350
2162
  3
PLOTSTYLNAMDICT
350
2163
  3
PSVPSCALE
350
2169
  3
PUCSBASE
350
216D
  3
PUCSORGBACK
350
2173
  3
PUCSORGBOTTOM
350
216F
  3
PUCSORGFRONT
350
2172
  3
PUCSORGLEFT
350
2170
  3
PUCSORGRIGHT
350
2171
  3
PUCSORGTOP
350
216E
  3
PUCSORTHOREF
350
216B
  3
PUCSORTHOVIEW
350
216C
  3
STYLESHEET
350
2160
  3
TSTACKALIGN
350
215D
  3
TSTACKSIZE
350
215E
  3
UCSBASE
350
2176
  3
UCSORGBACK
350
217C
  3
UCSORGBOTTOM
350
2178
  3
UCSORGFRONT
350
217B
  3
UCSORGLEFT
350
2179
  3
UCSORGRIGHT
350
217A
  3
UCSORGTOP
350
2177
  3
UCSORTHOREF
350
2174
  3
UCSORTHOVIEW
350
2175
  3
VERSIONGUID
350
2168
  0
DICTIONARY
  5
102
102
{ACAD_REACTORS
330
7
102
}
330
7
100
AcDbDictionary
  3
DIMASSOC
350
103
  0
XRECORD
  5
3D2
102
{ACAD_REACTORS
330
7
102
}
330
7
100
AcDbXrecord
  1
DWGPROPS COOKIE
  2

  3

  4

  6

  7

  8

  9

300
=
301
=
302
=
303
=
304
=
305
=
306
=
307
=
308
=
309
=
 40
0.5353330671296296
 41
2452052.431989363
 42
2453406.550756377
  1

 90
        0
  0
XRECORD
  5
217E
102
{ACAD_REACTORS
330
217D
102
}
330
217D
100
AcDbXrecord
340
2
  0
XRECORD
  5
2181
102
{ACAD_REACTORS
330
2180
102
}
330
2180
100
AcDbXrecord
340
1569
  0
MLINESTYLE
  5
78
102
{ACAD_REACTORS
330
76
102
}
330
76
100
AcDbMlineStyle
  2
STANDARD
 70
     0
  3

 62
     0
 51
90.0
 52
90.0
 71
     2
 49
0.5
 62
   256
  6
BYLAYER
 49
-0.5
 62
   256
  6
BYLAYER
  0
ACDBPLACEHOLDER
  5
5
102
{ACAD_REACTORS
330
6
102
}
330
6
100
AcDbPlaceHolder
280
     0
  0
XRECORD
  5
2166
102
{ACAD_REACTORS
330
215C
102
}
330
215C
100
AcDbXrecord
 90
        0
  0
XRECORD
  5
216A
102
{ACAD_REACTORS
330
215C
102
}
330
215C
100
AcDbXrecord
1000
DSTYLE
1002
{
1070
   179
 70
     2
1070
   277
 70
     6
1002
}
  0
XRECORD
  5
2167
102
{ACAD_REACTORS
330
215C
102
}
330
215C
100
AcDbXrecord
  1
{6385560B-F4B1-4644-A7C2-A3E32AC3D232}
  0
XRECORD
  5
215F
102
{ACAD_REACTORS
330
215C
102
}
330
215C
100
AcDbXrecord
  1

  0
XRECORD
  5
2165
102
{ACAD_REACTORS
330
215C
102
}
330
215C
100
AcDbXrecord
 90
        0
  0
XRECORD
  5
2161
102
{ACAD_REACTORS
330
215C
102
}
330
215C
100
AcDbXrecord
340
61
  0
XRECORD
  5
2164
102
{ACAD_REACTORS
330
215C
102
}
330
215C
100
AcDbXrecord
 90
    10781
  0
XRECORD
  5
2162
102
{ACAD_REACTORS
330
215C
102
}
330
215C
100
AcDbXrecord
340
77
  0
XRECORD
  5
2163
102
{ACAD_REACTORS
330
215C
102
}
330
215C
100
AcDbXrecord
340
6
  0
XRECORD
  5
2169
102
{ACAD_REACTORS
330
215C
102
}
330
215C
100
AcDbXrecord
 40
0.0
  0
XRECORD
  5
216D
102
{ACAD_REACTORS
330
215C
102
}
330
215C
100
AcDbXrecord
340
0
  0
XRECORD
  5
2173
102
{ACAD_REACTORS
330
215C
102
}
330
215C
100
AcDbXrecord
 10
0.0
 20
0.0
 30
0.0
  0
XRECORD
  5
216F
102
{ACAD_REACTORS
330
215C
102
}
330
215C
100
AcDbXrecord
 10
0.0
 20
0.0
 30
0.0
  0
XRECORD
  5
2172
102
{ACAD_REACTORS
330
215C
102
}
330
215C
100
AcDbXrecord
 10
0.0
 20
0.0
 30
0.0
  0
XRECORD
  5
2170
102
{ACAD_REACTORS
330
215C
102
}
330
215C
100
AcDbXrecord
 10
0.0
 20
0.0
 30
0.0
  0
XRECORD
  5
2171
102
{ACAD_REACTORS
330
215C
102
}
330
215C
100
AcDbXrecord
 10
0.0
 20
0.0
 30
0.0
  0
XRECORD
  5
216E
102
{ACAD_REACTORS
330
215C
102
}
330
215C
100
AcDbXrecord
 10
0.0
 20
0.0
 30
0.0
  0
XRECORD
  5
216B
102
{ACAD_REACTORS
330
215C
102
}
330
215C
100
AcDbXrecord
340
0
  0
XRECORD
  5
216C
102
{ACAD_REACTORS
330
215C
102
}
330
215C
100
AcDbXrecord
 70
     0
  0
XRECORD
  5
2160
102
{ACAD_REACTORS
330
215C
102
}
330
215C
100
AcDbXrecord
  1
Sekkei.ctb
  0
XRECORD
  5
215D
102
{ACAD_REACTORS
330
215C
102
}
330
215C
100
AcDbXrecord
 90
        1
  0
XRECORD
  5
215E
102
{ACAD_REACTORS
330
215C
102
}
330
215C
100
AcDbXrecord
 90
       70
  0
XRECORD
  5
2176
102
{ACAD_REACTORS
330
215C
102
}
330
215C
100
AcDbXrecord
340
0
  0
XRECORD
  5
217C
102
{ACAD_REACTORS
330
215C
102
}
330
215C
100
AcDbXrecord
 10
0.0
 20
0.0
 30
0.0
  0
XRECORD
  5
2178
102
{ACAD_REACTORS
330
215C
102
}
330
215C
100
AcDbXrecord
 10
0.0
 20
0.0
 30
0.0
  0
XRECORD
  5
217B
102
{ACAD_REACTORS
330
215C
102
}
330
215C
100
AcDbXrecord
 10
0.0
 20
0.0
 30
0.0
  0
XRECORD
  5
2179
102
{ACAD_REACTORS
330
215C
102
}
330
215C
100
AcDbXrecord
 10
0.0
 20
0.0
 30
0.0
  0
XRECORD
  5
217A
102
{ACAD_REACTORS
330
215C
102
}
330
215C
100
AcDbXrecord
 10
0.0
 20
0.0
 30
0.0
  0
XRECORD
  5
2177
102
{ACAD_REACTORS
330
215C
102
}
330
215C
100
AcDbXrecord
 10
0.0
 20
0.0
 30
0.0
  0
XRECORD
  5
2174
102
{ACAD_REACTORS
330
215C
102
}
330
215C
100
AcDbXrecord
340
0
  0
XRECORD
  5
2175
102
{ACAD_REACTORS
330
215C
102
}
330
215C
100
AcDbXrecord
 70
     0
  0
XRECORD
  5
2168
102
{ACAD_REACTORS
330
215C
102
}
330
215C
100
AcDbXrecord
  1
{2C420A4C-AA8A-4D77-BC66-268672DC6291}
  0
DICTIONARYVAR
  5
103
102
{ACAD_REACTORS
330
102
102
}
330
102
100
DictionaryVariables
280
     0
  1
1
  0
ENDSEC
  0
EOF
