  0
SECTION
  2
HEADER
  9
$CLAYER
  8
1
  9
$LTSCALE
 40
3.0
  0
ENDSEC
  0
SECTION
  2
TABLES
  0
TABLE
  2
LTYPE
 70
     4
  0
LTYPE
  2
CONTINUOUS
  3
solid line
 70
    64
 72
    65
 73
     0
 40
0.0
  0
LTYPE
  2
DASHED
  3
__ __ __ __ __ __ __ __ __ __ __ __ __ __ __
 70
    64
 72
    65
 73
     2
 40
0.75
 49
0.5
 49
-0.25
  0
LTYPE
  2
CENTER
  3
____ _ ____ _ ____ _ ____ _ ____ _ ____ _ ____
 70
    64
 72
    65
 73
     4
 40
2.0
 49
1.25
 49
-0.25
 49
0.25
 49
-0.25
  0
LTYPE
  2
PHANTOM
  3
_____ _ _ _____ _ _ _____ _ _ _____ _ _ ____
 70
    64
 72
    65
 73
     6
 40
2.5
 49
1.25
 49
-0.25
 49
0.25
 49
-0.25
 49
0.25
 49
-0.25
  0
ENDTAB
  0
TABLE
  2
LAYER
 70
     1
  0
LAYER
  2
0
 70
    64
 62
     7
  6
CONTINUOUS
  0
ENDTAB
  0
TABLE
  2
STYLE
 70
     1
  0
STYLE
  2
STANDARD
 70
     0
 40
0.000000
 41
1.000000
 50
0.000000
 71
     0
 42
3.000000
  3
txt
  4
BIGFONT
  0
ENDTAB
  0
ENDSEC
  0
SECTION
  2
BLOCKS
  0
ENDSEC
  0
SECTION
  2
ENTITIES
  0
LINE
  8
0
  6
CENTER
 10
139.642502
 20
76.044685
 11
256.654541
 21
76.044685
  0
LINE
  8
0
  6
CENTER
 10
288.654541
 20
158.794693
 11
288.654541
 21
-4.705313
  0
LINE
  8
0
  6
CENTER
 10
242.084137
 20
106.544685
 11
336.157501
 21
106.544685
  0
LINE
  8
0
  6
CONTINUOUS
 10
235.654526
 20
1.544687
 11
341.654541
 21
1.544687
  0
LINE
  8
0
  6
CONTINUOUS
 10
270.225128
 20
151.544693
 11
307.083923
 21
151.544693
  0
LINE
  8
0
  6
CONTINUOUS
 10
341.654541
 20
125.934929
 11
341.654541
 21
1.544708
  0
LINE
  8
0
  6
CONTINUOUS
 10
235.654526
 20
26.544687
 11
235.654526
 21
1.544687
  0
LINE
  8
0
  6
CONTINUOUS
 10
223.904526
 20
133.294693
 11
241.527527
 21
133.294693
  0
LINE
  8
0
  6
CONTINUOUS
 10
223.904526
 20
18.794687
 11
230.654556
 21
18.794687
  0
LINE
  8
0
  6
CONTINUOUS
 10
231.904526
 20
30.544687
 11
231.904526
 21
121.544685
  0
LINE
  8
0
  6
CONTINUOUS
 10
339.513519
 20
130.036926
 11
309.942932
 21
150.646667
  0
LINE
  8
0
  6
CONTINUOUS
 10
237.795532
 20
130.036926
 11
267.366119
 21
150.646667
  0
LINE
  8
0
  6
CONTINUOUS
 10
269.592926
 20
13.544687
 11
235.654526
 21
13.544687
  0
LINE
  8
0
  6
CONTINUOUS
 10
275.216125
 20
23.544687
 11
302.092926
 21
23.544687
  0
LINE
  8
0
  6
CONTINUOUS
 10
303.654541
 20
22.107187
 11
303.654541
 21
14.544687
  0
LINE
  8
0
  6
CONTINUOUS
 10
273.654541
 20
21.919687
 11
273.654541
 21
14.544687
  0
LINE
  8
0
  6
CONTINUOUS
 10
271.533325
 20
15.059607
 11
273.275726
 21
22.029768
  0
LINE
  8
0
  6
CONTINUOUS
 10
305.775726
 20
15.059607
 11
304.033325
 21
22.029749
  0
LINE
  8
0
  6
CONTINUOUS
 10
241.654526
 20
12.482187
 11
241.654526
 21
1.544687
  0
LINE
  8
0
  6
CONTINUOUS
 10
335.654541
 20
12.482187
 11
335.654541
 21
1.544687
  0
LINE
  8
0
  6
CENTER
 10
253.654526
 20
17.294687
 11
253.654526
 21
-2.705313
  0
LINE
  8
0
  6
CENTER
 10
323.654541
 20
18.294687
 11
323.654541
 21
-2.205313
  0
LINE
  8
0
  6
DASHED
 10
248.154526
 20
13.544687
 11
248.154526
 21
1.544687
  0
LINE
  8
0
  6
DASHED
 10
259.154541
 20
13.544687
 11
259.154541
 21
1.544687
  0
LINE
  8
0
  6
DASHED
 10
318.154541
 20
13.544687
 11
318.154541
 21
1.544687
  0
LINE
  8
0
  6
DASHED
 10
329.154541
 20
13.544687
 11
329.154541
 21
1.544687
  0
ARC
  8
0
  6
CONTINUOUS
 10
307.083923
 20
146.544693
 40
5.000000
 50
55.124809
 51
90.000000
  0
ARC
  8
0
  6
CONTINUOUS
 10
270.225128
 20
146.544693
 40
5.000000
 50
90.000000
 51
124.875603
  0
ARC
  8
0
  6
CONTINUOUS
 10
336.654541
 20
125.934929
 40
5.000000
 50
0.000000
 51
55.124851
  0
ARC
  8
0
  6
CONTINUOUS
 10
240.654526
 20
125.934944
 40
5.000000
 50
124.875702
 51
180.000000
  0
LINE
  8
0
  6
CONTINUOUS
 10
223.904526
 20
123.544685
 11
233.654526
 21
123.544685
  0
LINE
  8
0
  6
CONTINUOUS
 10
229.904526
 20
28.544687
 11
223.904526
 21
28.544687
  0
LINE
  8
0
  6
CONTINUOUS
 10
223.904526
 20
108.004684
 11
230.779526
 21
108.004684
  0
LINE
  8
0
  6
CONTINUOUS
 10
223.904526
 20
44.084686
 11
230.904526
 21
44.084686
  0
ARC
  8
0
  6
CONTINUOUS
 10
241.527328
 20
136.294693
 40
3.000000
 50
270.000000
 51
304.875397
  0
ARC
  8
0
  6
CONTINUOUS
 10
229.904556
 20
121.544685
 40
2.000000
 50
0.000000
 51
90.000000
  0
ARC
  8
0
  6
CONTINUOUS
 10
233.654526
 20
125.544685
 40
2.000000
 50
-90.000000
 51
0.000000
  0
LINE
  8
0
  6
CONTINUOUS
 10
235.654556
 20
125.934944
 11
235.654526
 21
125.544685
  0
ARC
  8
0
  6
CONTINUOUS
 10
233.654526
 20
26.544687
 40
2.000000
 50
0.000000
 51
90.000000
  0
LINE
  8
0
  6
CONTINUOUS
 10
229.904526
 20
28.544687
 11
233.654526
 21
28.544687
  0
ARC
  8
0
  6
CONTINUOUS
 10
229.904526
 20
30.544687
 40
2.000000
 50
-90.000000
 51
0.000000
  0
ARC
  8
0
  6
CONTINUOUS
 10
230.654556
 20
13.794667
 40
5.000000
 50
0.000000
 51
90.000000
  0
ARC
  8
0
  6
CONTINUOUS
 10
302.092926
 20
21.544687
 40
2.000000
 50
14.036440
 51
90.000000
  0
ARC
  8
0
  6
CONTINUOUS
 10
275.216125
 20
21.544687
 40
2.000000
 50
90.000000
 51
165.963898
  0
LINE
  8
0
  6
CONTINUOUS
 10
307.716125
 20
13.544687
 11
341.654541
 21
13.544687
  0
ARC
  8
0
  6
CONTINUOUS
 10
269.592926
 20
15.544687
 40
2.000000
 50
270.000000
 51
345.963715
  0
LINE
  8
0
  6
CONTINUOUS
 10
307.716125
 20
13.544687
 11
269.592926
 21
13.544687
  0
ARC
  8
0
  6
CONTINUOUS
 10
307.716125
 20
15.544687
 40
2.000000
 50
194.036194
 51
270.000000
  0
ARC
  8
0
  6
CONTINUOUS
 10
272.654541
 20
14.544687
 40
1.000000
 50
-90.000000
 51
0.000000
  0
ARC
  8
0
  6
CONTINUOUS
 10
304.654541
 20
14.544687
 40
1.000000
 50
180.000000
 51
270.000000
  0
CIRCLE
  8
0
  6
CONTINUOUS
 10
288.654541
 20
106.544685
 40
27.500000
  0
ARC
  8
0
  6
CONTINUOUS
 10
288.654541
 20
106.544685
 40
31.750000
 50
7.552697
 51
172.447403
  0
ARC
  8
0
  6
CONTINUOUS
 10
271.904541
 20
65.044685
 40
20.600000
 50
172.447403
 51
270.000000
  0
ARC
  8
0
  6
CONTINUOUS
 10
305.404541
 20
65.044685
 40
20.600000
 50
-90.000000
 51
7.552700
  0
LINE
  8
0
  6
CONTINUOUS
 10
320.129120
 20
110.717850
 11
325.825745
 21
67.752312
  0
LINE
  8
0
  6
CONTINUOUS
 10
251.483337
 20
67.752274
 11
257.179932
 21
110.717789
  0
LINE
  8
0
  6
CONTINUOUS
 10
271.904541
 20
44.444687
 11
305.404541
 21
44.444687
  0
ARC
  8
0
  6
CONTINUOUS
 10
271.904541
 20
65.044685
 40
19.000000
 50
172.447601
 51
270.000000
  0
ARC
  8
0
  6
CONTINUOUS
 10
305.404541
 20
65.044685
 40
19.000000
 50
-90.000000
 51
7.552700
  0
ARC
  8
0
  6
CONTINUOUS
 10
288.654541
 20
106.544685
 40
30.150000
 50
-187.552597
 51
7.552697
  0
LINE
  8
0
  6
CONTINUOUS
 10
253.069336
 20
67.541977
 11
258.766144
 21
110.507507
  0
LINE
  8
0
  6
CONTINUOUS
 10
318.542938
 20
110.507545
 11
324.239746
 21
67.542015
  0
LINE
  8
0
  6
CONTINUOUS
 10
271.904541
 20
46.044689
 11
305.404541
 21
46.044689
  0
LINE
  8
0
  6
CONTINUOUS
 10
278.358124
 20
53.544689
 11
274.197723
 21
53.544689
  0
LINE
  8
0
  6
CONTINUOUS
 10
280.654541
 20
60.513439
 11
280.654541
 21
53.544689
  0
LINE
  8
0
  6
CONTINUOUS
 10
284.654541
 20
63.044689
 11
284.654541
 21
65.544685
  0
LINE
  8
0
  6
CONTINUOUS
 10
292.654541
 20
63.044689
 11
292.654541
 21
65.544685
  0
LINE
  8
0
  6
CONTINUOUS
 10
287.873322
 20
64.075935
 11
287.873322
 21
54.857189
  0
LINE
  8
0
  6
CONTINUOUS
 10
289.373322
 20
64.075935
 11
289.373322
 21
54.857189
  0
LINE
  8
0
  6
CONTINUOUS
 10
297.248322
 20
64.075935
 11
297.248322
 21
54.794689
  0
LINE
  8
0
  6
CONTINUOUS
 10
298.623322
 20
59.154060
 11
298.623322
 21
54.794689
  0
LINE
  8
0
  6
CONTINUOUS
 10
278.756531
 20
63.950939
 11
274.901520
 21
63.950939
  0
LINE
  8
0
  6
CONTINUOUS
 10
274.901520
 20
63.950939
 11
273.998322
 21
62.830936
  0
LINE
  8
0
  6
CONTINUOUS
 10
274.106934
 20
65.544685
 11
272.654541
 21
63.684929
  0
LINE
  8
0
  6
CONTINUOUS
 10
273.998322
 20
55.917606
 11
274.915924
 21
54.950928
  0
LINE
  8
0
  6
CONTINUOUS
 10
272.654541
 20
55.101849
 11
274.197723
 21
53.544689
  0
LINE
  8
0
  6
CONTINUOUS
 10
272.654541
 20
63.684929
 11
272.654541
 21
55.101849
  0
LINE
  8
0
  6
CONTINUOUS
 10
273.998322
 20
62.830936
 11
273.998322
 21
55.917606
  0
LINE
  8
0
  6
CONTINUOUS
 10
279.498322
 20
63.233833
 11
278.741333
 21
63.950939
  0
LINE
  8
0
  6
CONTINUOUS
 10
279.486328
 20
65.544685
 11
280.654541
 21
64.248199
  0
LINE
  8
0
  6
CONTINUOUS
 10
279.498322
 20
63.044689
 11
280.654541
 21
63.044689
  0
LINE
  8
0
  6
CONTINUOUS
 10
274.106934
 20
65.544685
 11
279.486328
 21
65.544685
  0
LINE
  8
0
  6
CONTINUOUS
 10
277.404541
 20
60.513439
 11
280.654541
 21
60.513439
  0
LINE
  8
0
  6
CONTINUOUS
 10
279.498322
 20
59.200939
 11
277.404541
 21
59.200939
  0
LINE
  8
0
  6
CONTINUOUS
 10
276.998322
 20
54.950928
 11
274.915924
 21
54.950928
  0
LINE
  8
0
  6
CONTINUOUS
 10
279.498322
 20
57.950939
 11
279.498322
 21
58.950939
  0
ARC
  8
0
  6
CONTINUOUS
 10
276.998322
 20
57.450932
 40
2.500000
 50
-89.999786
 51
0.000109
  0
LINE
  8
0
  6
CONTINUOUS
 10
279.498322
 20
54.501247
 11
279.498322
 21
53.544689
  0
LINE
  8
0
  6
CONTINUOUS
 10
280.654541
 20
64.248199
 11
280.654541
 21
63.044689
  0
LINE
  8
0
  6
CONTINUOUS
 10
279.498322
 20
59.200939
 11
279.498322
 21
57.450935
  0
LINE
  8
0
  6
CONTINUOUS
 10
277.404541
 20
60.513439
 11
277.404541
 21
59.200939
  0
LINE
  8
0
  6
CONTINUOUS
 10
279.498322
 20
53.544689
 11
280.654541
 21
53.544689
  0
LINE
  8
0
  6
CONTINUOUS
 10
279.498322
 20
54.501247
 11
278.358124
 21
53.544689
  0
LINE
  8
0
  6
CONTINUOUS
 10
289.373322
 20
54.857189
 11
289.873322
 21
54.857189
  0
LINE
  8
0
  6
CONTINUOUS
 10
287.279541
 20
54.857189
 11
287.279541
 21
53.544689
  0
LINE
  8
0
  6
CONTINUOUS
 10
289.873322
 20
54.857189
 11
289.873322
 21
53.544689
  0
LINE
  8
0
  6
CONTINUOUS
 10
291.820129
 20
63.044689
 11
292.654541
 21
63.044689
  0
LINE
  8
0
  6
CONTINUOUS
 10
284.654541
 20
63.044689
 11
285.542542
 21
63.044689
  0
LINE
  8
0
  6
CONTINUOUS
 10
284.654541
 20
65.544685
 11
292.654541
 21
65.544685
  0
LINE
  8
0
  6
CONTINUOUS
 10
287.279541
 20
53.544689
 11
289.873322
 21
53.544689
  0
LINE
  8
0
  6
CONTINUOUS
 10
287.279541
 20
54.857189
 11
287.873322
 21
54.857189
  0
ARC
  8
0
  6
CONTINUOUS
 10
301.451538
 20
62.341564
 40
3.203126
 50
-73.981873
 51
90.003510
  0
ARC
  8
0
  6
CONTINUOUS
 10
301.451538
 20
62.341564
 40
1.954125
 50
-82.585274
 51
62.411850
  0
LINE
  8
0
  6
CONTINUOUS
 10
296.654541
 20
65.544685
 11
301.451538
 21
65.544685
  0
LINE
  8
0
  6
CONTINUOUS
 10
301.703522
 20
60.403778
 11
298.623322
 21
60.403778
  0
LINE
  8
0
  6
CONTINUOUS
 10
296.654541
 20
65.544685
 11
296.654541
 21
64.075935
  0
LINE
  8
0
  6
CONTINUOUS
 10
298.623322
 20
64.075935
 11
298.623322
 21
60.403778
  0
LINE
  8
0
  6
CONTINUOUS
 10
302.335327
 20
59.262798
 11
304.317719
 21
54.794689
  0
LINE
  8
0
  6
CONTINUOUS
 10
301.183716
 20
59.154060
 11
303.059937
 21
54.794689
  0
LINE
  8
0
  6
CONTINUOUS
 10
296.654541
 20
54.794689
 11
297.248322
 21
54.794689
  0
LINE
  8
0
  6
CONTINUOUS
 10
298.623322
 20
54.794689
 11
299.170135
 21
54.794689
  0
LINE
  8
0
  6
CONTINUOUS
 10
299.170135
 20
53.544689
 11
296.654541
 21
53.544689
  0
LINE
  8
0
  6
CONTINUOUS
 10
302.810730
 20
54.794689
 11
303.059937
 21
54.794689
  0
LINE
  8
0
  6
CONTINUOUS
 10
304.317719
 20
54.794689
 11
304.654541
 21
54.794689
  0
LINE
  8
0
  6
CONTINUOUS
 10
302.810730
 20
53.544689
 11
304.654541
 21
53.544689
  0
LINE
  8
0
  6
CONTINUOUS
 10
304.654541
 20
54.794689
 11
304.654541
 21
53.544689
  0
LINE
  8
0
  6
CONTINUOUS
 10
302.810730
 20
54.794689
 11
302.810730
 21
53.544689
  0
LINE
  8
0
  6
CONTINUOUS
 10
299.170135
 20
54.794689
 11
299.170135
 21
53.544689
  0
LINE
  8
0
  6
CONTINUOUS
 10
296.654541
 20
54.794689
 11
296.654541
 21
53.544689
  0
LINE
  8
0
  6
CONTINUOUS
 10
285.972321
 20
64.075935
 11
285.542542
 21
63.044689
  0
LINE
  8
0
  6
CONTINUOUS
 10
291.457733
 20
64.075935
 11
291.820129
 21
63.044689
  0
LINE
  8
0
  6
CONTINUOUS
 10
289.373322
 20
64.075935
 11
291.457733
 21
64.075935
  0
LINE
  8
0
  6
CONTINUOUS
 10
287.873322
 20
64.075935
 11
285.972321
 21
64.075935
  0
LINE
  8
0
  6
CONTINUOUS
 10
298.623322
 20
59.154060
 11
301.183716
 21
59.154060
  0
LINE
  8
0
  6
CONTINUOUS
 10
296.654541
 20
64.075935
 11
297.248322
 21
64.075935
  0
LINE
  8
0
  6
CONTINUOUS
 10
298.623322
 20
64.075935
 11
302.356323
 21
64.073509
  0
LINE
  8
0
  6
CONTINUOUS
 10
279.498322
 20
63.233833
 11
279.498322
 21
63.044689
  0
LINE
  8
0
  6
CONTINUOUS
 10
223.904556
 20
133.544693
 11
223.904526
 21
18.544687
  0
LINE
  8
0
  6
CONTINUOUS
 10
57.904530
 20
103.044670
 11
171.904526
 21
103.044670
  0
LINE
  8
0
  6
CONTINUOUS
 10
57.904530
 20
27.044708
 11
171.904526
 21
27.044708
  0
LINE
  8
0
  6
CONTINUOUS
 10
57.904530
 20
95.293671
 11
163.904526
 21
95.293671
  0
LINE
  8
0
  6
CONTINUOUS
 10
57.904530
 20
34.795708
 11
163.904526
 21
34.795708
  0
LINE
  8
0
  6
CONTINUOUS
 10
163.904526
 20
101.044670
 11
163.904526
 21
29.044687
  0
ARC
  8
0
  6
CONTINUOUS
 10
165.904526
 20
101.044685
 40
2.000000
 50
90.000000
 51
180.000000
  0
ARC
  8
0
  6
CONTINUOUS
 10
165.904526
 20
29.044708
 40
2.000000
 50
180.000000
 51
270.000000
  0
LINE
  8
0
  6
CENTER
 10
533.404541
 20
-14.080333
 11
533.404541
 21
165.469681
  0
LINE
  8
0
  6
CENTER
 10
463.179535
 20
76.044685
 11
602.304504
 21
76.044685
  0
LINE
  8
0
  6
CENTER
 10
431.654541
 20
106.544685
 11
636.654541
 21
106.544685
  0
LINE
  8
0
  6
CONTINUOUS
 10
475.404541
 20
1.544687
 11
508.404541
 21
1.544687
  0
LINE
  8
0
  6
CONTINUOUS
 10
475.404541
 20
12.171087
 11
475.404541
 21
1.544687
  0
LINE
  8
0
  6
CONTINUOUS
 10
591.404541
 20
12.171087
 11
591.404541
 21
1.544687
  0
LINE
  8
0
  6
CONTINUOUS
 10
477.404541
 20
13.544687
 11
498.404541
 21
13.544687
  0
LINE
  8
0
  6
CONTINUOUS
 10
589.404541
 20
13.544687
 11
568.404541
 21
13.544687
  0
LINE
  8
0
  6
CONTINUOUS
 10
501.404541
 20
24.918287
 11
501.404541
 21
149.020615
  0
LINE
  8
0
  6
CONTINUOUS
 10
565.404541
 20
24.918287
 11
565.404541
 21
149.020966
  0
LINE
  8
0
  6
CONTINUOUS
 10
563.439331
 20
151.020660
 11
533.404541
 21
151.544693
  0
LINE
  8
0
  6
CONTINUOUS
 10
503.369537
 20
151.020325
 11
533.404541
 21
151.544693
  0
ARC
  8
0
  6
CONTINUOUS
 10
503.404541
 20
149.020630
 40
2.000000
 50
91.000580
 51
180.000000
  0
ARC
  8
0
  6
CONTINUOUS
 10
563.404541
 20
149.020966
 40
2.000000
 50
0.000000
 51
89.000519
  0
LINE
  8
0
  6
CONTINUOUS
 10
565.404541
 20
16.544687
 11
565.404541
 21
1.544687
  0
ARC
  8
0
  6
CONTINUOUS
 10
568.404541
 20
16.544687
 40
3.000000
 50
180.000000
 51
270.000000
  0
LINE
  8
0
  6
CONTINUOUS
 10
501.404541
 20
16.544687
 11
501.404541
 21
1.544687
  0
ARC
  8
0
  6
CONTINUOUS
 10
498.404541
 20
16.544666
 40
3.000000
 50
-90.000000
 51
0.000000
  0
ARC
  8
0
  6
CONTINUOUS
 10
477.404541
 20
11.544687
 40
2.000000
 50
90.000000
 51
180.000000
  0
ARC
  8
0
  6
CONTINUOUS
 10
589.404541
 20
11.544687
 40
2.000000
 50
0.000000
 51
90.000000
  0
LINE
  8
0
  6
CENTER
 10
488.404541
 20
17.834688
 11
488.404541
 21
-2.565312
  0
LINE
  8
0
  6
CENTER
 10
578.404541
 20
18.854689
 11
578.404541
 21
-3.075313
  0
LINE
  8
0
  6
CONTINUOUS
 10
500.122528
 20
23.051607
 11
476.686523
 21
14.037788
  0
ARC
  8
0
  6
CONTINUOUS
 10
477.404541
 20
12.171107
 40
2.000000
 50
111.037903
 51
180.000000
  0
LINE
  8
0
  6
CONTINUOUS
 10
501.404541
 20
24.918287
 11
501.404541
 21
16.544687
  0
ARC
  8
0
  6
CONTINUOUS
 10
499.404541
 20
24.918287
 40
2.000000
 50
-68.962189
 51
0.000000
  0
LINE
  8
0
  6
CONTINUOUS
 10
566.686523
 20
23.051588
 11
590.122559
 21
14.037788
  0
ARC
  8
0
  6
CONTINUOUS
 10
589.404541
 20
12.171087
 40
2.000000
 50
0.000000
 51
68.962646
  0
LINE
  8
0
  6
CONTINUOUS
 10
565.404541
 20
24.918287
 11
565.404541
 21
16.544687
  0
ARC
  8
0
  6
CONTINUOUS
 10
567.404541
 20
24.918308
 40
2.000000
 50
180.000000
 51
248.962799
  0
LINE
  8
0
  6
CONTINUOUS
 10
485.404541
 20
81.351837
 11
485.404541
 21
131.737534
  0
LINE
  8
0
  6
CONTINUOUS
 10
581.404541
 20
81.351845
 11
581.404541
 21
131.737534
  0
LINE
  8
0
  6
CONTINUOUS
 10
571.404541
 20
48.349529
 11
571.404541
 21
108.614685
  0
LINE
  8
0
  6
CONTINUOUS
 10
495.404541
 20
48.349529
 11
495.404541
 21
108.614685
  0
LINE
  8
0
  6
CONTINUOUS
 10
579.174744
 20
134.636993
 11
567.634338
 21
137.702393
  0
LINE
  8
0
  6
CONTINUOUS
 10
579.174744
 20
78.452385
 11
573.634338
 21
76.980736
  0
LINE
  8
0
  6
CONTINUOUS
 10
569.177551
 20
45.450829
 11
567.631531
 21
45.038548
  0
LINE
  8
0
  6
CONTINUOUS
 10
497.631531
 20
45.450806
 11
499.177521
 21
45.038548
  0
LINE
  8
0
  6
CONTINUOUS
 10
487.634338
 20
78.452385
 11
493.174744
 21
76.980736
  0
LINE
  8
0
  6
CONTINUOUS
 10
487.634338
 20
134.636993
 11
499.174744
 21
137.702393
  0
ARC
  8
0
  6
CONTINUOUS
 10
488.404541
 20
131.737549
 40
3.000000
 50
104.876099
 51
180.000000
  0
ARC
  8
0
  6
CONTINUOUS
 10
488.404541
 20
81.351860
 40
3.000000
 50
180.000000
 51
255.124603
  0
ARC
  8
0
  6
CONTINUOUS
 10
578.404541
 20
131.737534
 40
3.000000
 50
0.000000
 51
75.124413
  0
ARC
  8
0
  6
CONTINUOUS
 10
578.404541
 20
81.351837
 40
3.000000
 50
-75.124207
 51
0.000000
  0
ARC
  8
0
  6
CONTINUOUS
 10
498.404541
 20
48.349548
 40
3.000000
 50
180.000000
 51
255.069000
  0
ARC
  8
0
  6
CONTINUOUS
 10
568.404541
 20
48.349529
 40
3.000000
 50
-75.068420
 51
0.000000
  0
ARC
  8
0
  6
CONTINUOUS
 10
568.404541
 20
140.601868
 40
3.000000
 50
180.000000
 51
255.124603
  0
ARC
  8
0
  6
CONTINUOUS
 10
574.404541
 20
74.081299
 40
3.000000
 50
104.876099
 51
180.000000
  0
ARC
  8
0
  6
CONTINUOUS
 10
568.404541
 20
42.139870
 40
3.000000
 50
104.931801
 51
180.000000
  0
ARC
  8
0
  6
CONTINUOUS
 10
498.404541
 20
42.139847
 40
3.000000
 50
0.000000
 51
75.068779
  0
ARC
  8
0
  6
CONTINUOUS
 10
492.404541
 20
74.081268
 40
3.000000
 50
0.000000
 51
75.124496
  0
ARC
  8
0
  6
CONTINUOUS
 10
498.404541
 20
140.601822
 40
3.000000
 50
-75.124153
 51
0.000000
  0
LINE
  8
0
  6
DASHED
 10
482.904541
 20
13.544687
 11
482.904541
 21
1.544687
  0
LINE
  8
0
  6
DASHED
 10
493.904541
 20
13.544687
 11
493.904541
 21
1.544687
  0
LINE
  8
0
  6
DASHED
 10
572.904541
 20
13.544687
 11
572.904541
 21
1.544687
  0
LINE
  8
0
  6
DASHED
 10
583.904541
 20
13.544687
 11
583.904541
 21
1.544687
  0
LINE
  8
0
  6
CONTINUOUS
 10
503.634521
 20
128.544693
 11
563.304504
 21
128.544693
  0
LINE
  8
0
  6
CONTINUOUS
 10
485.904541
 20
33.544689
 11
485.904541
 21
42.596027
  0
LINE
  8
0
  6
CONTINUOUS
 10
580.904541
 20
33.544689
 11
580.904541
 21
42.596027
  0
LINE
  8
0
  6
CONTINUOUS
 10
490.904541
 20
28.544687
 11
499.935730
 21
28.544687
  0
LINE
  8
0
  6
CONTINUOUS
 10
575.904541
 20
28.544687
 11
566.853149
 21
28.544687
  0
ARC
  8
0
  6
CONTINUOUS
 10
533.404541
 20
76.044685
 40
57.250000
 50
-32.501888
 51
19.914110
  0
ARC
  8
0
  6
CONTINUOUS
 10
533.404541
 20
76.044685
 40
57.250000
 50
160.085907
 51
212.501907
  0
ARC
  8
0
  6
CONTINUOUS
 10
490.904541
 20
33.544689
 40
5.000000
 50
180.000000
 51
270.000000
  0
ARC
  8
0
  6
CONTINUOUS
 10
575.904541
 20
33.544689
 40
5.000000
 50
-90.000000
 51
0.000000
  0
ARC
  8
0
  6
CONTINUOUS
 10
499.955933
 20
23.544687
 40
5.000000
 50
73.928284
 51
90.230461
  0
ARC
  8
0
  6
CONTINUOUS
 10
566.853149
 20
23.544687
 40
5.000000
 50
90.000000
 51
106.071800
  0
ARC
  8
0
  6
CONTINUOUS
 10
480.904541
 20
42.596027
 40
5.000000
 50
0.000000
 51
32.499691
  0
ARC
  8
0
  6
CONTINUOUS
 10
585.904541
 20
42.596027
 40
5.000000
 50
147.498306
 51
180.000000
  0
LINE
  8
0
  6
CONTINUOUS
 10
567.404541
 20
27.044687
 11
565.404541
 21
27.044687
  0
LINE
  8
0
  6
CONTINUOUS
 10
499.404541
 20
27.044687
 11
501.404541
 21
27.044687
  0
ARC
  8
0
  6
CONTINUOUS
 10
567.404541
 20
31.044687
 40
4.000000
 50
270.000000
 51
322.311005
  0
ARC
  8
0
  6
CONTINUOUS
 10
499.404541
 20
31.044687
 40
4.000000
 50
218.645996
 51
270.000000
  0
LINE
  8
0
  6
CONTINUOUS
 10
296.154541
 20
103.544708
 11
296.154541
 21
109.544708
  0
LINE
  8
0
  6
CONTINUOUS
 10
302.154541
 20
103.544731
 11
302.154541
 21
109.544731
  0
LINE
  8
0
  6
CONTINUOUS
 10
302.154541
 20
103.544731
 11
296.154541
 21
103.544708
  0
LINE
  8
0
  6
CONTINUOUS
 10
302.154541
 20
109.544731
 11
296.154541
 21
109.544708
  0
ARC
  8
0
  6
CONTINUOUS
 10
288.654541
 20
106.544685
 40
11.000000
 50
15.826600
 51
344.173401
  0
LINE
  8
0
  6
CONTINUOUS
 10
443.404541
 20
95.544685
 11
443.404541
 21
117.544685
  0
LINE
  8
0
  6
CONTINUOUS
 10
483.404541
 20
117.544685
 11
443.404541
 21
117.544685
  0
LINE
  8
0
  6
CONTINUOUS
 10
483.404541
 20
95.544685
 11
443.404541
 21
95.544685
  0
LINE
  8
0
  6
CONTINUOUS
 10
483.404541
 20
119.044685
 11
483.404541
 21
94.044685
  0
LINE
  8
0
  6
CONTINUOUS
 10
485.404541
 20
119.044685
 11
483.404541
 21
119.044685
  0
LINE
  8
0
  6
CONTINUOUS
 10
485.404541
 20
94.044685
 11
483.404541
 21
94.044685
  0
ARC
  8
0
  6
CONTINUOUS
 10
475.404541
 20
106.544685
 40
3.000000
 50
-90.000000
 51
90.000000
  0
LINE
  8
0
  6
CONTINUOUS
 10
475.404541
 20
109.544685
 11
443.404541
 21
109.544685
  0
LINE
  8
0
  6
CONTINUOUS
 10
475.404541
 20
103.544685
 11
443.404541
 21
103.544685
  0
LINE
  8
0
  6
CONTINUOUS
 10
623.404541
 20
95.544685
 11
623.404541
 21
117.544685
  0
LINE
  8
0
  6
CONTINUOUS
 10
583.404541
 20
117.544685
 11
623.404541
 21
117.544685
  0
LINE
  8
0
  6
CONTINUOUS
 10
583.404541
 20
95.544685
 11
623.404541
 21
95.544685
  0
LINE
  8
0
  6
CONTINUOUS
 10
583.404541
 20
119.044685
 11
583.404541
 21
94.044685
  0
LINE
  8
0
  6
CONTINUOUS
 10
581.404541
 20
119.044685
 11
583.404541
 21
119.044685
  0
LINE
  8
0
  6
CONTINUOUS
 10
581.404541
 20
94.044685
 11
583.404541
 21
94.044685
  0
ARC
  8
0
  6
CONTINUOUS
 10
591.404541
 20
106.544685
 40
3.000000
 50
90.000000
 51
270.000000
  0
LINE
  8
0
  6
CONTINUOUS
 10
591.404541
 20
109.544685
 11
623.404541
 21
109.544685
  0
LINE
  8
0
  6
CONTINUOUS
 10
591.404541
 20
103.544685
 11
623.404541
 21
103.544685
  0
LINE
  8
0
  6
CENTER
 10
-14.602500
 20
65.044685
 11
256.654541
 21
65.044685
  0
LINE
  8
0
  6
CONTINUOUS
 10
213.491776
 20
104.496948
 11
171.904526
 21
103.044685
  0
LINE
  8
0
  6
CONTINUOUS
 10
223.904526
 20
25.228807
 11
171.904526
 21
27.044687
  0
LINE
  8
0
  6
CONTINUOUS
 10
215.904526
 20
132.544693
 11
215.904526
 21
105.544685
  0
LINE
  8
0
  6
CONTINUOUS
 10
216.904526
 20
133.544693
 11
223.904556
 21
133.544693
  0
LINE
  8
0
  6
CONTINUOUS
 10
218.404526
 20
18.544687
 11
223.904526
 21
18.544687
  0
LINE
  8
0
  6
CONTINUOUS
 10
215.904526
 20
106.044685
 11
215.904526
 21
35.132030
  0
LINE
  8
0
  6
CONTINUOUS
 10
171.904526
 20
103.044685
 11
171.904526
 21
27.044687
  0
LINE
  8
0
  6
CONTINUOUS
 10
214.491409
 20
116.362488
 11
188.547974
 21
103.838081
  0
LINE
  8
0
  6
CENTER
 10
288.654541
 20
390.724091
 11
288.654541
 21
194.298431
  0
LINE
  8
0
  6
CENTER
 10
-14.602500
 20
294.522400
 11
357.993988
 21
294.522400
  0
LINE
  8
0
  6
CONTINUOUS
 10
237.436508
 20
326.522400
 11
336.182495
 21
326.522400
  0
LINE
  8
0
  6
CONTINUOUS
 10
237.436508
 20
262.522400
 11
336.182495
 21
262.522400
  0
LINE
  8
0
  6
CONTINUOUS
 10
331.592621
 20
352.522400
 11
302.154541
 21
352.522400
  0
LINE
  8
0
  6
CONTINUOUS
 10
245.716431
 20
236.522400
 11
277.654541
 21
236.522400
  0
LINE
  8
0
  6
CONTINUOUS
 10
341.654541
 20
294.522400
 11
341.095978
 21
326.522400
  0
LINE
  8
0
  6
CONTINUOUS
 10
336.486603
 20
348.546631
 11
341.095978
 21
326.522400
  0
ARC
  8
0
  6
CONTINUOUS
 10
331.592621
 20
347.522400
 40
5.000000
 50
11.820596
 51
90.000000
  0
LINE
  8
0
  6
CONTINUOUS
 10
341.654541
 20
294.522400
 11
341.095978
 21
262.522400
  0
LINE
  8
0
  6
CONTINUOUS
 10
336.486603
 20
240.498154
 11
341.095978
 21
262.522400
  0
ARC
  8
0
  6
CONTINUOUS
 10
331.592621
 20
241.522400
 40
5.000000
 50
-90.000000
 51
-11.820596
  0
LINE
  8
0
  6
CONTINUOUS
 10
308.654541
 20
264.522400
 11
308.654541
 21
324.522400
  0
LINE
  8
0
  6
CONTINUOUS
 10
268.654541
 20
264.522400
 11
268.654541
 21
324.522400
  0
ARC
  8
0
  6
CONTINUOUS
 10
336.182495
 20
321.522400
 40
5.000000
 50
1.000000
 51
90.000000
  0
ARC
  8
0
  6
CONTINUOUS
 10
336.182495
 20
267.522400
 40
5.000000
 50
270.000000
 51
359.000000
  0
LINE
  8
0
  6
CONTINUOUS
 10
231.981033
 20
240.193863
 11
232.438217
 21
257.653290
  0
LINE
  8
0
  6
CONTINUOUS
 10
223.904526
 20
352.022400
 11
223.904526
 21
237.022400
  0
LINE
  8
0
  6
CONTINUOUS
 10
242.469528
 20
312.522400
 11
242.469528
 21
276.522400
  0
LINE
  8
0
  6
CONTINUOUS
 10
223.904526
 20
351.772400
 11
228.982056
 21
351.772400
  0
LINE
  8
0
  6
CONTINUOUS
 10
228.982056
 20
237.272400
 11
223.904526
 21
237.272400
  0
ARC
  8
0
  6
CONTINUOUS
 10
237.436508
 20
257.522400
 40
5.000000
 50
90.000000
 51
178.500000
  0
ARC
  8
0
  6
CONTINUOUS
 10
228.982056
 20
240.272400
 40
3.000000
 50
270.000000
 51
358.500000
  0
LINE
  8
0
  6
CONTINUOUS
 10
231.981033
 20
348.850922
 11
232.438217
 21
331.391510
  0
ARC
  8
0
  6
CONTINUOUS
 10
237.436508
 20
331.522400
 40
5.000000
 50
-178.500000
 51
-90.000000
  0
ARC
  8
0
  6
CONTINUOUS
 10
228.982056
 20
348.772400
 40
3.000000
 50
-358.500000
 51
-270.000000
  0
LINE
  8
0
  6
CONTINUOUS
 10
240.822464
 20
348.546631
 11
236.243332
 21
326.666840
  0
ARC
  8
0
  6
CONTINUOUS
 10
245.716431
 20
347.522400
 40
5.000000
 50
90.000000
 51
168.179398
  0
LINE
  8
0
  6
CONTINUOUS
 10
240.822464
 20
240.498154
 11
236.243332
 21
262.377930
  0
ARC
  8
0
  6
CONTINUOUS
 10
245.716431
 20
241.522400
 40
5.000000
 50
-168.179398
 51
-90.000000
  0
LINE
  8
0
  6
CENTER
 10
313.204926
 20
249.522400
 11
334.059082
 21
249.522400
  0
LINE
  8
0
  6
CENTER
 10
323.654541
 20
257.079681
 11
323.654541
 21
240.308853
  0
CIRCLE
  8
0
  6
CONTINUOUS
 10
323.654541
 20
249.522400
 40
5.500000
  0
LINE
  8
0
  6
CENTER
 10
264.104126
 20
249.522400
 11
243.249969
 21
249.522400
  0
LINE
  8
0
  6
CENTER
 10
253.654526
 20
257.079681
 11
253.654526
 21
240.308853
  0
CIRCLE
  8
0
  6
CONTINUOUS
 10
253.654526
 20
249.522400
 40
5.500000
  0
LINE
  8
0
  6
CENTER
 10
313.204926
 20
339.522400
 11
334.059082
 21
339.522400
  0
LINE
  8
0
  6
CENTER
 10
323.654541
 20
331.965118
 11
323.654541
 21
348.735931
  0
CIRCLE
  8
0
  6
CONTINUOUS
 10
323.654541
 20
339.522400
 40
5.500000
  0
LINE
  8
0
  6
CENTER
 10
264.104126
 20
339.522400
 11
243.249969
 21
339.522400
  0
LINE
  8
0
  6
CENTER
 10
253.654526
 20
331.965118
 11
253.654526
 21
348.735931
  0
CIRCLE
  8
0
  6
CONTINUOUS
 10
253.654526
 20
339.522400
 40
5.500000
  0
LINE
  8
0
  6
CONTINUOUS
 10
263.461700
 20
246.522400
 11
313.847382
 21
246.522400
  0
LINE
  8
0
  6
CONTINUOUS
 10
318.810791
 20
256.522400
 11
322.097626
 21
256.522400
  0
ARC
  8
0
  6
CONTINUOUS
 10
313.847382
 20
249.522400
 40
3.000000
 50
270.000000
 51
345.124329
  0
LINE
  8
0
  6
CONTINUOUS
 10
324.997070
 20
258.752228
 11
325.406219
 21
260.292572
  0
ARC
  8
0
  6
CONTINUOUS
 10
322.097626
 20
259.522400
 40
3.000000
 50
270.000000
 51
345.124329
  0
ARC
  8
0
  6
CONTINUOUS
 10
328.305695
 20
259.522400
 40
3.000000
 50
90.000000
 51
165.124313
  0
LINE
  8
0
  6
CONTINUOUS
 10
318.810791
 20
256.522400
 11
316.746826
 21
248.752228
  0
LINE
  8
0
  6
CONTINUOUS
 10
252.311981
 20
258.752228
 11
251.902832
 21
260.292572
  0
ARC
  8
0
  6
CONTINUOUS
 10
255.211441
 20
259.522400
 40
3.000000
 50
-165.124313
 51
-90.000000
  0
ARC
  8
0
  6
CONTINUOUS
 10
249.003372
 20
259.522400
 40
3.000000
 50
14.875682
 51
90.000000
  0
LINE
  8
0
  6
CONTINUOUS
 10
258.498291
 20
256.522400
 11
255.211441
 21
256.522400
  0
ARC
  8
0
  6
CONTINUOUS
 10
263.461700
 20
249.522400
 40
3.000000
 50
-165.124313
 51
-90.000000
  0
LINE
  8
0
  6
CONTINUOUS
 10
258.498291
 20
256.522400
 11
260.562225
 21
248.752228
  0
CIRCLE
  8
0
  6
CONTINUOUS
 10
323.654541
 20
339.522400
 40
5.500000
  0
LINE
  8
0
  6
CONTINUOUS
 10
263.461700
 20
342.522400
 11
313.847382
 21
342.522400
  0
LINE
  8
0
  6
CONTINUOUS
 10
318.810791
 20
332.522400
 11
322.097626
 21
332.522400
  0
ARC
  8
0
  6
CONTINUOUS
 10
313.847382
 20
339.522400
 40
3.000000
 50
-345.124329
 51
-270.000000
  0
LINE
  8
0
  6
CONTINUOUS
 10
324.997070
 20
330.292572
 11
325.406219
 21
328.752228
  0
ARC
  8
0
  6
CONTINUOUS
 10
322.097626
 20
329.522400
 40
3.000000
 50
-345.124329
 51
-270.000000
  0
ARC
  8
0
  6
CONTINUOUS
 10
328.305695
 20
329.522400
 40
3.000000
 50
-165.124313
 51
-90.000000
  0
LINE
  8
0
  6
CONTINUOUS
 10
318.810791
 20
332.522400
 11
316.746826
 21
340.292572
  0
LINE
  8
0
  6
CONTINUOUS
 10
252.311981
 20
330.292572
 11
251.902832
 21
328.752228
  0
ARC
  8
0
  6
CONTINUOUS
 10
255.211441
 20
329.522400
 40
3.000000
 50
90.000000
 51
165.124313
  0
ARC
  8
0
  6
CONTINUOUS
 10
249.003372
 20
329.522400
 40
3.000000
 50
-90.000000
 51
-14.875682
  0
LINE
  8
0
  6
CONTINUOUS
 10
258.498291
 20
332.522400
 11
255.211441
 21
332.522400
  0
ARC
  8
0
  6
CONTINUOUS
 10
263.461700
 20
339.522400
 40
3.000000
 50
90.000000
 51
165.124313
  0
LINE
  8
0
  6
CONTINUOUS
 10
258.498291
 20
332.522400
 11
260.562225
 21
340.292572
  0
LINE
  8
0
  6
CONTINUOUS
 10
277.654541
 20
204.522400
 11
302.154541
 21
204.522400
  0
LINE
  8
0
  6
CONTINUOUS
 10
299.654541
 20
244.522400
 11
299.654541
 21
239.522400
  0
LINE
  8
0
  6
CONTINUOUS
 10
277.654541
 20
244.522400
 11
277.654541
 21
204.522400
  0
LINE
  8
0
  6
CONTINUOUS
 10
301.154541
 20
246.522400
 11
301.154541
 21
244.522400
  0
LINE
  8
0
  6
CONTINUOUS
 10
276.154541
 20
246.522400
 11
276.154541
 21
244.522400
  0
LINE
  8
0
  6
CONTINUOUS
 10
276.154541
 20
244.522400
 11
301.154541
 21
244.522400
  0
LINE
  8
0
  6
CONTINUOUS
 10
302.154541
 20
236.522400
 11
331.592621
 21
236.522400
  0
LINE
  8
0
  6
CONTINUOUS
 10
302.154541
 20
239.522400
 11
302.154541
 21
204.522400
  0
LINE
  8
0
  6
CONTINUOUS
 10
299.237549
 20
204.522400
 11
299.237549
 21
239.522400
  0
LINE
  8
0
  6
CONTINUOUS
 10
299.237549
 20
239.522400
 11
302.154541
 21
239.522400
  0
LINE
  8
0
  6
CONTINUOUS
 10
277.654541
 20
384.522400
 11
302.154541
 21
384.522400
  0
LINE
  8
0
  6
CONTINUOUS
 10
299.654541
 20
344.522400
 11
299.654541
 21
349.522400
  0
LINE
  8
0
  6
CONTINUOUS
 10
277.654541
 20
344.522400
 11
277.654541
 21
384.522400
  0
LINE
  8
0
  6
CONTINUOUS
 10
301.154541
 20
342.522400
 11
301.154541
 21
344.522400
  0
LINE
  8
0
  6
CONTINUOUS
 10
276.154541
 20
342.522400
 11
276.154541
 21
344.522400
  0
LINE
  8
0
  6
CONTINUOUS
 10
276.154541
 20
344.522400
 11
301.154541
 21
344.522400
  0
LINE
  8
0
  6
CONTINUOUS
 10
302.154541
 20
349.522400
 11
302.154541
 21
384.522400
  0
LINE
  8
0
  6
CONTINUOUS
 10
299.237549
 20
384.522400
 11
299.237549
 21
349.522400
  0
LINE
  8
0
  6
CONTINUOUS
 10
299.237549
 20
349.522400
 11
302.154541
 21
349.522400
  0
LINE
  8
0
  6
CONTINUOUS
 10
277.654541
 20
352.522400
 11
245.538269
 21
352.522400
  0
LINE
  8
0
  6
CONTINUOUS
 10
223.904526
 20
342.022400
 11
229.237381
 21
342.022400
  0
ARC
  8
0
  6
CONTINUOUS
 10
229.237381
 20
339.022400
 40
3.000000
 50
1.500000
 51
90.000000
  0
LINE
  8
0
  6
CONTINUOUS
 10
232.195007
 20
326.522400
 11
223.904526
 21
326.522400
  0
LINE
  8
0
  6
CONTINUOUS
 10
232.195007
 20
262.522400
 11
223.904526
 21
262.522400
  0
LINE
  8
0
  6
CONTINUOUS
 10
223.904526
 20
247.022400
 11
229.237381
 21
247.022400
  0
ARC
  8
0
  6
CONTINUOUS
 10
229.237381
 20
250.022400
 40
3.000000
 50
-90.000000
 51
-1.500000
  0
LINE
  8
0
  6
CONTINUOUS
 10
509.404541
 20
2.544687
 11
557.404541
 21
2.544687
  0
LINE
  8
0
  6
CONTINUOUS
 10
558.404541
 20
1.544687
 11
557.404541
 21
2.544687
  0
LINE
  8
0
  6
CONTINUOUS
 10
508.404541
 20
1.544687
 11
509.404541
 21
2.544687
  0
LINE
  8
0
  6
CONTINUOUS
 10
558.404541
 20
1.544687
 11
591.404541
 21
1.544687
  0
LINE
  8
0
  6
CONTINUOUS
 10
218.404526
 20
237.022400
 11
223.904526
 21
237.022400
  0
LINE
  8
0
  6
CONTINUOUS
 10
218.404526
 20
352.022400
 11
223.904526
 21
352.022400
  0
LINE
  8
0
  6
CONTINUOUS
 10
215.904526
 20
239.522400
 11
215.904526
 21
349.522400
  0
LINE
  8
0
  6
CONTINUOUS
 10
171.904526
 20
332.522400
 11
171.904526
 21
256.522400
  0
LINE
  8
0
  6
CONTINUOUS
 10
213.491776
 20
333.974640
 11
171.904526
 21
332.522400
  0
LINE
  8
0
  6
CONTINUOUS
 10
213.491776
 20
255.070129
 11
171.904526
 21
256.522400
  0
ARC
  8
0
  6
CONTINUOUS
 10
218.404526
 20
349.522400
 40
2.500000
 50
90.000000
 51
180.000000
  0
ARC
  8
0
  6
CONTINUOUS
 10
218.404526
 20
239.522400
 40
2.500000
 50
180.000000
 51
270.000000
  0
ARC
  8
0
  6
CONTINUOUS
 10
216.904526
 20
132.544693
 40
1.000000
 50
90.000000
 51
180.000000
  0
ARC
  8
0
  6
CONTINUOUS
 10
213.404526
 20
118.613869
 40
2.500000
 50
-64.230675
 51
0.000000
  0
ARC
  8
0
  6
CONTINUOUS
 10
213.404526
 20
106.995422
 40
2.500000
 50
-88.000000
 51
0.000000
  0
ARC
  8
0
  6
CONTINUOUS
 10
187.461105
 20
106.089462
 40
2.500000
 50
272.000000
 51
295.769318
  0
LINE
  8
0
  6
CONTINUOUS
 10
171.904526
 20
332.522400
 11
171.904526
 21
256.522400
  0
LINE
  8
0
  6
CONTINUOUS
 10
57.904652
 20
332.522369
 11
171.904648
 21
332.522369
  0
LINE
  8
0
  6
CONTINUOUS
 10
57.904652
 20
256.522430
 11
171.904648
 21
256.522430
  0
LINE
  8
0
  6
CONTINUOUS
 10
163.904648
 20
330.522369
 11
163.904648
 21
317.522400
  0
ARC
  8
0
  6
CONTINUOUS
 10
165.904648
 20
330.522400
 40
2.000000
 50
90.000000
 51
180.000000
  0
ARC
  8
0
  6
CONTINUOUS
 10
165.904648
 20
258.522430
 40
2.000000
 50
180.000000
 51
270.000000
  0
LINE
  8
0
  6
CONTINUOUS
 10
57.904652
 20
317.522400
 11
163.904648
 21
317.522400
  0
LINE
  8
0
  6
CONTINUOUS
 10
57.904652
 20
271.522400
 11
163.904648
 21
271.522400
  0
LINE
  8
0
  6
CONTINUOUS
 10
163.904648
 20
271.522400
 11
163.904648
 21
258.522400
  0
ARC
  8
0
  6
CONTINUOUS
 10
203.074158
 20
294.522400
 40
15.000000
 50
130.747620
 51
229.252380
  0
LINE
  8
0
  6
CONTINUOUS
 10
215.036346
 20
324.628387
 11
193.283234
 21
305.886261
  0
LINE
  8
0
  6
CONTINUOUS
 10
215.036346
 20
264.416412
 11
193.283234
 21
283.158508
  0
ARC
  8
0
  6
CONTINUOUS
 10
213.404526
 20
326.522369
 40
2.500000
 50
-49.252373
 51
0.000000
  0
ARC
  8
0
  6
CONTINUOUS
 10
213.404526
 20
336.473145
 40
2.500000
 50
-88.000000
 51
0.000000
  0
ARC
  8
0
  6
CONTINUOUS
 10
213.404526
 20
262.522430
 40
2.500000
 50
0.000000
 51
49.252373
  0
ARC
  8
0
  6
CONTINUOUS
 10
213.404526
 20
252.571655
 40
2.500000
 50
0.000000
 51
88.000000
  0
LINE
  8
0
  6
CONTINUOUS
 10
217.029602
 20
32.890690
 11
223.904526
 21
32.890690
  0
LINE
  8
0
  6
CONTINUOUS
 10
215.904526
 20
21.044687
 11
215.904526
 21
23.093952
  0
ARC
  8
0
  6
CONTINUOUS
 10
218.404526
 20
21.044687
 40
2.500000
 50
180.000000
 51
270.000000
  0
ARC
  8
0
  6
CONTINUOUS
 10
213.404526
 20
23.093952
 40
2.500000
 50
0.000000
 51
88.000000
  0
ARC
  8
0
  6
CONTINUOUS
 10
533.404541
 20
76.044685
 40
57.500000
 50
236.002823
 51
236.184402
  0
ARC
  8
0
  6
CONTINUOUS
 10
533.404541
 20
76.044685
 40
57.500000
 50
303.815582
 51
303.997162
  0
ARC
  8
0
  6
CONTINUOUS
 10
533.404541
 20
76.044685
 40
57.500000
 50
-33.997124
 51
19.823904
  0
ARC
  8
0
  6
CONTINUOUS
 10
533.404541
 20
76.044685
 40
57.500000
 50
160.176102
 51
213.997131
  0
LINE
  8
0
  6
CONTINUOUS
 10
57.904652
 20
332.522369
 11
57.904652
 21
301.388397
  0
LINE
  8
0
  6
CONTINUOUS
 10
57.904652
 20
332.522369
 11
48.404652
 21
332.522369
  0
LINE
  8
0
  6
CONTINUOUS
 10
57.904652
 20
256.522369
 11
48.404652
 21
256.522369
  0
LINE
  8
0
  6
CONTINUOUS
 10
57.904652
 20
271.522369
 11
48.404652
 21
271.522369
  0
LINE
  8
0
  6
CONTINUOUS
 10
57.904652
 20
317.522369
 11
48.404652
 21
317.522369
  0
LINE
  8
0
  6
CONTINUOUS
 10
51.404652
 20
288.522369
 11
51.404652
 21
300.522369
  0
LINE
  8
0
  6
CONTINUOUS
 10
58.404652
 20
288.522369
 11
58.404652
 21
300.522369
  0
LINE
  8
0
  6
CONTINUOUS
 10
52.404652
 20
301.522369
 11
57.404652
 21
301.522369
  0
LINE
  8
0
  6
CONTINUOUS
 10
57.404652
 20
287.522369
 11
52.404652
 21
287.522369
  0
ARC
  8
0
  6
CONTINUOUS
 10
57.404652
 20
300.522369
 40
1.000000
 50
0.000000
 51
90.000000
  0
ARC
  8
0
  6
CONTINUOUS
 10
52.404652
 20
300.522369
 40
1.000000
 50
90.000000
 51
180.000000
  0
ARC
  8
0
  6
CONTINUOUS
 10
52.404652
 20
288.522369
 40
1.000000
 50
180.000000
 51
270.000000
  0
ARC
  8
0
  6
CONTINUOUS
 10
57.404652
 20
288.522369
 40
1.000000
 50
-90.000000
 51
0.000000
  0
LINE
  8
0
  6
CONTINUOUS
 10
55.904652
 20
291.022369
 11
55.904652
 21
298.022369
  0
LINE
  8
0
  6
CONTINUOUS
 10
53.904652
 20
291.022369
 11
53.904652
 21
298.022369
  0
ARC
  8
0
  6
CONTINUOUS
 10
54.904652
 20
298.022369
 40
1.000000
 50
90.000000
 51
180.000000
  0
ARC
  8
0
  6
CONTINUOUS
 10
54.904652
 20
298.022369
 40
1.000000
 50
0.000000
 51
90.000000
  0
ARC
  8
0
  6
CONTINUOUS
 10
54.904652
 20
291.022369
 40
1.000000
 50
180.000000
 51
270.000000
  0
ARC
  8
0
  6
CONTINUOUS
 10
54.904652
 20
291.022369
 40
1.000000
 50
-90.000000
 51
0.000000
  0
LINE
  8
0
  6
CONTINUOUS
 10
57.904652
 20
287.656342
 11
57.904652
 21
256.522369
  0
LINE
  8
0
  6
CONTINUOUS
 10
48.404652
 20
254.522369
 11
48.404652
 21
334.522369
  0
LINE
  8
0
  6
CONTINUOUS
 10
4.404653
 20
334.522369
 11
48.404652
 21
334.522369
  0
LINE
  8
0
  6
CONTINUOUS
 10
4.404653
 20
254.522369
 11
48.404652
 21
254.522369
  0
LINE
  8
0
  6
CONTINUOUS
 10
-0.595347
 20
259.522369
 11
-0.595347
 21
329.522369
  0
ARC
  8
0
  6
CONTINUOUS
 10
4.404653
 20
329.522369
 40
5.000000
 50
90.000000
 51
180.000000
  0
ARC
  8
0
  6
CONTINUOUS
 10
4.404653
 20
259.522369
 40
5.000000
 50
180.000000
 51
270.000000
  0
LINE
  8
0
  6
CONTINUOUS
 10
1.904653
 20
318.522369
 11
48.404652
 21
318.522369
  0
LINE
  8
0
  6
CONTINUOUS
 10
1.904653
 20
268.522369
 11
48.404652
 21
268.522369
  0
LINE
  8
0
  6
CONTINUOUS
 10
48.404530
 20
103.044670
 11
57.904530
 21
103.044670
  0
LINE
  8
0
  6
CONTINUOUS
 10
48.404530
 20
27.044666
 11
57.904530
 21
27.044666
  0
LINE
  8
0
  6
CONTINUOUS
 10
48.404530
 20
25.044666
 11
48.404530
 21
105.044670
  0
LINE
  8
0
  6
CONTINUOUS
 10
58.404530
 20
104.544670
 11
58.404530
 21
103.044670
  0
LINE
  8
0
  6
CONTINUOUS
 10
51.404530
 20
104.544670
 11
51.404530
 21
103.044670
  0
LINE
  8
0
  6
CONTINUOUS
 10
51.404530
 20
104.544670
 11
58.404530
 21
104.544670
  0
LINE
  8
0
  6
CONTINUOUS
 10
55.804520
 20
117.544670
 11
55.804520
 21
104.544670
  0
LINE
  8
0
  6
CONTINUOUS
 10
54.004539
 20
118.169670
 11
54.004539
 21
104.544670
  0
LINE
  8
0
  6
CONTINUOUS
 10
52.204533
 20
116.107170
 11
52.204533
 21
104.544670
  0
LINE
  8
0
  6
CONTINUOUS
 10
57.604530
 20
116.919670
 11
57.604530
 21
104.544670
  0
LINE
  8
0
  6
CONTINUOUS
 10
54.004539
 20
118.169670
 11
55.804520
 21
117.544670
  0
LINE
  8
0
  6
CONTINUOUS
 10
52.204533
 20
116.107170
 11
54.004539
 21
116.732170
  0
LINE
  8
0
  6
CONTINUOUS
 10
57.604530
 20
116.919670
 11
55.805531
 21
116.471970
  0
LINE
  8
0
  6
CONTINUOUS
 10
48.404530
 20
95.293671
 11
57.904530
 21
95.293671
  0
LINE
  8
0
  6
CONTINUOUS
 10
48.404530
 20
34.795666
 11
57.904530
 21
34.795666
  0
LINE
  8
0
  6
CONTINUOUS
 10
4.404531
 20
105.044670
 11
48.404530
 21
105.044670
  0
LINE
  8
0
  6
CONTINUOUS
 10
4.404531
 20
25.044666
 11
48.404530
 21
25.044666
  0
LINE
  8
0
  6
CONTINUOUS
 10
-0.595469
 20
30.044666
 11
-0.595469
 21
100.044670
  0
ARC
  8
0
  6
CONTINUOUS
 10
4.404531
 20
100.044670
 40
5.000000
 50
90.000000
 51
180.000000
  0
ARC
  8
0
  6
CONTINUOUS
 10
4.404531
 20
30.044666
 40
5.000000
 50
180.000000
 51
270.000000
  0
LINE
  8
0
  6
CONTINUOUS
 10
1.904531
 20
91.044670
 11
48.404530
 21
91.044670
  0
LINE
  8
0
  6
CONTINUOUS
 10
1.904531
 20
41.044666
 11
48.404530
 21
41.044666
  0
LINE
  8
0
  6
CONTINUOUS
 10
57.904530
 20
27.044687
 11
57.904530
 21
103.044670
  0
ARC
  8
0
  6
CONTINUOUS
 10
48.404530
 20
89.413765
 40
4.500000
 50
0.000000
 51
90.000000
  0
ARC
  8
0
  6
CONTINUOUS
 10
48.404530
 20
89.413765
 40
3.000000
 50
0.000000
 51
90.000000
  0
ARC
  8
0
  6
CONTINUOUS
 10
48.404530
 20
89.413765
 40
1.500000
 50
0.000000
 51
90.000000
  0
LINE
  8
0
  6
CONTINUOUS
 10
49.904530
 20
89.413765
 11
49.904530
 21
84.398170
  0
LINE
  8
0
  6
CONTINUOUS
 10
51.404530
 20
89.413765
 11
51.404530
 21
84.913765
  0
LINE
  8
0
  6
CONTINUOUS
 10
52.904530
 20
89.413765
 11
52.904530
 21
84.913765
  0
LINE
  8
0
  6
CONTINUOUS
 10
49.904530
 20
84.413765
 11
51.404530
 21
84.913765
  0
LINE
  8
0
  6
CONTINUOUS
 10
51.404530
 20
85.413765
 11
52.904530
 21
84.913765
  0
ARC
  8
0
  6
CONTINUOUS
 10
48.404652
 20
262.252533
 40
4.500000
 50
0.000000
 51
90.000000
  0
ARC
  8
0
  6
CONTINUOUS
 10
48.404652
 20
262.252533
 40
3.000000
 50
0.000000
 51
90.000000
  0
ARC
  8
0
  6
CONTINUOUS
 10
48.404652
 20
262.252533
 40
1.500000
 50
0.000000
 51
90.000000
  0
LINE
  8
0
  6
CONTINUOUS
 10
49.904652
 20
262.252533
 11
49.904652
 21
257.236938
  0
LINE
  8
0
  6
CONTINUOUS
 10
51.404652
 20
262.252533
 11
51.404652
 21
257.752533
  0
LINE
  8
0
  6
CONTINUOUS
 10
52.904652
 20
262.252533
 11
52.904652
 21
257.752533
  0
LINE
  8
0
  6
CONTINUOUS
 10
49.904652
 20
257.252533
 11
51.404652
 21
257.752533
  0
LINE
  8
0
  6
CONTINUOUS
 10
51.404652
 20
258.252533
 11
52.904652
 21
257.752533
  0
LINE
  8
0
  6
CONTINUOUS
 10
171.904526
 20
55.644688
 11
215.904526
 21
55.644688
  0
LINE
  8
0
  6
CONTINUOUS
 10
171.904526
 20
45.444687
 11
215.904526
 21
45.444687
  0
TEXT
  8
0
 10
-14.000000
 20
-14.000000
 40
4.000000
 41
1.000000
  1
HLMN-22T-300~900-T25W
 50
0.000000
  0
ENDSEC
  0
EOF
