  0
SECTION
  2
HEADER
  9
$CLAYER
  8
1
  9
$LTSCALE
 40
3.0
  0
ENDSEC
  0
SECTION
  2
TABLES
  0
TABLE
  2
LTYPE
 70
     4
  0
LTYPE
  2
CONTINUOUS
  3
solid line
 70
    64
 72
    65
 73
     0
 40
0.0
  0
LTYPE
  2
DASHED
  3
__ __ __ __ __ __ __ __ __ __ __ __ __ __ __
 70
    64
 72
    65
 73
     2
 40
0.75
 49
0.5
 49
-0.25
  0
LTYPE
  2
CENTER
  3
____ _ ____ _ ____ _ ____ _ ____ _ ____ _ ____
 70
    64
 72
    65
 73
     4
 40
2.0
 49
1.25
 49
-0.25
 49
0.25
 49
-0.25
  0
LTYPE
  2
PHANTOM
  3
_____ _ _ _____ _ _ _____ _ _ _____ _ _ ____
 70
    64
 72
    65
 73
     6
 40
2.5
 49
1.25
 49
-0.25
 49
0.25
 49
-0.25
 49
0.25
 49
-0.25
  0
ENDTAB
  0
TABLE
  2
LAYER
 70
     1
  0
LAYER
  2
0
 70
    64
 62
     7
  6
CONTINUOUS
  0
ENDTAB
  0
TABLE
  2
STYLE
 70
     1
  0
STYLE
  2
STANDARD
 70
     0
 40
0.000000
 41
1.000000
 50
0.000000
 71
     0
 42
3.000000
  3
txt
  4
BIGFONT
  0
ENDTAB
  0
ENDSEC
  0
SECTION
  2
BLOCKS
  0
ENDSEC
  0
SECTION
  2
ENTITIES
  0
LINE
  8
0
  6
CENTER
 10
145.396881
 20
76.393440
 11
262.408905
 21
76.393440
  0
LINE
  8
0
  6
CENTER
 10
294.408905
 20
159.143433
 11
294.408905
 21
-4.356563
  0
LINE
  8
0
  6
CENTER
 10
247.838501
 20
106.893440
 11
341.911865
 21
106.893440
  0
LINE
  8
0
  6
CONTINUOUS
 10
241.408905
 20
1.893437
 11
347.408905
 21
1.893437
  0
LINE
  8
0
  6
CONTINUOUS
 10
275.979492
 20
151.893433
 11
312.838318
 21
151.893433
  0
LINE
  8
0
  6
CONTINUOUS
 10
347.408905
 20
126.283676
 11
347.408905
 21
1.893458
  0
LINE
  8
0
  6
CONTINUOUS
 10
241.408905
 20
26.893436
 11
241.408905
 21
1.893437
  0
LINE
  8
0
  6
CONTINUOUS
 10
229.658905
 20
133.643433
 11
247.281906
 21
133.643433
  0
LINE
  8
0
  6
CONTINUOUS
 10
229.658905
 20
19.143436
 11
236.408920
 21
19.143436
  0
LINE
  8
0
  6
CONTINUOUS
 10
237.658905
 20
30.893438
 11
237.658905
 21
121.893440
  0
LINE
  8
0
  6
CONTINUOUS
 10
345.267914
 20
130.385681
 11
315.697296
 21
150.995422
  0
LINE
  8
0
  6
CONTINUOUS
 10
243.549911
 20
130.385681
 11
273.120514
 21
150.995422
  0
LINE
  8
0
  6
CONTINUOUS
 10
275.347321
 20
13.893437
 11
241.408905
 21
13.893437
  0
LINE
  8
0
  6
CONTINUOUS
 10
280.970520
 20
23.893436
 11
307.847321
 21
23.893436
  0
LINE
  8
0
  6
CONTINUOUS
 10
309.408905
 20
22.455936
 11
309.408905
 21
14.893437
  0
LINE
  8
0
  6
CONTINUOUS
 10
279.408905
 20
22.268436
 11
279.408905
 21
14.893437
  0
LINE
  8
0
  6
CONTINUOUS
 10
277.287720
 20
15.408357
 11
279.030121
 21
22.378517
  0
LINE
  8
0
  6
CONTINUOUS
 10
311.530121
 20
15.408357
 11
309.787720
 21
22.378498
  0
LINE
  8
0
  6
CONTINUOUS
 10
247.408905
 20
12.830937
 11
247.408905
 21
1.893437
  0
LINE
  8
0
  6
CONTINUOUS
 10
341.408905
 20
12.830937
 11
341.408905
 21
1.893437
  0
LINE
  8
0
  6
CENTER
 10
259.408905
 20
17.643436
 11
259.408905
 21
-2.356563
  0
LINE
  8
0
  6
CENTER
 10
329.408905
 20
18.643436
 11
329.408905
 21
-1.856563
  0
LINE
  8
0
  6
DASHED
 10
253.908905
 20
13.893437
 11
253.908905
 21
1.893437
  0
LINE
  8
0
  6
DASHED
 10
264.908905
 20
13.893437
 11
264.908905
 21
1.893437
  0
LINE
  8
0
  6
DASHED
 10
323.908905
 20
13.893437
 11
323.908905
 21
1.893437
  0
LINE
  8
0
  6
DASHED
 10
334.908905
 20
13.893437
 11
334.908905
 21
1.893437
  0
ARC
  8
0
  6
CONTINUOUS
 10
312.838318
 20
146.893433
 40
5.000000
 50
55.124809
 51
90.000000
  0
ARC
  8
0
  6
CONTINUOUS
 10
275.979492
 20
146.893433
 40
5.000000
 50
90.000000
 51
124.875603
  0
ARC
  8
0
  6
CONTINUOUS
 10
342.408905
 20
126.283676
 40
5.000000
 50
0.000000
 51
55.124851
  0
ARC
  8
0
  6
CONTINUOUS
 10
246.408905
 20
126.283699
 40
5.000000
 50
124.875702
 51
180.000000
  0
LINE
  8
0
  6
CONTINUOUS
 10
229.658905
 20
123.893440
 11
239.408905
 21
123.893440
  0
LINE
  8
0
  6
CONTINUOUS
 10
235.658905
 20
28.893436
 11
229.658905
 21
28.893436
  0
LINE
  8
0
  6
CONTINUOUS
 10
229.658905
 20
108.353439
 11
236.533905
 21
108.353439
  0
LINE
  8
0
  6
CONTINUOUS
 10
229.658905
 20
44.433437
 11
236.658905
 21
44.433437
  0
ARC
  8
0
  6
CONTINUOUS
 10
247.281708
 20
136.643433
 40
3.000000
 50
270.000000
 51
304.875397
  0
ARC
  8
0
  6
CONTINUOUS
 10
235.658920
 20
121.893440
 40
2.000000
 50
0.000000
 51
90.000000
  0
ARC
  8
0
  6
CONTINUOUS
 10
239.408905
 20
125.893440
 40
2.000000
 50
-90.000000
 51
0.000000
  0
LINE
  8
0
  6
CONTINUOUS
 10
241.408920
 20
126.283699
 11
241.408905
 21
125.893440
  0
ARC
  8
0
  6
CONTINUOUS
 10
239.408905
 20
26.893436
 40
2.000000
 50
0.000000
 51
90.000000
  0
LINE
  8
0
  6
CONTINUOUS
 10
235.658905
 20
28.893436
 11
239.408905
 21
28.893436
  0
ARC
  8
0
  6
CONTINUOUS
 10
235.658905
 20
30.893438
 40
2.000000
 50
-90.000000
 51
0.000000
  0
ARC
  8
0
  6
CONTINUOUS
 10
236.408920
 20
14.143417
 40
5.000000
 50
0.000000
 51
90.000000
  0
ARC
  8
0
  6
CONTINUOUS
 10
307.847321
 20
21.893436
 40
2.000000
 50
14.036440
 51
90.000000
  0
ARC
  8
0
  6
CONTINUOUS
 10
280.970520
 20
21.893436
 40
2.000000
 50
90.000000
 51
165.963898
  0
LINE
  8
0
  6
CONTINUOUS
 10
313.470520
 20
13.893437
 11
347.408905
 21
13.893437
  0
ARC
  8
0
  6
CONTINUOUS
 10
275.347321
 20
15.893437
 40
2.000000
 50
270.000000
 51
345.963715
  0
LINE
  8
0
  6
CONTINUOUS
 10
313.470520
 20
13.893437
 11
275.347321
 21
13.893437
  0
ARC
  8
0
  6
CONTINUOUS
 10
313.470520
 20
15.893437
 40
2.000000
 50
194.036194
 51
270.000000
  0
ARC
  8
0
  6
CONTINUOUS
 10
278.408905
 20
14.893437
 40
1.000000
 50
-90.000000
 51
0.000000
  0
ARC
  8
0
  6
CONTINUOUS
 10
310.408905
 20
14.893437
 40
1.000000
 50
180.000000
 51
270.000000
  0
CIRCLE
  8
0
  6
CONTINUOUS
 10
294.408905
 20
106.893440
 40
27.500000
  0
ARC
  8
0
  6
CONTINUOUS
 10
294.408905
 20
106.893440
 40
31.750000
 50
7.552697
 51
172.447403
  0
ARC
  8
0
  6
CONTINUOUS
 10
277.658905
 20
65.393440
 40
20.600000
 50
172.447403
 51
270.000000
  0
ARC
  8
0
  6
CONTINUOUS
 10
311.158905
 20
65.393440
 40
20.600000
 50
-90.000000
 51
7.552700
  0
LINE
  8
0
  6
CONTINUOUS
 10
325.883514
 20
111.066597
 11
331.580109
 21
68.101067
  0
LINE
  8
0
  6
CONTINUOUS
 10
257.237701
 20
68.101028
 11
262.934296
 21
111.066536
  0
LINE
  8
0
  6
CONTINUOUS
 10
277.658905
 20
44.793438
 11
311.158905
 21
44.793438
  0
ARC
  8
0
  6
CONTINUOUS
 10
277.658905
 20
65.393440
 40
19.000000
 50
172.447601
 51
270.000000
  0
ARC
  8
0
  6
CONTINUOUS
 10
311.158905
 20
65.393440
 40
19.000000
 50
-90.000000
 51
7.552700
  0
ARC
  8
0
  6
CONTINUOUS
 10
294.408905
 20
106.893440
 40
30.150000
 50
-187.552597
 51
7.552697
  0
LINE
  8
0
  6
CONTINUOUS
 10
258.823700
 20
67.890732
 11
264.520508
 21
110.856255
  0
LINE
  8
0
  6
CONTINUOUS
 10
324.297302
 20
110.856300
 11
329.994110
 21
67.890762
  0
LINE
  8
0
  6
CONTINUOUS
 10
277.658905
 20
46.393436
 11
311.158905
 21
46.393436
  0
LINE
  8
0
  6
CONTINUOUS
 10
284.112518
 20
53.893436
 11
279.952118
 21
53.893436
  0
LINE
  8
0
  6
CONTINUOUS
 10
286.408905
 20
60.862186
 11
286.408905
 21
53.893436
  0
LINE
  8
0
  6
CONTINUOUS
 10
290.408905
 20
63.393436
 11
290.408905
 21
65.893440
  0
LINE
  8
0
  6
CONTINUOUS
 10
298.408905
 20
63.393436
 11
298.408905
 21
65.893440
  0
LINE
  8
0
  6
CONTINUOUS
 10
293.627716
 20
64.424690
 11
293.627716
 21
55.205936
  0
LINE
  8
0
  6
CONTINUOUS
 10
295.127716
 20
64.424690
 11
295.127716
 21
55.205936
  0
LINE
  8
0
  6
CONTINUOUS
 10
303.002716
 20
64.424690
 11
303.002716
 21
55.143436
  0
LINE
  8
0
  6
CONTINUOUS
 10
304.377716
 20
59.502811
 11
304.377716
 21
55.143436
  0
LINE
  8
0
  6
CONTINUOUS
 10
284.510895
 20
64.299690
 11
280.655914
 21
64.299690
  0
LINE
  8
0
  6
CONTINUOUS
 10
280.655914
 20
64.299690
 11
279.752716
 21
63.179688
  0
LINE
  8
0
  6
CONTINUOUS
 10
279.861298
 20
65.893440
 11
278.408905
 21
64.033676
  0
LINE
  8
0
  6
CONTINUOUS
 10
279.752716
 20
56.266357
 11
280.670319
 21
55.299679
  0
LINE
  8
0
  6
CONTINUOUS
 10
278.408905
 20
55.450600
 11
279.952118
 21
53.893436
  0
LINE
  8
0
  6
CONTINUOUS
 10
278.408905
 20
64.033676
 11
278.408905
 21
55.450600
  0
LINE
  8
0
  6
CONTINUOUS
 10
279.752716
 20
63.179688
 11
279.752716
 21
56.266357
  0
LINE
  8
0
  6
CONTINUOUS
 10
285.252716
 20
63.582581
 11
284.495697
 21
64.299690
  0
LINE
  8
0
  6
CONTINUOUS
 10
285.240692
 20
65.893440
 11
286.408905
 21
64.596947
  0
LINE
  8
0
  6
CONTINUOUS
 10
285.252716
 20
63.393436
 11
286.408905
 21
63.393436
  0
LINE
  8
0
  6
CONTINUOUS
 10
279.861298
 20
65.893440
 11
285.240692
 21
65.893440
  0
LINE
  8
0
  6
CONTINUOUS
 10
283.158905
 20
60.862186
 11
286.408905
 21
60.862186
  0
LINE
  8
0
  6
CONTINUOUS
 10
285.252716
 20
59.549686
 11
283.158905
 21
59.549686
  0
LINE
  8
0
  6
CONTINUOUS
 10
282.752716
 20
55.299679
 11
280.670319
 21
55.299679
  0
LINE
  8
0
  6
CONTINUOUS
 10
285.252716
 20
58.299686
 11
285.252716
 21
59.299686
  0
ARC
  8
0
  6
CONTINUOUS
 10
282.752716
 20
57.799683
 40
2.500000
 50
-89.999786
 51
0.000109
  0
LINE
  8
0
  6
CONTINUOUS
 10
285.252716
 20
54.849998
 11
285.252716
 21
53.893436
  0
LINE
  8
0
  6
CONTINUOUS
 10
286.408905
 20
64.596947
 11
286.408905
 21
63.393436
  0
LINE
  8
0
  6
CONTINUOUS
 10
285.252716
 20
59.549686
 11
285.252716
 21
57.799683
  0
LINE
  8
0
  6
CONTINUOUS
 10
283.158905
 20
60.862186
 11
283.158905
 21
59.549686
  0
LINE
  8
0
  6
CONTINUOUS
 10
285.252716
 20
53.893436
 11
286.408905
 21
53.893436
  0
LINE
  8
0
  6
CONTINUOUS
 10
285.252716
 20
54.849998
 11
284.112518
 21
53.893436
  0
LINE
  8
0
  6
CONTINUOUS
 10
295.127716
 20
55.205936
 11
295.627716
 21
55.205936
  0
LINE
  8
0
  6
CONTINUOUS
 10
293.033905
 20
55.205936
 11
293.033905
 21
53.893436
  0
LINE
  8
0
  6
CONTINUOUS
 10
295.627716
 20
55.205936
 11
295.627716
 21
53.893436
  0
LINE
  8
0
  6
CONTINUOUS
 10
297.574493
 20
63.393436
 11
298.408905
 21
63.393436
  0
LINE
  8
0
  6
CONTINUOUS
 10
290.408905
 20
63.393436
 11
291.296906
 21
63.393436
  0
LINE
  8
0
  6
CONTINUOUS
 10
290.408905
 20
65.893440
 11
298.408905
 21
65.893440
  0
LINE
  8
0
  6
CONTINUOUS
 10
293.033905
 20
53.893436
 11
295.627716
 21
53.893436
  0
LINE
  8
0
  6
CONTINUOUS
 10
293.033905
 20
55.205936
 11
293.627716
 21
55.205936
  0
ARC
  8
0
  6
CONTINUOUS
 10
307.205902
 20
62.690315
 40
3.203126
 50
-73.981873
 51
90.003510
  0
ARC
  8
0
  6
CONTINUOUS
 10
307.205902
 20
62.690315
 40
1.954125
 50
-82.585274
 51
62.411850
  0
LINE
  8
0
  6
CONTINUOUS
 10
302.408905
 20
65.893440
 11
307.205902
 21
65.893440
  0
LINE
  8
0
  6
CONTINUOUS
 10
307.457916
 20
60.752529
 11
304.377716
 21
60.752529
  0
LINE
  8
0
  6
CONTINUOUS
 10
302.408905
 20
65.893440
 11
302.408905
 21
64.424690
  0
LINE
  8
0
  6
CONTINUOUS
 10
304.377716
 20
64.424690
 11
304.377716
 21
60.752529
  0
LINE
  8
0
  6
CONTINUOUS
 10
308.089691
 20
59.611549
 11
310.072113
 21
55.143436
  0
LINE
  8
0
  6
CONTINUOUS
 10
306.938110
 20
59.502811
 11
308.814301
 21
55.143436
  0
LINE
  8
0
  6
CONTINUOUS
 10
302.408905
 20
55.143436
 11
303.002716
 21
55.143436
  0
LINE
  8
0
  6
CONTINUOUS
 10
304.377716
 20
55.143436
 11
304.924500
 21
55.143436
  0
LINE
  8
0
  6
CONTINUOUS
 10
304.924500
 20
53.893436
 11
302.408905
 21
53.893436
  0
LINE
  8
0
  6
CONTINUOUS
 10
308.565094
 20
55.143436
 11
308.814301
 21
55.143436
  0
LINE
  8
0
  6
CONTINUOUS
 10
310.072113
 20
55.143436
 11
310.408905
 21
55.143436
  0
LINE
  8
0
  6
CONTINUOUS
 10
308.565094
 20
53.893436
 11
310.408905
 21
53.893436
  0
LINE
  8
0
  6
CONTINUOUS
 10
310.408905
 20
55.143436
 11
310.408905
 21
53.893436
  0
LINE
  8
0
  6
CONTINUOUS
 10
308.565094
 20
55.143436
 11
308.565094
 21
53.893436
  0
LINE
  8
0
  6
CONTINUOUS
 10
304.924500
 20
55.143436
 11
304.924500
 21
53.893436
  0
LINE
  8
0
  6
CONTINUOUS
 10
302.408905
 20
55.143436
 11
302.408905
 21
53.893436
  0
LINE
  8
0
  6
CONTINUOUS
 10
291.726715
 20
64.424690
 11
291.296906
 21
63.393436
  0
LINE
  8
0
  6
CONTINUOUS
 10
297.212097
 20
64.424690
 11
297.574493
 21
63.393436
  0
LINE
  8
0
  6
CONTINUOUS
 10
295.127716
 20
64.424690
 11
297.212097
 21
64.424690
  0
LINE
  8
0
  6
CONTINUOUS
 10
293.627716
 20
64.424690
 11
291.726715
 21
64.424690
  0
LINE
  8
0
  6
CONTINUOUS
 10
304.377716
 20
59.502811
 11
306.938110
 21
59.502811
  0
LINE
  8
0
  6
CONTINUOUS
 10
302.408905
 20
64.424690
 11
303.002716
 21
64.424690
  0
LINE
  8
0
  6
CONTINUOUS
 10
304.377716
 20
64.424690
 11
308.110718
 21
64.422256
  0
LINE
  8
0
  6
CONTINUOUS
 10
285.252716
 20
63.582581
 11
285.252716
 21
63.393436
  0
LINE
  8
0
  6
CONTINUOUS
 10
229.658920
 20
133.893433
 11
229.658905
 21
18.893436
  0
LINE
  8
0
  6
CONTINUOUS
 10
63.658905
 20
103.393417
 11
177.658905
 21
103.393417
  0
LINE
  8
0
  6
CONTINUOUS
 10
63.658905
 20
27.393457
 11
177.658905
 21
27.393457
  0
LINE
  8
0
  6
CONTINUOUS
 10
63.658905
 20
95.642418
 11
169.658905
 21
95.642418
  0
LINE
  8
0
  6
CONTINUOUS
 10
63.658905
 20
35.144459
 11
169.658905
 21
35.144459
  0
LINE
  8
0
  6
CONTINUOUS
 10
169.658905
 20
101.393417
 11
169.658905
 21
29.393436
  0
ARC
  8
0
  6
CONTINUOUS
 10
171.658905
 20
101.393440
 40
2.000000
 50
90.000000
 51
180.000000
  0
ARC
  8
0
  6
CONTINUOUS
 10
171.658905
 20
29.393457
 40
2.000000
 50
180.000000
 51
270.000000
  0
LINE
  8
0
  6
CENTER
 10
510.659363
 20
-13.731583
 11
510.659363
 21
165.818436
  0
LINE
  8
0
  6
CENTER
 10
440.434387
 20
76.393440
 11
579.559387
 21
76.393440
  0
LINE
  8
0
  6
CENTER
 10
408.909363
 20
106.893440
 11
613.909363
 21
106.893440
  0
LINE
  8
0
  6
CONTINUOUS
 10
452.659363
 20
1.893437
 11
485.659363
 21
1.893437
  0
LINE
  8
0
  6
CONTINUOUS
 10
452.659363
 20
12.519837
 11
452.659363
 21
1.893437
  0
LINE
  8
0
  6
CONTINUOUS
 10
568.659363
 20
12.519837
 11
568.659363
 21
1.893437
  0
LINE
  8
0
  6
CONTINUOUS
 10
454.659363
 20
13.893437
 11
475.659363
 21
13.893437
  0
LINE
  8
0
  6
CONTINUOUS
 10
566.659363
 20
13.893437
 11
545.659363
 21
13.893437
  0
LINE
  8
0
  6
CONTINUOUS
 10
478.659363
 20
25.267038
 11
478.659363
 21
149.369354
  0
LINE
  8
0
  6
CONTINUOUS
 10
542.659363
 20
25.267038
 11
542.659363
 21
149.369720
  0
LINE
  8
0
  6
CONTINUOUS
 10
540.694153
 20
151.369415
 11
510.659363
 21
151.893433
  0
LINE
  8
0
  6
CONTINUOUS
 10
480.624390
 20
151.369080
 11
510.659363
 21
151.893433
  0
ARC
  8
0
  6
CONTINUOUS
 10
480.659363
 20
149.369385
 40
2.000000
 50
91.000580
 51
180.000000
  0
ARC
  8
0
  6
CONTINUOUS
 10
540.659363
 20
149.369720
 40
2.000000
 50
0.000000
 51
89.000519
  0
LINE
  8
0
  6
CONTINUOUS
 10
542.659363
 20
16.893436
 11
542.659363
 21
1.893437
  0
ARC
  8
0
  6
CONTINUOUS
 10
545.659363
 20
16.893436
 40
3.000000
 50
180.000000
 51
270.000000
  0
LINE
  8
0
  6
CONTINUOUS
 10
478.659363
 20
16.893436
 11
478.659363
 21
1.893437
  0
ARC
  8
0
  6
CONTINUOUS
 10
475.659363
 20
16.893417
 40
3.000000
 50
-90.000000
 51
0.000000
  0
ARC
  8
0
  6
CONTINUOUS
 10
454.659363
 20
11.893437
 40
2.000000
 50
90.000000
 51
180.000000
  0
ARC
  8
0
  6
CONTINUOUS
 10
566.659363
 20
11.893437
 40
2.000000
 50
0.000000
 51
90.000000
  0
LINE
  8
0
  6
CENTER
 10
465.659363
 20
18.183437
 11
465.659363
 21
-2.216562
  0
LINE
  8
0
  6
CENTER
 10
555.659363
 20
19.203438
 11
555.659363
 21
-2.726563
  0
LINE
  8
0
  6
CONTINUOUS
 10
477.377380
 20
23.400358
 11
453.941376
 21
14.386538
  0
ARC
  8
0
  6
CONTINUOUS
 10
454.659363
 20
12.519857
 40
2.000000
 50
111.037903
 51
180.000000
  0
LINE
  8
0
  6
CONTINUOUS
 10
478.659363
 20
25.267038
 11
478.659363
 21
16.893436
  0
ARC
  8
0
  6
CONTINUOUS
 10
476.659363
 20
25.267038
 40
2.000000
 50
-68.962189
 51
0.000000
  0
LINE
  8
0
  6
CONTINUOUS
 10
543.941345
 20
23.400337
 11
567.377380
 21
14.386538
  0
ARC
  8
0
  6
CONTINUOUS
 10
566.659363
 20
12.519837
 40
2.000000
 50
0.000000
 51
68.962646
  0
LINE
  8
0
  6
CONTINUOUS
 10
542.659363
 20
25.267038
 11
542.659363
 21
16.893436
  0
ARC
  8
0
  6
CONTINUOUS
 10
544.659363
 20
25.267057
 40
2.000000
 50
180.000000
 51
248.962799
  0
LINE
  8
0
  6
CONTINUOUS
 10
462.659363
 20
81.700584
 11
462.659363
 21
132.086273
  0
LINE
  8
0
  6
CONTINUOUS
 10
558.659363
 20
81.700592
 11
558.659363
 21
132.086273
  0
LINE
  8
0
  6
CONTINUOUS
 10
548.659363
 20
48.698277
 11
548.659363
 21
108.963440
  0
LINE
  8
0
  6
CONTINUOUS
 10
472.659363
 20
48.698277
 11
472.659363
 21
108.963440
  0
LINE
  8
0
  6
CONTINUOUS
 10
556.429565
 20
134.985733
 11
544.889160
 21
138.051132
  0
LINE
  8
0
  6
CONTINUOUS
 10
556.429565
 20
78.801132
 11
550.889160
 21
77.329483
  0
LINE
  8
0
  6
CONTINUOUS
 10
546.432373
 20
45.799576
 11
544.886353
 21
45.387299
  0
LINE
  8
0
  6
CONTINUOUS
 10
474.886383
 20
45.799557
 11
476.432373
 21
45.387299
  0
LINE
  8
0
  6
CONTINUOUS
 10
464.889160
 20
78.801132
 11
470.429565
 21
77.329483
  0
LINE
  8
0
  6
CONTINUOUS
 10
464.889160
 20
134.985733
 11
476.429565
 21
138.051132
  0
ARC
  8
0
  6
CONTINUOUS
 10
465.659363
 20
132.086304
 40
3.000000
 50
104.876099
 51
180.000000
  0
ARC
  8
0
  6
CONTINUOUS
 10
465.659363
 20
81.700607
 40
3.000000
 50
180.000000
 51
255.124603
  0
ARC
  8
0
  6
CONTINUOUS
 10
555.659363
 20
132.086273
 40
3.000000
 50
0.000000
 51
75.124413
  0
ARC
  8
0
  6
CONTINUOUS
 10
555.659363
 20
81.700584
 40
3.000000
 50
-75.124207
 51
0.000000
  0
ARC
  8
0
  6
CONTINUOUS
 10
475.659363
 20
48.698299
 40
3.000000
 50
180.000000
 51
255.069000
  0
ARC
  8
0
  6
CONTINUOUS
 10
545.659363
 20
48.698277
 40
3.000000
 50
-75.068420
 51
0.000000
  0
ARC
  8
0
  6
CONTINUOUS
 10
545.659363
 20
140.950623
 40
3.000000
 50
180.000000
 51
255.124603
  0
ARC
  8
0
  6
CONTINUOUS
 10
551.659363
 20
74.430046
 40
3.000000
 50
104.876099
 51
180.000000
  0
ARC
  8
0
  6
CONTINUOUS
 10
545.659363
 20
42.488617
 40
3.000000
 50
104.931801
 51
180.000000
  0
ARC
  8
0
  6
CONTINUOUS
 10
475.659363
 20
42.488598
 40
3.000000
 50
0.000000
 51
75.068779
  0
ARC
  8
0
  6
CONTINUOUS
 10
469.659363
 20
74.430016
 40
3.000000
 50
0.000000
 51
75.124496
  0
ARC
  8
0
  6
CONTINUOUS
 10
475.659363
 20
140.950577
 40
3.000000
 50
-75.124153
 51
0.000000
  0
LINE
  8
0
  6
DASHED
 10
460.159363
 20
13.893437
 11
460.159363
 21
1.893437
  0
LINE
  8
0
  6
DASHED
 10
471.159363
 20
13.893437
 11
471.159363
 21
1.893437
  0
LINE
  8
0
  6
DASHED
 10
550.159363
 20
13.893437
 11
550.159363
 21
1.893437
  0
LINE
  8
0
  6
DASHED
 10
561.159363
 20
13.893437
 11
561.159363
 21
1.893437
  0
LINE
  8
0
  6
CONTINUOUS
 10
480.889374
 20
128.893433
 11
540.559387
 21
128.893433
  0
LINE
  8
0
  6
CONTINUOUS
 10
463.159363
 20
33.893436
 11
463.159363
 21
42.944778
  0
LINE
  8
0
  6
CONTINUOUS
 10
558.159363
 20
33.893436
 11
558.159363
 21
42.944778
  0
LINE
  8
0
  6
CONTINUOUS
 10
468.159363
 20
28.893436
 11
477.190582
 21
28.893436
  0
LINE
  8
0
  6
CONTINUOUS
 10
553.159363
 20
28.893436
 11
544.107971
 21
28.893436
  0
ARC
  8
0
  6
CONTINUOUS
 10
510.659363
 20
76.393440
 40
57.250000
 50
-32.501888
 51
19.914110
  0
ARC
  8
0
  6
CONTINUOUS
 10
510.659363
 20
76.393440
 40
57.250000
 50
160.085907
 51
212.501907
  0
ARC
  8
0
  6
CONTINUOUS
 10
468.159363
 20
33.893436
 40
5.000000
 50
180.000000
 51
270.000000
  0
ARC
  8
0
  6
CONTINUOUS
 10
553.159363
 20
33.893436
 40
5.000000
 50
-90.000000
 51
0.000000
  0
ARC
  8
0
  6
CONTINUOUS
 10
477.210785
 20
23.893436
 40
5.000000
 50
73.928284
 51
90.230461
  0
ARC
  8
0
  6
CONTINUOUS
 10
544.107971
 20
23.893436
 40
5.000000
 50
90.000000
 51
106.071800
  0
ARC
  8
0
  6
CONTINUOUS
 10
458.159363
 20
42.944778
 40
5.000000
 50
0.000000
 51
32.499691
  0
ARC
  8
0
  6
CONTINUOUS
 10
563.159363
 20
42.944778
 40
5.000000
 50
147.498306
 51
180.000000
  0
LINE
  8
0
  6
CONTINUOUS
 10
544.659363
 20
27.393436
 11
542.659363
 21
27.393436
  0
LINE
  8
0
  6
CONTINUOUS
 10
476.659363
 20
27.393436
 11
478.659363
 21
27.393436
  0
ARC
  8
0
  6
CONTINUOUS
 10
544.659363
 20
31.393438
 40
4.000000
 50
270.000000
 51
322.311005
  0
ARC
  8
0
  6
CONTINUOUS
 10
476.659363
 20
31.393438
 40
4.000000
 50
218.645996
 51
270.000000
  0
LINE
  8
0
  6
CONTINUOUS
 10
301.908905
 20
103.893456
 11
301.908905
 21
109.893456
  0
LINE
  8
0
  6
CONTINUOUS
 10
307.908905
 20
103.893478
 11
307.908905
 21
109.893478
  0
LINE
  8
0
  6
CONTINUOUS
 10
307.908905
 20
103.893478
 11
301.908905
 21
103.893456
  0
LINE
  8
0
  6
CONTINUOUS
 10
307.908905
 20
109.893478
 11
301.908905
 21
109.893456
  0
ARC
  8
0
  6
CONTINUOUS
 10
294.408905
 20
106.893440
 40
11.000000
 50
15.826600
 51
344.173401
  0
LINE
  8
0
  6
CONTINUOUS
 10
420.659363
 20
95.893440
 11
420.659363
 21
117.893440
  0
LINE
  8
0
  6
CONTINUOUS
 10
460.659363
 20
117.893440
 11
420.659363
 21
117.893440
  0
LINE
  8
0
  6
CONTINUOUS
 10
460.659363
 20
95.893440
 11
420.659363
 21
95.893440
  0
LINE
  8
0
  6
CONTINUOUS
 10
460.659363
 20
119.393440
 11
460.659363
 21
94.393440
  0
LINE
  8
0
  6
CONTINUOUS
 10
462.659363
 20
119.393440
 11
460.659363
 21
119.393440
  0
LINE
  8
0
  6
CONTINUOUS
 10
462.659363
 20
94.393440
 11
460.659363
 21
94.393440
  0
ARC
  8
0
  6
CONTINUOUS
 10
452.659363
 20
106.893440
 40
3.000000
 50
-90.000000
 51
90.000000
  0
LINE
  8
0
  6
CONTINUOUS
 10
452.659363
 20
109.893440
 11
420.659363
 21
109.893440
  0
LINE
  8
0
  6
CONTINUOUS
 10
452.659363
 20
103.893440
 11
420.659363
 21
103.893440
  0
LINE
  8
0
  6
CONTINUOUS
 10
600.659363
 20
95.893440
 11
600.659363
 21
117.893440
  0
LINE
  8
0
  6
CONTINUOUS
 10
560.659363
 20
117.893440
 11
600.659363
 21
117.893440
  0
LINE
  8
0
  6
CONTINUOUS
 10
560.659363
 20
95.893440
 11
600.659363
 21
95.893440
  0
LINE
  8
0
  6
CONTINUOUS
 10
560.659363
 20
119.393440
 11
560.659363
 21
94.393440
  0
LINE
  8
0
  6
CONTINUOUS
 10
558.659363
 20
119.393440
 11
560.659363
 21
119.393440
  0
LINE
  8
0
  6
CONTINUOUS
 10
558.659363
 20
94.393440
 11
560.659363
 21
94.393440
  0
ARC
  8
0
  6
CONTINUOUS
 10
568.659363
 20
106.893440
 40
3.000000
 50
90.000000
 51
270.000000
  0
LINE
  8
0
  6
CONTINUOUS
 10
568.659363
 20
109.893440
 11
600.659363
 21
109.893440
  0
LINE
  8
0
  6
CONTINUOUS
 10
568.659363
 20
103.893440
 11
600.659363
 21
103.893440
  0
LINE
  8
0
  6
CENTER
 10
-8.848125
 20
65.393440
 11
262.408905
 21
65.393440
  0
LINE
  8
0
  6
CONTINUOUS
 10
219.246155
 20
104.845695
 11
177.658905
 21
103.393440
  0
LINE
  8
0
  6
CONTINUOUS
 10
229.658905
 20
25.577559
 11
177.658905
 21
27.393436
  0
LINE
  8
0
  6
CONTINUOUS
 10
221.658905
 20
132.893433
 11
221.658905
 21
105.893440
  0
LINE
  8
0
  6
CONTINUOUS
 10
222.658905
 20
133.893433
 11
229.658920
 21
133.893433
  0
LINE
  8
0
  6
CONTINUOUS
 10
224.158905
 20
18.893436
 11
229.658905
 21
18.893436
  0
LINE
  8
0
  6
CONTINUOUS
 10
221.658905
 20
106.393440
 11
221.658905
 21
35.480782
  0
LINE
  8
0
  6
CONTINUOUS
 10
177.658905
 20
103.393440
 11
177.658905
 21
27.393436
  0
LINE
  8
0
  6
CONTINUOUS
 10
220.245773
 20
116.711243
 11
194.302353
 21
104.186829
  0
LINE
  8
0
  6
CENTER
 10
294.408905
 20
406.024414
 11
294.408905
 21
209.598755
  0
LINE
  8
0
  6
CENTER
 10
-8.848125
 20
309.822693
 11
363.748352
 21
309.822693
  0
LINE
  8
0
  6
CONTINUOUS
 10
243.190887
 20
341.822693
 11
341.936859
 21
341.822693
  0
LINE
  8
0
  6
CONTINUOUS
 10
243.190887
 20
277.822693
 11
341.936859
 21
277.822693
  0
LINE
  8
0
  6
CONTINUOUS
 10
337.347015
 20
367.822693
 11
307.908905
 21
367.822693
  0
LINE
  8
0
  6
CONTINUOUS
 10
251.470810
 20
251.822708
 11
283.408905
 21
251.822708
  0
LINE
  8
0
  6
CONTINUOUS
 10
347.408905
 20
309.822693
 11
346.850342
 21
341.822693
  0
LINE
  8
0
  6
CONTINUOUS
 10
342.240967
 20
363.846954
 11
346.850342
 21
341.822693
  0
ARC
  8
0
  6
CONTINUOUS
 10
337.347015
 20
362.822693
 40
5.000000
 50
11.820596
 51
90.000000
  0
LINE
  8
0
  6
CONTINUOUS
 10
347.408905
 20
309.822693
 11
346.850342
 21
277.822693
  0
LINE
  8
0
  6
CONTINUOUS
 10
342.240967
 20
255.798462
 11
346.850342
 21
277.822693
  0
ARC
  8
0
  6
CONTINUOUS
 10
337.347015
 20
256.822693
 40
5.000000
 50
-90.000000
 51
-11.820596
  0
LINE
  8
0
  6
CONTINUOUS
 10
314.408905
 20
279.822693
 11
314.408905
 21
339.822693
  0
LINE
  8
0
  6
CONTINUOUS
 10
274.408905
 20
279.822693
 11
274.408905
 21
339.822693
  0
ARC
  8
0
  6
CONTINUOUS
 10
341.936859
 20
336.822693
 40
5.000000
 50
1.000000
 51
90.000000
  0
ARC
  8
0
  6
CONTINUOUS
 10
341.936859
 20
282.822693
 40
5.000000
 50
270.000000
 51
359.000000
  0
LINE
  8
0
  6
CONTINUOUS
 10
237.735413
 20
255.494171
 11
238.192596
 21
272.953583
  0
LINE
  8
0
  6
CONTINUOUS
 10
229.658905
 20
367.322693
 11
229.658905
 21
252.322708
  0
LINE
  8
0
  6
CONTINUOUS
 10
248.223907
 20
327.822693
 11
248.223907
 21
291.822693
  0
LINE
  8
0
  6
CONTINUOUS
 10
229.658905
 20
367.072693
 11
234.736435
 21
367.072693
  0
LINE
  8
0
  6
CONTINUOUS
 10
234.736435
 20
252.572708
 11
229.658905
 21
252.572708
  0
ARC
  8
0
  6
CONTINUOUS
 10
243.190887
 20
272.822693
 40
5.000000
 50
90.000000
 51
178.500000
  0
ARC
  8
0
  6
CONTINUOUS
 10
234.736435
 20
255.572708
 40
3.000000
 50
270.000000
 51
358.500000
  0
LINE
  8
0
  6
CONTINUOUS
 10
237.735413
 20
364.151245
 11
238.192596
 21
346.691833
  0
ARC
  8
0
  6
CONTINUOUS
 10
243.190887
 20
346.822693
 40
5.000000
 50
-178.500000
 51
-90.000000
  0
ARC
  8
0
  6
CONTINUOUS
 10
234.736435
 20
364.072693
 40
3.000000
 50
-358.500000
 51
-270.000000
  0
LINE
  8
0
  6
CONTINUOUS
 10
246.576828
 20
363.846954
 11
241.997696
 21
341.967163
  0
ARC
  8
0
  6
CONTINUOUS
 10
251.470810
 20
362.822693
 40
5.000000
 50
90.000000
 51
168.179398
  0
LINE
  8
0
  6
CONTINUOUS
 10
246.576828
 20
255.798462
 11
241.997696
 21
277.678253
  0
ARC
  8
0
  6
CONTINUOUS
 10
251.470810
 20
256.822693
 40
5.000000
 50
-168.179398
 51
-90.000000
  0
LINE
  8
0
  6
CENTER
 10
318.959290
 20
264.822693
 11
339.813477
 21
264.822693
  0
LINE
  8
0
  6
CENTER
 10
329.408905
 20
272.380005
 11
329.408905
 21
255.609161
  0
CIRCLE
  8
0
  6
CONTINUOUS
 10
329.408905
 20
264.822693
 40
5.500000
  0
LINE
  8
0
  6
CENTER
 10
269.858521
 20
264.822693
 11
249.004349
 21
264.822693
  0
LINE
  8
0
  6
CENTER
 10
259.408905
 20
272.380005
 11
259.408905
 21
255.609161
  0
CIRCLE
  8
0
  6
CONTINUOUS
 10
259.408905
 20
264.822693
 40
5.500000
  0
LINE
  8
0
  6
CENTER
 10
318.959290
 20
354.822693
 11
339.813477
 21
354.822693
  0
LINE
  8
0
  6
CENTER
 10
329.408905
 20
347.265411
 11
329.408905
 21
364.036255
  0
CIRCLE
  8
0
  6
CONTINUOUS
 10
329.408905
 20
354.822693
 40
5.500000
  0
LINE
  8
0
  6
CENTER
 10
269.858521
 20
354.822693
 11
249.004349
 21
354.822693
  0
LINE
  8
0
  6
CENTER
 10
259.408905
 20
347.265411
 11
259.408905
 21
364.036255
  0
CIRCLE
  8
0
  6
CONTINUOUS
 10
259.408905
 20
354.822693
 40
5.500000
  0
LINE
  8
0
  6
CONTINUOUS
 10
269.216064
 20
261.822693
 11
319.601746
 21
261.822693
  0
LINE
  8
0
  6
CONTINUOUS
 10
324.565155
 20
271.822693
 11
327.851990
 21
271.822693
  0
ARC
  8
0
  6
CONTINUOUS
 10
319.601746
 20
264.822693
 40
3.000000
 50
270.000000
 51
345.124329
  0
LINE
  8
0
  6
CONTINUOUS
 10
330.751465
 20
274.052551
 11
331.160614
 21
275.592865
  0
ARC
  8
0
  6
CONTINUOUS
 10
327.851990
 20
274.822693
 40
3.000000
 50
270.000000
 51
345.124329
  0
ARC
  8
0
  6
CONTINUOUS
 10
334.060059
 20
274.822693
 40
3.000000
 50
90.000000
 51
165.124313
  0
LINE
  8
0
  6
CONTINUOUS
 10
324.565155
 20
271.822693
 11
322.501221
 21
264.052551
  0
LINE
  8
0
  6
CONTINUOUS
 10
258.066345
 20
274.052551
 11
257.657196
 21
275.592865
  0
ARC
  8
0
  6
CONTINUOUS
 10
260.965820
 20
274.822693
 40
3.000000
 50
-165.124313
 51
-90.000000
  0
ARC
  8
0
  6
CONTINUOUS
 10
254.757751
 20
274.822693
 40
3.000000
 50
14.875682
 51
90.000000
  0
LINE
  8
0
  6
CONTINUOUS
 10
264.252655
 20
271.822693
 11
260.965820
 21
271.822693
  0
ARC
  8
0
  6
CONTINUOUS
 10
269.216064
 20
264.822693
 40
3.000000
 50
-165.124313
 51
-90.000000
  0
LINE
  8
0
  6
CONTINUOUS
 10
264.252655
 20
271.822693
 11
266.316620
 21
264.052551
  0
CIRCLE
  8
0
  6
CONTINUOUS
 10
329.408905
 20
354.822693
 40
5.500000
  0
LINE
  8
0
  6
CONTINUOUS
 10
269.216064
 20
357.822693
 11
319.601746
 21
357.822693
  0
LINE
  8
0
  6
CONTINUOUS
 10
324.565155
 20
347.822693
 11
327.851990
 21
347.822693
  0
ARC
  8
0
  6
CONTINUOUS
 10
319.601746
 20
354.822693
 40
3.000000
 50
-345.124329
 51
-270.000000
  0
LINE
  8
0
  6
CONTINUOUS
 10
330.751465
 20
345.592865
 11
331.160614
 21
344.052551
  0
ARC
  8
0
  6
CONTINUOUS
 10
327.851990
 20
344.822693
 40
3.000000
 50
-345.124329
 51
-270.000000
  0
ARC
  8
0
  6
CONTINUOUS
 10
334.060059
 20
344.822693
 40
3.000000
 50
-165.124313
 51
-90.000000
  0
LINE
  8
0
  6
CONTINUOUS
 10
324.565155
 20
347.822693
 11
322.501221
 21
355.592865
  0
LINE
  8
0
  6
CONTINUOUS
 10
258.066345
 20
345.592865
 11
257.657196
 21
344.052551
  0
ARC
  8
0
  6
CONTINUOUS
 10
260.965820
 20
344.822693
 40
3.000000
 50
90.000000
 51
165.124313
  0
ARC
  8
0
  6
CONTINUOUS
 10
254.757751
 20
344.822693
 40
3.000000
 50
-90.000000
 51
-14.875682
  0
LINE
  8
0
  6
CONTINUOUS
 10
264.252655
 20
347.822693
 11
260.965820
 21
347.822693
  0
ARC
  8
0
  6
CONTINUOUS
 10
269.216064
 20
354.822693
 40
3.000000
 50
90.000000
 51
165.124313
  0
LINE
  8
0
  6
CONTINUOUS
 10
264.252655
 20
347.822693
 11
266.316620
 21
355.592865
  0
LINE
  8
0
  6
CONTINUOUS
 10
283.408905
 20
219.822708
 11
307.908905
 21
219.822708
  0
LINE
  8
0
  6
CONTINUOUS
 10
305.408905
 20
259.822693
 11
305.408905
 21
254.822708
  0
LINE
  8
0
  6
CONTINUOUS
 10
283.408905
 20
259.822693
 11
283.408905
 21
219.822708
  0
LINE
  8
0
  6
CONTINUOUS
 10
306.908905
 20
261.822693
 11
306.908905
 21
259.822693
  0
LINE
  8
0
  6
CONTINUOUS
 10
281.908905
 20
261.822693
 11
281.908905
 21
259.822693
  0
LINE
  8
0
  6
CONTINUOUS
 10
281.908905
 20
259.822693
 11
306.908905
 21
259.822693
  0
LINE
  8
0
  6
CONTINUOUS
 10
307.908905
 20
251.822708
 11
337.347015
 21
251.822708
  0
LINE
  8
0
  6
CONTINUOUS
 10
307.908905
 20
254.822708
 11
307.908905
 21
219.822708
  0
LINE
  8
0
  6
CONTINUOUS
 10
304.991913
 20
219.822708
 11
304.991913
 21
254.822708
  0
LINE
  8
0
  6
CONTINUOUS
 10
304.991913
 20
254.822708
 11
307.908905
 21
254.822708
  0
LINE
  8
0
  6
CONTINUOUS
 10
283.408905
 20
399.822693
 11
307.908905
 21
399.822693
  0
LINE
  8
0
  6
CONTINUOUS
 10
305.408905
 20
359.822693
 11
305.408905
 21
364.822693
  0
LINE
  8
0
  6
CONTINUOUS
 10
283.408905
 20
359.822693
 11
283.408905
 21
399.822693
  0
LINE
  8
0
  6
CONTINUOUS
 10
306.908905
 20
357.822693
 11
306.908905
 21
359.822693
  0
LINE
  8
0
  6
CONTINUOUS
 10
281.908905
 20
357.822693
 11
281.908905
 21
359.822693
  0
LINE
  8
0
  6
CONTINUOUS
 10
281.908905
 20
359.822693
 11
306.908905
 21
359.822693
  0
LINE
  8
0
  6
CONTINUOUS
 10
307.908905
 20
364.822693
 11
307.908905
 21
399.822693
  0
LINE
  8
0
  6
CONTINUOUS
 10
304.991913
 20
399.822693
 11
304.991913
 21
364.822693
  0
LINE
  8
0
  6
CONTINUOUS
 10
304.991913
 20
364.822693
 11
307.908905
 21
364.822693
  0
LINE
  8
0
  6
CONTINUOUS
 10
283.408905
 20
367.822693
 11
251.292633
 21
367.822693
  0
LINE
  8
0
  6
CONTINUOUS
 10
229.658905
 20
357.322693
 11
234.991745
 21
357.322693
  0
ARC
  8
0
  6
CONTINUOUS
 10
234.991745
 20
354.322693
 40
3.000000
 50
1.500000
 51
90.000000
  0
LINE
  8
0
  6
CONTINUOUS
 10
237.949387
 20
341.822693
 11
229.658905
 21
341.822693
  0
LINE
  8
0
  6
CONTINUOUS
 10
237.949387
 20
277.822693
 11
229.658905
 21
277.822693
  0
LINE
  8
0
  6
CONTINUOUS
 10
229.658905
 20
262.322693
 11
234.991745
 21
262.322693
  0
ARC
  8
0
  6
CONTINUOUS
 10
234.991745
 20
265.322693
 40
3.000000
 50
-90.000000
 51
-1.500000
  0
LINE
  8
0
  6
CONTINUOUS
 10
486.659363
 20
2.893437
 11
534.659363
 21
2.893437
  0
LINE
  8
0
  6
CONTINUOUS
 10
535.659363
 20
1.893437
 11
534.659363
 21
2.893437
  0
LINE
  8
0
  6
CONTINUOUS
 10
485.659363
 20
1.893437
 11
486.659363
 21
2.893437
  0
LINE
  8
0
  6
CONTINUOUS
 10
535.659363
 20
1.893437
 11
568.659363
 21
1.893437
  0
LINE
  8
0
  6
CONTINUOUS
 10
224.158905
 20
252.322708
 11
229.658905
 21
252.322708
  0
LINE
  8
0
  6
CONTINUOUS
 10
224.158905
 20
367.322693
 11
229.658905
 21
367.322693
  0
LINE
  8
0
  6
CONTINUOUS
 10
221.658905
 20
254.822708
 11
221.658905
 21
364.822693
  0
LINE
  8
0
  6
CONTINUOUS
 10
177.658905
 20
347.822693
 11
177.658905
 21
271.822693
  0
LINE
  8
0
  6
CONTINUOUS
 10
219.246155
 20
349.274963
 11
177.658905
 21
347.822693
  0
LINE
  8
0
  6
CONTINUOUS
 10
219.246155
 20
270.370453
 11
177.658905
 21
271.822693
  0
ARC
  8
0
  6
CONTINUOUS
 10
224.158905
 20
364.822693
 40
2.500000
 50
90.000000
 51
180.000000
  0
ARC
  8
0
  6
CONTINUOUS
 10
224.158905
 20
254.822708
 40
2.500000
 50
180.000000
 51
270.000000
  0
ARC
  8
0
  6
CONTINUOUS
 10
222.658905
 20
132.893433
 40
1.000000
 50
90.000000
 51
180.000000
  0
ARC
  8
0
  6
CONTINUOUS
 10
219.158905
 20
118.962624
 40
2.500000
 50
-64.230675
 51
0.000000
  0
ARC
  8
0
  6
CONTINUOUS
 10
219.158905
 20
107.344177
 40
2.500000
 50
-88.000000
 51
0.000000
  0
ARC
  8
0
  6
CONTINUOUS
 10
193.215485
 20
106.438210
 40
2.500000
 50
272.000000
 51
295.769318
  0
LINE
  8
0
  6
CONTINUOUS
 10
177.658905
 20
347.822693
 11
177.658905
 21
271.822693
  0
LINE
  8
0
  6
CONTINUOUS
 10
63.659027
 20
347.822693
 11
177.659027
 21
347.822693
  0
LINE
  8
0
  6
CONTINUOUS
 10
63.659027
 20
271.822723
 11
177.659027
 21
271.822723
  0
LINE
  8
0
  6
CONTINUOUS
 10
169.659027
 20
345.822693
 11
169.659027
 21
332.822693
  0
ARC
  8
0
  6
CONTINUOUS
 10
171.659027
 20
345.822693
 40
2.000000
 50
90.000000
 51
180.000000
  0
ARC
  8
0
  6
CONTINUOUS
 10
171.659027
 20
273.822723
 40
2.000000
 50
180.000000
 51
270.000000
  0
LINE
  8
0
  6
CONTINUOUS
 10
116.658897
 20
332.822693
 11
169.659027
 21
332.822693
  0
LINE
  8
0
  6
CONTINUOUS
 10
116.658897
 20
286.822693
 11
169.659027
 21
286.822693
  0
LINE
  8
0
  6
CONTINUOUS
 10
169.659027
 20
286.822693
 11
169.659027
 21
273.822693
  0
ARC
  8
0
  6
CONTINUOUS
 10
208.828537
 20
309.822693
 40
15.000000
 50
130.747620
 51
229.252380
  0
LINE
  8
0
  6
CONTINUOUS
 10
220.790726
 20
339.928711
 11
199.037613
 21
321.186584
  0
LINE
  8
0
  6
CONTINUOUS
 10
220.790726
 20
279.716705
 11
199.037613
 21
298.458832
  0
ARC
  8
0
  6
CONTINUOUS
 10
219.158905
 20
341.822693
 40
2.500000
 50
-49.252373
 51
0.000000
  0
ARC
  8
0
  6
CONTINUOUS
 10
219.158905
 20
351.773438
 40
2.500000
 50
-88.000000
 51
0.000000
  0
ARC
  8
0
  6
CONTINUOUS
 10
219.158905
 20
277.822723
 40
2.500000
 50
0.000000
 51
49.252373
  0
ARC
  8
0
  6
CONTINUOUS
 10
219.158905
 20
267.871979
 40
2.500000
 50
0.000000
 51
88.000000
  0
LINE
  8
0
  6
CONTINUOUS
 10
222.783981
 20
33.239437
 11
229.658905
 21
33.239437
  0
LINE
  8
0
  6
CONTINUOUS
 10
221.658905
 20
21.393436
 11
221.658905
 21
23.442701
  0
ARC
  8
0
  6
CONTINUOUS
 10
224.158905
 20
21.393436
 40
2.500000
 50
180.000000
 51
270.000000
  0
ARC
  8
0
  6
CONTINUOUS
 10
219.158905
 20
23.442701
 40
2.500000
 50
0.000000
 51
88.000000
  0
ARC
  8
0
  6
CONTINUOUS
 10
510.659363
 20
76.393440
 40
57.500000
 50
236.002823
 51
236.184402
  0
ARC
  8
0
  6
CONTINUOUS
 10
510.659363
 20
76.393440
 40
57.500000
 50
303.815582
 51
303.997162
  0
ARC
  8
0
  6
CONTINUOUS
 10
510.659363
 20
76.393440
 40
57.500000
 50
-33.997124
 51
19.823904
  0
ARC
  8
0
  6
CONTINUOUS
 10
510.659363
 20
76.393440
 40
57.500000
 50
160.176102
 51
213.997131
  0
LINE
  8
0
  6
CONTINUOUS
 10
63.659027
 20
347.822693
 11
63.659027
 21
340.822693
  0
LINE
  8
0
  6
CONTINUOUS
 10
63.659027
 20
347.822693
 11
54.159027
 21
347.822693
  0
LINE
  8
0
  6
CONTINUOUS
 10
63.659027
 20
271.822693
 11
54.159027
 21
271.822693
  0
LINE
  8
0
  6
CONTINUOUS
 10
54.658897
 20
286.822693
 11
54.159027
 21
286.822693
  0
LINE
  8
0
  6
CONTINUOUS
 10
54.658897
 20
332.822693
 11
54.159027
 21
332.822693
  0
LINE
  8
0
  6
CONTINUOUS
 10
63.659027
 20
278.822693
 11
63.659027
 21
271.822693
  0
LINE
  8
0
  6
CONTINUOUS
 10
54.159027
 20
269.822693
 11
54.159027
 21
349.822693
  0
LINE
  8
0
  6
CONTINUOUS
 10
10.159028
 20
349.822693
 11
54.159027
 21
349.822693
  0
LINE
  8
0
  6
CONTINUOUS
 10
10.159028
 20
269.822693
 11
54.159027
 21
269.822693
  0
LINE
  8
0
  6
CONTINUOUS
 10
5.159028
 20
274.822693
 11
5.159028
 21
344.822693
  0
ARC
  8
0
  6
CONTINUOUS
 10
10.159028
 20
344.822693
 40
5.000000
 50
90.000000
 51
180.000000
  0
ARC
  8
0
  6
CONTINUOUS
 10
10.159028
 20
274.822693
 40
5.000000
 50
180.000000
 51
270.000000
  0
LINE
  8
0
  6
CONTINUOUS
 10
7.659028
 20
333.822693
 11
54.159027
 21
333.822693
  0
LINE
  8
0
  6
CONTINUOUS
 10
7.659028
 20
283.822693
 11
54.159027
 21
283.822693
  0
LINE
  8
0
  6
CONTINUOUS
 10
54.158905
 20
103.393417
 11
63.658905
 21
103.393417
  0
LINE
  8
0
  6
CONTINUOUS
 10
54.158905
 20
27.393417
 11
63.658905
 21
27.393417
  0
LINE
  8
0
  6
CONTINUOUS
 10
54.158905
 20
25.393417
 11
54.158905
 21
105.393417
  0
LINE
  8
0
  6
CONTINUOUS
 10
54.158905
 20
95.642418
 11
63.658905
 21
95.642418
  0
LINE
  8
0
  6
CONTINUOUS
 10
54.158905
 20
35.144417
 11
63.658905
 21
35.144417
  0
LINE
  8
0
  6
CONTINUOUS
 10
10.158906
 20
105.393417
 11
54.158905
 21
105.393417
  0
LINE
  8
0
  6
CONTINUOUS
 10
10.158906
 20
25.393417
 11
54.158905
 21
25.393417
  0
LINE
  8
0
  6
CONTINUOUS
 10
5.158906
 20
30.393417
 11
5.158906
 21
100.393417
  0
ARC
  8
0
  6
CONTINUOUS
 10
10.158906
 20
100.393417
 40
5.000000
 50
90.000000
 51
180.000000
  0
ARC
  8
0
  6
CONTINUOUS
 10
10.158906
 20
30.393417
 40
5.000000
 50
180.000000
 51
270.000000
  0
LINE
  8
0
  6
CONTINUOUS
 10
7.658906
 20
91.393417
 11
54.158905
 21
91.393417
  0
LINE
  8
0
  6
CONTINUOUS
 10
7.658906
 20
41.393417
 11
54.158905
 21
41.393417
  0
LINE
  8
0
  6
CONTINUOUS
 10
63.658905
 20
27.393436
 11
63.658905
 21
103.393417
  0
LINE
  8
0
  6
CONTINUOUS
 10
177.658905
 20
55.993439
 11
221.658905
 21
55.993439
  0
LINE
  8
0
  6
CONTINUOUS
 10
177.658905
 20
45.793438
 11
221.658905
 21
45.793438
  0
LINE
  8
0
  6
CONTINUOUS
 10
541.659363
 20
153.893417
 11
541.659363
 21
151.101776
  0
LINE
  8
0
  6
CONTINUOUS
 10
479.659363
 20
153.893417
 11
479.659363
 21
151.101425
  0
LINE
  8
0
  6
CONTINUOUS
 10
480.659363
 20
154.893417
 11
540.659363
 21
154.893417
  0
LINE
  8
0
  6
CONTINUOUS
 10
540.659363
 20
154.893417
 11
541.659363
 21
153.893417
  0
LINE
  8
0
  6
CONTINUOUS
 10
480.659363
 20
154.893417
 11
479.659363
 21
153.893417
  0
LINE
  8
0
  6
CONTINUOUS
 10
479.659363
 20
153.893417
 11
541.659363
 21
153.893417
  0
LINE
  8
0
  6
CONTINUOUS
 10
56.158905
 20
104.893440
 11
114.658905
 21
104.893440
  0
LINE
  8
0
  6
CONTINUOUS
 10
56.158905
 20
104.893440
 11
56.158905
 21
103.393440
  0
LINE
  8
0
  6
CONTINUOUS
 10
102.158905
 20
104.893440
 11
102.158905
 21
103.393440
  0
LINE
  8
0
  6
CONTINUOUS
 10
54.658905
 20
153.893433
 11
54.658905
 21
106.893440
  0
LINE
  8
0
  6
CONTINUOUS
 10
116.658905
 20
153.893463
 11
116.658905
 21
106.893440
  0
LINE
  8
0
  6
CONTINUOUS
 10
116.658905
 20
106.893440
 11
114.658905
 21
104.893440
  0
LINE
  8
0
  6
CONTINUOUS
 10
54.658905
 20
106.893440
 11
56.658905
 21
104.893440
  0
LINE
  8
0
  6
CONTINUOUS
 10
54.658905
 20
106.893440
 11
116.658905
 21
106.893440
  0
LINE
  8
0
  6
CONTINUOUS
 10
54.658905
 20
116.893456
 11
116.658905
 21
116.893456
  0
LINE
  8
0
  6
CENTER
 10
85.658905
 20
158.322433
 11
85.658905
 21
100.299416
  0
LINE
  8
0
  6
CONTINUOUS
 10
54.658905
 20
117.893456
 11
116.658905
 21
117.893456
  0
LINE
  8
0
  6
CONTINUOUS
 10
55.658905
 20
154.893433
 11
115.658905
 21
154.893463
  0
LINE
  8
0
  6
CONTINUOUS
 10
115.658905
 20
154.893463
 11
116.658905
 21
153.893463
  0
LINE
  8
0
  6
CONTINUOUS
 10
54.658905
 20
153.893433
 11
55.658905
 21
154.893433
  0
LINE
  8
0
  6
CONTINUOUS
 10
54.658905
 20
153.893433
 11
116.658905
 21
153.893463
  0
LINE
  8
0
  6
CENTER
 10
52.033905
 20
137.893463
 11
57.783905
 21
137.893463
  0
LINE
  8
0
  6
CONTINUOUS
 10
53.533905
 20
148.393463
 11
56.658905
 21
148.393463
  0
LINE
  8
0
  6
CONTINUOUS
 10
53.533905
 20
127.393456
 11
56.658905
 21
127.393456
  0
LINE
  8
0
  6
CONTINUOUS
 10
54.658897
 20
280.822693
 11
54.658897
 21
338.822693
  0
LINE
  8
0
  6
CONTINUOUS
 10
116.658897
 20
338.822693
 11
116.658897
 21
280.822693
  0
LINE
  8
0
  6
CONTINUOUS
 10
56.658897
 20
278.822693
 11
114.658897
 21
278.822693
  0
LINE
  8
0
  6
CONTINUOUS
 10
56.658897
 20
340.822693
 11
114.658897
 21
340.822693
  0
LINE
  8
0
  6
CONTINUOUS
 10
114.658897
 20
278.822693
 11
116.658897
 21
280.822693
  0
LINE
  8
0
  6
CONTINUOUS
 10
116.658897
 20
338.822693
 11
114.658897
 21
340.822693
  0
LINE
  8
0
  6
CONTINUOUS
 10
54.658897
 20
338.822693
 11
56.658897
 21
340.822693
  0
LINE
  8
0
  6
CONTINUOUS
 10
54.658897
 20
280.822693
 11
56.658897
 21
278.822693
  0
LINE
  8
0
  6
CONTINUOUS
 10
108.658897
 20
283.822693
 11
108.658897
 21
278.822693
  0
LINE
  8
0
  6
CONTINUOUS
 10
111.658897
 20
286.822693
 11
116.658897
 21
286.822693
  0
CIRCLE
  8
0
  6
CONTINUOUS
 10
112.658897
 20
282.822693
 40
2.250000
  0
ARC
  8
0
  6
CONTINUOUS
 10
111.658897
 20
283.822693
 40
3.000000
 50
90.000000
 51
180.000000
  0
LINE
  8
0
  6
CONTINUOUS
 10
115.658897
 20
287.822693
 11
115.658897
 21
331.822693
  0
LINE
  8
0
  6
CONTINUOUS
 10
111.658897
 20
287.822693
 11
115.658897
 21
287.822693
  0
ARC
  8
0
  6
CONTINUOUS
 10
111.658897
 20
283.822693
 40
4.000000
 50
90.000000
 51
180.000000
  0
LINE
  8
0
  6
CONTINUOUS
 10
107.658897
 20
279.822693
 11
107.658897
 21
283.822693
  0
LINE
  8
0
  6
CONTINUOUS
 10
115.658897
 20
287.822693
 11
116.658897
 21
286.822693
  0
LINE
  8
0
  6
CONTINUOUS
 10
63.658897
 20
279.822693
 11
107.658897
 21
279.822693
  0
LINE
  8
0
  6
CONTINUOUS
 10
107.658897
 20
279.822693
 11
108.658897
 21
278.822693
  0
LINE
  8
0
  6
CONTINUOUS
 10
59.658897
 20
286.822693
 11
54.658897
 21
286.822693
  0
LINE
  8
0
  6
CONTINUOUS
 10
62.658897
 20
283.822693
 11
62.658897
 21
278.822693
  0
CIRCLE
  8
0
  6
CONTINUOUS
 10
58.658897
 20
282.822693
 40
2.250000
  0
ARC
  8
0
  6
CONTINUOUS
 10
59.658897
 20
283.822693
 40
3.000000
 50
0.000000
 51
90.000000
  0
LINE
  8
0
  6
CONTINUOUS
 10
63.658897
 20
283.822693
 11
63.658897
 21
279.822693
  0
ARC
  8
0
  6
CONTINUOUS
 10
59.658897
 20
283.822693
 40
4.000000
 50
0.000000
 51
90.000000
  0
LINE
  8
0
  6
CONTINUOUS
 10
55.658897
 20
287.822693
 11
59.658897
 21
287.822693
  0
LINE
  8
0
  6
CONTINUOUS
 10
63.658897
 20
279.822693
 11
62.658897
 21
278.822693
  0
LINE
  8
0
  6
CONTINUOUS
 10
55.658897
 20
287.822693
 11
54.658897
 21
286.822693
  0
LINE
  8
0
  6
CONTINUOUS
 10
62.658897
 20
335.822693
 11
62.658897
 21
340.822693
  0
LINE
  8
0
  6
CONTINUOUS
 10
59.658897
 20
332.822693
 11
54.658897
 21
332.822693
  0
CIRCLE
  8
0
  6
CONTINUOUS
 10
58.658897
 20
336.822693
 40
2.250000
  0
ARC
  8
0
  6
CONTINUOUS
 10
59.658897
 20
335.822693
 40
3.000000
 50
-90.000000
 51
0.000000
  0
LINE
  8
0
  6
CONTINUOUS
 10
59.658897
 20
331.822693
 11
55.658897
 21
331.822693
  0
ARC
  8
0
  6
CONTINUOUS
 10
59.658897
 20
335.822693
 40
4.000000
 50
-90.000000
 51
0.000000
  0
LINE
  8
0
  6
CONTINUOUS
 10
63.658897
 20
339.822693
 11
63.658897
 21
335.822693
  0
LINE
  8
0
  6
CONTINUOUS
 10
55.658897
 20
331.822693
 11
54.658897
 21
332.822693
  0
LINE
  8
0
  6
CONTINUOUS
 10
63.658897
 20
339.822693
 11
62.658897
 21
340.822693
  0
LINE
  8
0
  6
CONTINUOUS
 10
111.658897
 20
332.822693
 11
116.658897
 21
332.822693
  0
LINE
  8
0
  6
CONTINUOUS
 10
108.658897
 20
335.822693
 11
108.658897
 21
340.822693
  0
CIRCLE
  8
0
  6
CONTINUOUS
 10
112.658897
 20
336.822693
 40
2.250000
  0
ARC
  8
0
  6
CONTINUOUS
 10
111.658897
 20
335.822693
 40
3.000000
 50
180.000000
 51
270.000000
  0
LINE
  8
0
  6
CONTINUOUS
 10
107.658897
 20
335.822693
 11
107.658897
 21
339.822693
  0
ARC
  8
0
  6
CONTINUOUS
 10
111.658897
 20
335.822693
 40
4.000000
 50
180.000000
 51
270.000000
  0
LINE
  8
0
  6
CONTINUOUS
 10
115.658897
 20
331.822693
 11
111.658897
 21
331.822693
  0
LINE
  8
0
  6
CONTINUOUS
 10
107.658897
 20
339.822693
 11
108.658897
 21
340.822693
  0
LINE
  8
0
  6
CONTINUOUS
 10
115.658897
 20
331.822693
 11
116.658897
 21
332.822693
  0
LINE
  8
0
  6
CONTINUOUS
 10
63.658897
 20
339.822693
 11
107.658897
 21
339.822693
  0
LINE
  8
0
  6
CONTINUOUS
 10
55.658897
 20
287.822693
 11
55.658897
 21
331.822693
  0
LINE
  8
0
  6
CENTER
 10
85.658897
 20
273.576447
 11
85.658897
 21
346.269257
  0
TEXT
  8
0
 10
-8.000000
 20
-13.000000
 40
4.000000
 41
1.000000
  1
HLMN-22T-300~900-T25WC
 50
0.000000
  0
ENDSEC
  0
EOF
