  0
SECTION
  2
HEADER
  9
$CLAYER
  8
1
  9
$LTSCALE
 40
3.0
  0
ENDSEC
  0
SECTION
  2
TABLES
  0
TABLE
  2
LTYPE
 70
     4
  0
LTYPE
  2
CONTINUOUS
  3
solid line
 70
    64
 72
    65
 73
     0
 40
0.0
  0
LTYPE
  2
DASHED
  3
__ __ __ __ __ __ __ __ __ __ __ __ __ __ __
 70
    64
 72
    65
 73
     2
 40
0.75
 49
0.5
 49
-0.25
  0
LTYPE
  2
CENTER
  3
____ _ ____ _ ____ _ ____ _ ____ _ ____ _ ____
 70
    64
 72
    65
 73
     4
 40
2.0
 49
1.25
 49
-0.25
 49
0.25
 49
-0.25
  0
LTYPE
  2
PHANTOM
  3
_____ _ _ _____ _ _ _____ _ _ _____ _ _ ____
 70
    64
 72
    65
 73
     6
 40
2.5
 49
1.25
 49
-0.25
 49
0.25
 49
-0.25
 49
0.25
 49
-0.25
  0
ENDTAB
  0
TABLE
  2
LAYER
 70
     1
  0
LAYER
  2
0
 70
    64
 62
     7
  6
CONTINUOUS
  0
ENDTAB
  0
TABLE
  2
STYLE
 70
     1
  0
STYLE
  2
STANDARD
 70
     0
 40
0.000000
 41
1.000000
 50
0.000000
 71
     0
 42
3.000000
  3
txt
  4
BIGFONT
  0
ENDTAB
  0
ENDSEC
  0
SECTION
  2
BLOCKS
  0
ENDSEC
  0
SECTION
  2
ENTITIES
  0
LINE
  8
0
  6
CONTINUOUS
 10
498.591492
 20
121.103828
 11
498.591492
 21
35.103809
  0
LINE
  8
0
  6
CONTINUOUS
 10
608.591492
 20
123.103828
 11
489.591492
 21
123.103828
  0
LINE
  8
0
  6
CONTINUOUS
 10
608.591492
 20
33.103828
 11
489.591492
 21
33.103828
  0
LINE
  8
0
  6
CONTINUOUS
 10
608.591492
 20
112.513130
 11
499.629181
 21
112.513130
  0
LINE
  8
0
  6
CONTINUOUS
 10
608.591492
 20
43.694527
 11
499.629181
 21
43.694527
  0
ARC
  8
0
  6
CONTINUOUS
 10
496.591492
 20
121.103851
 40
2.000000
 50
0.000000
 51
90.000000
  0
ARC
  8
0
  6
CONTINUOUS
 10
496.591492
 20
35.103828
 40
2.000000
 50
-90.000000
 51
0.000000
  0
LINE
  8
0
  6
CENTER
 10
516.567200
 20
91.103828
 11
391.341492
 21
91.103828
  0
LINE
  8
0
  6
CONTINUOUS
 10
435.091492
 20
91.103828
 11
435.091492
 21
27.103729
  0
LINE
  8
0
  6
CONTINUOUS
 10
435.091492
 20
91.103828
 11
435.091492
 21
155.103928
  0
LINE
  8
0
  6
CONTINUOUS
 10
114.608994
 20
38.103828
 11
114.608994
 21
42.082546
  0
LINE
  8
0
  6
CONTINUOUS
 10
24.608995
 20
38.103828
 11
24.608995
 21
42.082489
  0
LINE
  8
0
  6
CONTINUOUS
 10
29.608995
 20
33.103828
 11
32.608997
 21
33.103828
  0
LINE
  8
0
  6
CONTINUOUS
 10
109.608994
 20
33.103828
 11
106.608994
 21
33.103828
  0
ARC
  8
0
  6
CONTINUOUS
 10
29.608995
 20
38.103828
 40
5.000000
 50
180.000000
 51
270.000000
  0
ARC
  8
0
  6
CONTINUOUS
 10
109.608994
 20
38.103828
 40
5.000000
 50
-90.000000
 51
0.000000
  0
ARC
  8
0
  6
CONTINUOUS
 10
110.621399
 20
50.091869
 40
8.000000
 50
306.780975
 51
358.958740
  0
ARC
  8
0
  6
CONTINUOUS
 10
28.596796
 20
50.091606
 40
8.000000
 50
181.041107
 51
233.216995
  0
ARC
  8
0
  6
CONTINUOUS
 10
116.608994
 20
42.082569
 40
2.000000
 50
126.781197
 51
180.000000
  0
ARC
  8
0
  6
CONTINUOUS
 10
22.608995
 20
42.082489
 40
2.000000
 50
0.000000
 51
53.217121
  0
LINE
  8
0
  6
CENTER
 10
69.608994
 20
-10.225012
 11
69.608994
 21
203.023148
  0
LINE
  8
0
  6
CENTER
 10
-0.699754
 20
127.103828
 11
186.645996
 21
127.103828
  0
LINE
  8
0
  6
CONTINUOUS
 10
6.608996
 20
7.103828
 11
42.108997
 21
7.103828
  0
LINE
  8
0
  6
CONTINUOUS
 10
10.608996
 20
22.103828
 11
28.608995
 21
22.103828
  0
LINE
  8
0
  6
CONTINUOUS
 10
128.608994
 20
22.103828
 11
110.608994
 21
22.103828
  0
LINE
  8
0
  6
CONTINUOUS
 10
34.108997
 20
155.103821
 11
104.858994
 21
155.103821
  0
LINE
  8
0
  6
CONTINUOUS
 10
103.661392
 20
181.009705
 11
69.608994
 21
181.603821
  0
LINE
  8
0
  6
CONTINUOUS
 10
35.556595
 20
181.009308
 11
69.608994
 21
181.603821
  0
LINE
  8
0
  6
CONTINUOUS
 10
106.608994
 20
178.010162
 11
106.608994
 21
7.103808
  0
LINE
  8
0
  6
CONTINUOUS
 10
32.608997
 20
178.009766
 11
32.608997
 21
7.103828
  0
LINE
  8
0
  6
CONTINUOUS
 10
16.608995
 20
97.391563
 11
16.608995
 21
156.816071
  0
LINE
  8
0
  6
CONTINUOUS
 10
122.608994
 20
156.816086
 11
122.608994
 21
97.391563
  0
LINE
  8
0
  6
CONTINUOUS
 10
23.608995
 20
56.904247
 11
23.608995
 21
129.603821
  0
LINE
  8
0
  6
CONTINUOUS
 10
115.608994
 20
56.904247
 11
115.608994
 21
129.603821
  0
LINE
  8
0
  6
CONTINUOUS
 10
132.608994
 20
18.799767
 11
132.608994
 21
7.103828
  0
LINE
  8
0
  6
CONTINUOUS
 10
6.608996
 20
18.799767
 11
6.608996
 21
7.103828
  0
LINE
  8
0
  6
CENTER
 10
19.608995
 20
30.103828
 11
19.608995
 21
-4.249572
  0
LINE
  8
0
  6
CENTER
 10
119.608994
 20
30.603828
 11
119.608994
 21
-4.249572
  0
LINE
  8
0
  6
DASHED
 10
14.108996
 20
22.103828
 11
14.108996
 21
7.103828
  0
LINE
  8
0
  6
DASHED
 10
25.108995
 20
22.103828
 11
25.108995
 21
7.103828
  0
LINE
  8
0
  6
DASHED
 10
114.108994
 20
22.103828
 11
114.108994
 21
7.103828
  0
LINE
  8
0
  6
DASHED
 10
125.108994
 20
22.103828
 11
125.108994
 21
7.103828
  0
ARC
  8
0
  6
CONTINUOUS
 10
35.608997
 20
178.009781
 40
3.000000
 50
91.000526
 51
180.000000
  0
ARC
  8
0
  6
CONTINUOUS
 10
103.608994
 20
178.010147
 40
3.000000
 50
0.000000
 51
89.000580
  0
LINE
  8
0
  6
CONTINUOUS
 10
97.108994
 20
7.103828
 11
132.608994
 21
7.103828
  0
LINE
  8
0
  6
CONTINUOUS
 10
43.108997
 20
8.103828
 11
96.108994
 21
8.103828
  0
LINE
  8
0
  6
CONTINUOUS
 10
20.255196
 20
161.629349
 11
28.962597
 21
164.078308
  0
LINE
  8
0
  6
CONTINUOUS
 10
20.255196
 20
92.578308
 11
21.421196
 21
92.250381
  0
LINE
  8
0
  6
CONTINUOUS
 10
27.270796
 20
52.086666
 11
28.947195
 21
51.620987
  0
LINE
  8
0
  6
CONTINUOUS
 10
111.947197
 20
52.086666
 11
110.270798
 21
51.620987
  0
LINE
  8
0
  6
CONTINUOUS
 10
118.962593
 20
92.578316
 11
117.796799
 21
92.250381
  0
LINE
  8
0
  6
CONTINUOUS
 10
118.962593
 20
161.629349
 11
110.255394
 21
164.078308
  0
ARC
  8
0
  6
CONTINUOUS
 10
21.608995
 20
156.816101
 40
5.000000
 50
105.709000
 51
180.000000
  0
ARC
  8
0
  6
CONTINUOUS
 10
21.608995
 20
97.391602
 40
5.000000
 50
180.000000
 51
254.291702
  0
ARC
  8
0
  6
CONTINUOUS
 10
28.608995
 20
56.904289
 40
5.000000
 50
180.000000
 51
254.476196
  0
ARC
  8
0
  6
CONTINUOUS
 10
110.608994
 20
56.904247
 40
5.000000
 50
-74.475708
 51
0.000000
  0
ARC
  8
0
  6
CONTINUOUS
 10
117.608994
 20
97.391556
 40
5.000000
 50
-74.291199
 51
0.000000
  0
ARC
  8
0
  6
CONTINUOUS
 10
117.608994
 20
156.816071
 40
5.000000
 50
0.000000
 51
74.291527
  0
ARC
  8
0
  6
CONTINUOUS
 10
118.608994
 20
89.362450
 40
3.000000
 50
105.709000
 51
180.000000
  0
ARC
  8
0
  6
CONTINUOUS
 10
20.608995
 20
89.362419
 40
3.000000
 50
0.000000
 51
74.291397
  0
ARC
  8
0
  6
CONTINUOUS
 10
27.608995
 20
168.891571
 40
5.000000
 50
-74.291199
 51
0.000000
  0
ARC
  8
0
  6
CONTINUOUS
 10
111.608994
 20
168.891586
 40
5.000000
 50
180.000000
 51
254.291702
  0
ARC
  8
0
  6
CONTINUOUS
 10
111.608994
 20
46.803429
 40
5.000000
 50
105.524399
 51
180.000000
  0
ARC
  8
0
  6
CONTINUOUS
 10
27.608995
 20
46.803387
 40
5.000000
 50
0.000000
 51
74.475952
  0
LINE
  8
0
  6
CONTINUOUS
 10
97.108994
 20
7.103828
 11
96.108994
 21
8.103828
  0
LINE
  8
0
  6
CONTINUOUS
 10
42.108997
 20
7.103828
 11
43.108997
 21
8.103828
  0
LINE
  8
0
  6
CENTER
 10
-7.289754
 20
91.103821
 11
149.130249
 21
91.103821
  0
LINE
  8
0
  6
CONTINUOUS
 10
169.608994
 20
113.103828
 11
169.608994
 21
141.103821
  0
LINE
  8
0
  6
CONTINUOUS
 10
124.608994
 20
141.103821
 11
169.608994
 21
141.103821
  0
LINE
  8
0
  6
CONTINUOUS
 10
124.608994
 20
113.103828
 11
169.608994
 21
113.103828
  0
LINE
  8
0
  6
CONTINUOUS
 10
124.608994
 20
142.103821
 11
124.608994
 21
112.103828
  0
LINE
  8
0
  6
CONTINUOUS
 10
122.608994
 20
112.103828
 11
124.608994
 21
112.103828
  0
ARC
  8
0
  6
CONTINUOUS
 10
133.608994
 20
127.103828
 40
4.000000
 50
90.000000
 51
270.000000
  0
LINE
  8
0
  6
CONTINUOUS
 10
133.608994
 20
131.103821
 11
169.608994
 21
131.103821
  0
LINE
  8
0
  6
CONTINUOUS
 10
133.608994
 20
123.103828
 11
169.608994
 21
123.103828
  0
LINE
  8
0
  6
CONTINUOUS
 10
122.608994
 20
142.103821
 11
124.608994
 21
142.103821
  0
LINE
  8
0
  6
CONTINUOUS
 10
441.591492
 20
155.103928
 11
435.091492
 21
155.103928
  0
LINE
  8
0
  6
CONTINUOUS
 10
441.591492
 20
27.103729
 11
435.091492
 21
27.103729
  0
LINE
  8
0
  6
CONTINUOUS
 10
489.591492
 20
123.103828
 11
443.591492
 21
124.710182
  0
LINE
  8
0
  6
CONTINUOUS
 10
435.091492
 20
31.200645
 11
489.591492
 21
33.103828
  0
ARC
  8
0
  6
CONTINUOUS
 10
441.591461
 20
153.103943
 40
2.000000
 50
0.000000
 51
90.000000
  0
ARC
  8
0
  6
CONTINUOUS
 10
441.591492
 20
29.103729
 40
2.000000
 50
-90.000000
 51
-0.260773
  0
LINE
  8
0
  6
CENTER
 10
678.817505
 20
78.103828
 11
391.341492
 21
78.103828
  0
LINE
  8
0
  6
CONTINUOUS
 10
489.591492
 20
123.103828
 11
489.591492
 21
33.103828
  0
LINE
  8
0
  6
CONTINUOUS
 10
444.323730
 20
130.871597
 11
450.038239
 21
125.157082
  0
LINE
  8
0
  6
CONTINUOUS
 10
412.828125
 20
335.828796
 11
293.685425
 21
335.828796
  0
ARC
  8
0
  6
CONTINUOUS
 10
293.685425
 20
338.828796
 40
3.000000
 50
181.000000
 51
270.000000
  0
LINE
  8
0
  6
CONTINUOUS
 10
307.597229
 20
330.475067
 11
306.706787
 21
333.641052
  0
ARC
  8
0
  6
CONTINUOUS
 10
303.818848
 20
332.828796
 40
3.000000
 50
15.708648
 51
90.000000
  0
ARC
  8
0
  6
CONTINUOUS
 10
421.013885
 20
318.602234
 40
3.000000
 50
181.500198
 51
257.801208
  0
LINE
  8
0
  6
CONTINUOUS
 10
418.014893
 20
318.523682
 11
417.658905
 21
332.118469
  0
ARC
  8
0
  6
CONTINUOUS
 10
419.746094
 20
312.737701
 40
3.000000
 50
15.000100
 51
77.801201
  0
LINE
  8
0
  6
CENTER
 10
680.722473
 20
372.828796
 11
274.687622
 21
372.828796
  0
LINE
  8
0
  6
CONTINUOUS
 10
401.576630
 20
435.828796
 11
352.591492
 21
435.828796
  0
LINE
  8
0
  6
CONTINUOUS
 10
290.091492
 20
372.828796
 11
290.737335
 21
335.828796
  0
LINE
  8
0
  6
CONTINUOUS
 10
298.901581
 20
313.136139
 11
290.737335
 21
335.828796
  0
ARC
  8
0
  6
CONTINUOUS
 10
303.606384
 20
314.828796
 40
5.000000
 50
199.787491
 51
270.000000
  0
LINE
  8
0
  6
CONTINUOUS
 10
290.091492
 20
372.828796
 11
290.737335
 21
409.828796
  0
LINE
  8
0
  6
CONTINUOUS
 10
298.901581
 20
432.521454
 11
290.737335
 21
409.828796
  0
ARC
  8
0
  6
CONTINUOUS
 10
303.606384
 20
430.828796
 40
5.000000
 50
90.000000
 51
160.212509
  0
LINE
  8
0
  6
CONTINUOUS
 10
412.828125
 20
335.828796
 11
293.685425
 21
335.828796
  0
LINE
  8
0
  6
CENTER
 10
352.591492
 20
451.947510
 11
352.591492
 21
261.722595
  0
ARC
  8
0
  6
CONTINUOUS
 10
293.685425
 20
338.828796
 40
3.000000
 50
181.000000
 51
270.000000
  0
ARC
  8
0
  6
CONTINUOUS
 10
293.685425
 20
406.828796
 40
3.000000
 50
90.000000
 51
179.000000
  0
LINE
  8
0
  6
CONTINUOUS
 10
412.754883
 20
409.828796
 11
293.685425
 21
409.828796
  0
LINE
  8
0
  6
CONTINUOUS
 10
322.879242
 20
319.828796
 11
382.303741
 21
319.828796
  0
LINE
  8
0
  6
CONTINUOUS
 10
318.065979
 20
323.475067
 11
317.122742
 21
326.828796
  0
ARC
  8
0
  6
CONTINUOUS
 10
322.879242
 20
324.828796
 40
5.000000
 50
195.708633
 51
270.000000
  0
LINE
  8
0
  6
CONTINUOUS
 10
317.122742
 20
326.828796
 11
312.410492
 21
326.828796
  0
ARC
  8
0
  6
CONTINUOUS
 10
312.410492
 20
331.828796
 40
5.000000
 50
195.708633
 51
270.000000
  0
LINE
  8
0
  6
CONTINUOUS
 10
387.117004
 20
323.475067
 11
388.060242
 21
326.828796
  0
ARC
  8
0
  6
CONTINUOUS
 10
382.303741
 20
324.828796
 40
5.000000
 50
270.000000
 51
344.291351
  0
LINE
  8
0
  6
CONTINUOUS
 10
388.060242
 20
326.828796
 11
392.772491
 21
326.828796
  0
LINE
  8
0
  6
CONTINUOUS
 10
397.585754
 20
330.475067
 11
398.476196
 21
333.641052
  0
ARC
  8
0
  6
CONTINUOUS
 10
392.772491
 20
331.828796
 40
5.000000
 50
270.000000
 51
344.291351
  0
ARC
  8
0
  6
CONTINUOUS
 10
401.364136
 20
332.828796
 40
3.000000
 50
90.000000
 51
164.291367
  0
LINE
  8
0
  6
CONTINUOUS
 10
322.879242
 20
425.828796
 11
382.303741
 21
425.828796
  0
LINE
  8
0
  6
CONTINUOUS
 10
318.065979
 20
422.182526
 11
317.122742
 21
418.828796
  0
ARC
  8
0
  6
CONTINUOUS
 10
322.879242
 20
420.828796
 40
5.000000
 50
90.000000
 51
164.291367
  0
LINE
  8
0
  6
CONTINUOUS
 10
317.122742
 20
418.828796
 11
312.410492
 21
418.828796
  0
LINE
  8
0
  6
CONTINUOUS
 10
307.597229
 20
415.182526
 11
306.706787
 21
412.016571
  0
ARC
  8
0
  6
CONTINUOUS
 10
312.410492
 20
413.828796
 40
5.000000
 50
90.000000
 51
164.291367
  0
ARC
  8
0
  6
CONTINUOUS
 10
303.818848
 20
412.828796
 40
3.000000
 50
-90.000000
 51
-15.708638
  0
LINE
  8
0
  6
CONTINUOUS
 10
387.117004
 20
422.182526
 11
388.060242
 21
418.828796
  0
ARC
  8
0
  6
CONTINUOUS
 10
382.303741
 20
420.828796
 40
5.000000
 50
15.708638
 51
90.000000
  0
LINE
  8
0
  6
CONTINUOUS
 10
388.060242
 20
418.828796
 11
392.772491
 21
418.828796
  0
LINE
  8
0
  6
CONTINUOUS
 10
397.585754
 20
415.182526
 11
398.476196
 21
412.016571
  0
ARC
  8
0
  6
CONTINUOUS
 10
392.772491
 20
413.828796
 40
5.000000
 50
15.708638
 51
90.000000
  0
ARC
  8
0
  6
CONTINUOUS
 10
401.364136
 20
412.828796
 40
3.000000
 50
195.708633
 51
270.000000
  0
LINE
  8
0
  6
CONTINUOUS
 10
406.281403
 20
313.136139
 11
414.359253
 21
335.588593
  0
ARC
  8
0
  6
CONTINUOUS
 10
401.576630
 20
314.828796
 40
5.000000
 50
270.000000
 51
340.212524
  0
LINE
  8
0
  6
CONTINUOUS
 10
406.281403
 20
432.521454
 11
414.343384
 21
410.113037
  0
ARC
  8
0
  6
CONTINUOUS
 10
401.576630
 20
430.828796
 40
5.000000
 50
19.787489
 51
90.000000
  0
LINE
  8
0
  6
CONTINUOUS
 10
401.576630
 20
309.828796
 11
366.591492
 21
309.828796
  0
LINE
  8
0
  6
CENTER
 10
312.591492
 20
311.715515
 11
312.591492
 21
331.156921
  0
LINE
  8
0
  6
CENTER
 10
322.502380
 20
322.828796
 11
303.983826
 21
322.828796
  0
ARC
  8
0
  6
CONTINUOUS
 10
312.591492
 20
322.828796
 40
5.500000
 50
-239.465683
 51
7.598493
  0
ARC
  8
0
  6
CONTINUOUS
 10
392.591492
 20
322.828796
 40
5.500000
 50
-187.598602
 51
59.465683
  0
LINE
  8
0
  6
CENTER
 10
392.591492
 20
311.715515
 11
392.591492
 21
331.156921
  0
LINE
  8
0
  6
CENTER
 10
382.680603
 20
322.828796
 11
401.199158
 21
322.828796
  0
ARC
  8
0
  6
CONTINUOUS
 10
392.591492
 20
422.828796
 40
5.500000
 50
-59.465683
 51
187.598602
  0
LINE
  8
0
  6
CENTER
 10
382.680603
 20
422.828796
 11
401.199158
 21
422.828796
  0
LINE
  8
0
  6
CENTER
 10
392.591492
 20
433.942078
 11
392.591492
 21
414.500671
  0
LINE
  8
0
  6
CENTER
 10
312.591492
 20
433.942078
 11
312.591492
 21
414.500671
  0
LINE
  8
0
  6
CENTER
 10
322.502380
 20
422.828796
 11
303.983826
 21
422.828796
  0
ARC
  8
0
  6
CONTINUOUS
 10
312.591492
 20
422.828796
 40
5.500000
 50
-7.598608
 51
239.465683
  0
LINE
  8
0
  6
CONTINUOUS
 10
328.591492
 20
406.828796
 11
328.591492
 21
338.828796
  0
LINE
  8
0
  6
CONTINUOUS
 10
376.591492
 20
406.828796
 11
376.591492
 21
338.828796
  0
LINE
  8
0
  6
CONTINUOUS
 10
417.511200
 20
413.534698
 11
422.759827
 21
433.122894
  0
LINE
  8
0
  6
CONTINUOUS
 10
418.014893
 20
427.680847
 11
417.658905
 21
414.086029
  0
ARC
  8
0
  6
CONTINUOUS
 10
421.013885
 20
427.602234
 40
3.000000
 50
102.198799
 51
178.499802
  0
ARC
  8
0
  6
CONTINUOUS
 10
419.746094
 20
433.466827
 40
3.000000
 50
282.198792
 51
345.000031
  0
ARC
  8
0
  6
CONTINUOUS
 10
421.013885
 20
318.602234
 40
3.000000
 50
181.500198
 51
257.801208
  0
LINE
  8
0
  6
CONTINUOUS
 10
418.014893
 20
318.523682
 11
417.658905
 21
332.118469
  0
ARC
  8
0
  6
CONTINUOUS
 10
419.746094
 20
312.737701
 40
3.000000
 50
15.000100
 51
77.801201
  0
LINE
  8
0
  6
CONTINUOUS
 10
427.662689
 20
308.828796
 11
435.091492
 21
308.828796
  0
LINE
  8
0
  6
CONTINUOUS
 10
422.906342
 20
312.534729
 11
417.584503
 21
332.396301
  0
ARC
  8
0
  6
CONTINUOUS
 10
412.681580
 20
414.828796
 40
5.000000
 50
270.000000
 51
345.000031
  0
ARC
  8
0
  6
CONTINUOUS
 10
412.828125
 20
330.828796
 40
5.000000
 50
14.999843
 51
90.000000
  0
LINE
  8
0
  6
CONTINUOUS
 10
335.591492
 20
272.828796
 11
366.591492
 21
272.828796
  0
LINE
  8
0
  6
CONTINUOUS
 10
366.591492
 20
317.828796
 11
366.591492
 21
272.828796
  0
LINE
  8
0
  6
CONTINUOUS
 10
338.591492
 20
317.828796
 11
338.591492
 21
312.828796
  0
LINE
  8
0
  6
CONTINUOUS
 10
367.591492
 20
317.828796
 11
337.591492
 21
317.828796
  0
LINE
  8
0
  6
CONTINUOUS
 10
337.591492
 20
319.828796
 11
337.591492
 21
317.828796
  0
LINE
  8
0
  6
CONTINUOUS
 10
367.591492
 20
319.828796
 11
367.591492
 21
317.828796
  0
LINE
  8
0
  6
CONTINUOUS
 10
335.591492
 20
309.828796
 11
303.606384
 21
309.828796
  0
LINE
  8
0
  6
CONTINUOUS
 10
339.175079
 20
312.828796
 11
335.591492
 21
312.828796
  0
LINE
  8
0
  6
CONTINUOUS
 10
339.175079
 20
312.828796
 11
339.175079
 21
272.828796
  0
LINE
  8
0
  6
CONTINUOUS
 10
335.591492
 20
272.828796
 11
335.591492
 21
312.828796
  0
LINE
  8
0
  6
CONTINUOUS
 10
352.591492
 20
435.828796
 11
303.606384
 21
435.828796
  0
LINE
  8
0
  6
CONTINUOUS
 10
435.091492
 20
436.828796
 11
427.589447
 21
436.828796
  0
ARC
  8
0
  6
CONTINUOUS
 10
427.589447
 20
431.828796
 40
5.000000
 50
90.000000
 51
165.000031
  0
ARC
  8
0
  6
CONTINUOUS
 10
427.735962
 20
313.828796
 40
5.000000
 50
194.999847
 51
270.000000
  0
LINE
  8
0
  6
CONTINUOUS
 10
415.091492
 20
372.828796
 11
414.497101
 21
338.776428
  0
LINE
  8
0
  6
CONTINUOUS
 10
415.091492
 20
372.828796
 11
414.497101
 21
406.881165
  0
ARC
  8
0
  6
CONTINUOUS
 10
411.497559
 20
338.828796
 40
3.000000
 50
270.000000
 51
359.000000
  0
ARC
  8
0
  6
CONTINUOUS
 10
411.497559
 20
406.828796
 40
3.000000
 50
1.000000
 51
90.000000
  0
LINE
  8
0
  6
CONTINUOUS
 10
9.853606
 20
22.727802
 11
29.364384
 21
26.479864
  0
ARC
  8
0
  6
CONTINUOUS
 10
69.608994
 20
91.103828
 40
64.000099
 50
-54.681290
 51
20.105476
  0
ARC
  8
0
  6
CONTINUOUS
 10
69.608994
 20
91.103828
 40
64.000099
 50
145.906479
 51
234.681290
  0
ARC
  8
0
  6
CONTINUOUS
 10
10.608996
 20
18.103828
 40
4.000000
 50
90.000000
 51
180.000000
  0
ARC
  8
0
  6
CONTINUOUS
 10
10.608996
 20
18.799767
 40
4.000000
 50
100.885529
 51
180.000000
  0
ARC
  8
0
  6
CONTINUOUS
 10
28.608995
 20
30.407890
 40
4.000000
 50
-79.114502
 51
0.000000
  0
ARC
  8
0
  6
CONTINUOUS
 10
28.608995
 20
26.103828
 40
4.000000
 50
-90.000000
 51
0.000000
  0
LINE
  8
0
  6
CONTINUOUS
 10
129.364380
 20
22.727802
 11
109.853607
 21
26.479864
  0
ARC
  8
0
  6
CONTINUOUS
 10
128.608994
 20
18.103828
 40
4.000000
 50
0.000000
 51
90.000000
  0
ARC
  8
0
  6
CONTINUOUS
 10
128.608994
 20
18.799767
 40
4.000000
 50
0.000000
 51
79.114471
  0
ARC
  8
0
  6
CONTINUOUS
 10
110.608994
 20
30.407890
 40
4.000000
 50
180.000000
 51
259.114502
  0
ARC
  8
0
  6
CONTINUOUS
 10
110.608994
 20
26.103828
 40
4.000000
 50
180.000000
 51
270.000000
  0
LINE
  8
0
  6
CONTINUOUS
 10
435.091492
 20
308.828796
 11
435.091492
 21
436.828796
  0
LINE
  8
0
  6
CONTINUOUS
 10
489.591492
 20
57.597828
 11
445.591492
 21
57.597828
  0
LINE
  8
0
  6
CONTINUOUS
 10
489.591492
 20
42.584827
 11
435.091492
 21
42.584827
  0
LINE
  8
0
  6
CONTINUOUS
 10
443.023529
 20
50.536827
 11
435.091492
 21
50.536827
  0
LINE
  8
0
  6
CONTINUOUS
 10
443.591492
 20
51.751560
 11
443.591492
 21
153.103943
  0
ARC
  8
0
  6
CONTINUOUS
 10
446.091461
 20
29.083248
 40
2.500000
 50
92.000000
 51
179.739227
  0
ARC
  8
0
  6
CONTINUOUS
 10
446.091492
 20
132.639359
 40
2.500000
 50
180.000000
 51
225.000000
  0
ARC
  8
0
  6
CONTINUOUS
 10
451.806000
 20
126.924850
 40
2.500000
 50
-135.000000
 51
-92.000000
  0
LINE
  8
0
  6
CONTINUOUS
 10
443.591492
 20
434.828796
 11
443.591492
 21
310.828796
  0
LINE
  8
0
  6
CONTINUOUS
 10
489.591492
 20
327.828796
 11
446.027893
 21
326.307526
  0
LINE
  8
0
  6
CONTINUOUS
 10
489.591492
 20
417.828796
 11
446.027893
 21
419.350067
  0
LINE
  8
0
  6
CONTINUOUS
 10
489.591492
 20
323.816803
 11
489.591492
 21
421.840790
  0
LINE
  8
0
  6
CONTINUOUS
 10
441.591492
 20
308.828796
 11
435.091492
 21
308.828796
  0
LINE
  8
0
  6
CONTINUOUS
 10
441.591492
 20
436.828796
 11
435.091492
 21
436.828796
  0
LINE
  8
0
  6
CONTINUOUS
 10
450.734497
 20
348.828796
 11
443.619507
 21
348.828796
  0
LINE
  8
0
  6
CONTINUOUS
 10
450.129333
 20
396.828796
 11
443.619507
 21
396.828796
  0
LINE
  8
0
  6
CONTINUOUS
 10
450.734497
 20
351.033295
 11
450.734497
 21
394.745880
  0
LINE
  8
0
  6
CONTINUOUS
 10
498.591492
 20
329.828796
 11
498.591492
 21
343.828796
  0
LINE
  8
0
  6
CONTINUOUS
 10
608.591492
 20
327.828796
 11
489.591492
 21
327.828796
  0
LINE
  8
0
  6
CONTINUOUS
 10
608.591492
 20
417.828796
 11
489.591492
 21
417.828796
  0
LINE
  8
0
  6
CONTINUOUS
 10
608.591492
 20
343.828796
 11
498.591492
 21
343.828796
  0
LINE
  8
0
  6
CONTINUOUS
 10
608.591492
 20
401.828796
 11
498.591492
 21
401.828796
  0
ARC
  8
0
  6
CONTINUOUS
 10
496.591492
 20
329.828766
 40
2.000000
 50
-90.000000
 51
0.000000
  0
ARC
  8
0
  6
CONTINUOUS
 10
496.591492
 20
415.828796
 40
2.000000
 50
0.000000
 51
90.000000
  0
LINE
  8
0
  6
CONTINUOUS
 10
489.591492
 20
327.828796
 11
489.591492
 21
417.828796
  0
ARC
  8
0
  6
CONTINUOUS
 10
441.591492
 20
310.828796
 40
2.000000
 50
-90.000000
 51
0.000000
  0
ARC
  8
0
  6
CONTINUOUS
 10
441.591492
 20
434.828796
 40
2.000000
 50
0.000000
 51
90.000000
  0
ARC
  8
0
  6
CONTINUOUS
 10
446.115112
 20
323.809052
 40
2.500000
 50
92.000000
 51
179.895706
  0
ARC
  8
0
  6
CONTINUOUS
 10
446.115112
 20
421.848541
 40
2.500000
 50
180.104294
 51
268.000000
  0
LINE
  8
0
  6
CONTINUOUS
 10
443.591492
 20
326.222443
 11
443.619507
 21
326.223419
  0
LINE
  8
0
  6
CONTINUOUS
 10
489.091797
 20
323.299347
 11
443.591492
 21
321.710449
  0
LINE
  8
0
  6
CONTINUOUS
 10
489.591492
 20
323.816803
 11
489.091797
 21
323.299347
  0
LINE
  8
0
  6
CONTINUOUS
 10
489.091797
 20
422.358246
 11
443.591492
 21
423.947144
  0
LINE
  8
0
  6
CONTINUOUS
 10
489.591492
 20
421.840790
 11
489.091797
 21
422.358246
  0
LINE
  8
0
  6
CONTINUOUS
 10
290.091492
 20
152.475449
 11
290.091492
 21
7.103828
  0
LINE
  8
0
  6
CONTINUOUS
 10
415.091492
 20
7.103828
 11
290.091492
 21
7.103828
  0
LINE
  8
0
  6
CENTER
 10
399.249390
 20
127.103828
 11
302.839691
 21
127.103828
  0
LINE
  8
0
  6
CENTER
 10
352.591492
 20
198.603790
 11
352.591492
 21
-3.646172
  0
LINE
  8
0
  6
CONTINUOUS
 10
375.037109
 20
181.603790
 11
330.145905
 21
181.603790
  0
LINE
  8
0
  6
CONTINUOUS
 10
327.311096
 20
180.722488
 11
292.256683
 21
156.594070
  0
LINE
  8
0
  6
CONTINUOUS
 10
412.091492
 20
22.103828
 11
293.091492
 21
22.103828
  0
LINE
  8
0
  6
CONTINUOUS
 10
300.091492
 20
20.566330
 11
300.091492
 21
7.103828
  0
LINE
  8
0
  6
CONTINUOUS
 10
404.091492
 20
20.566330
 11
404.091492
 21
7.103828
  0
LINE
  8
0
  6
CENTER
 10
312.591492
 20
29.353828
 11
312.591492
 21
0.353828
  0
LINE
  8
0
  6
CENTER
 10
392.591492
 20
29.353828
 11
392.591492
 21
1.603828
  0
LINE
  8
0
  6
DASHED
 10
307.091492
 20
22.103828
 11
307.091492
 21
7.103828
  0
LINE
  8
0
  6
DASHED
 10
318.091492
 20
22.103828
 11
318.091492
 21
7.103828
  0
LINE
  8
0
  6
DASHED
 10
387.091492
 20
22.103828
 11
387.091492
 21
7.103828
  0
LINE
  8
0
  6
DASHED
 10
398.091492
 20
22.103828
 11
398.091492
 21
7.103828
  0
ARC
  8
0
  6
CONTINUOUS
 10
372.591492
 20
77.103828
 40
26.500000
 50
-90.000000
 51
9.470901
  0
ARC
  8
0
  6
CONTINUOUS
 10
332.591492
 20
77.103828
 40
26.500000
 50
170.529099
 51
270.000000
  0
LINE
  8
0
  6
CONTINUOUS
 10
398.730286
 20
81.464302
 11
390.073486
 21
133.356552
  0
LINE
  8
0
  6
CONTINUOUS
 10
315.109497
 20
133.356674
 11
306.452698
 21
81.464333
  0
LINE
  8
0
  6
CONTINUOUS
 10
372.591492
 20
50.603828
 11
332.591492
 21
50.603828
  0
ARC
  8
0
  6
CONTINUOUS
 10
295.091492
 20
152.475388
 40
5.000000
 50
124.539902
 51
180.000000
  0
ARC
  8
0
  6
CONTINUOUS
 10
330.145905
 20
176.603790
 40
5.000000
 50
90.000000
 51
124.539902
  0
ARC
  8
0
  6
CONTINUOUS
 10
375.003082
 20
176.603790
 40
5.000000
 50
88.961128
 51
90.000000
  0
LINE
  8
0
  6
CONTINUOUS
 10
415.091492
 20
7.103828
 11
415.091492
 21
39.503849
  0
ARC
  8
0
  6
CONTINUOUS
 10
372.591492
 20
77.103828
 40
24.000000
 50
-90.000000
 51
9.470790
  0
ARC
  8
0
  6
CONTINUOUS
 10
332.591492
 20
77.103828
 40
24.000000
 50
170.528992
 51
271.534393
  0
LINE
  8
0
  6
CONTINUOUS
 10
372.591492
 20
53.103828
 11
332.591492
 21
53.103828
  0
CIRCLE
  8
0
  6
CONTINUOUS
 10
352.591492
 20
127.103828
 40
33.500000
  0
ARC
  8
0
  6
CONTINUOUS
 10
352.591492
 20
127.103828
 40
38.000000
 50
9.471016
 51
170.529007
  0
ARC
  8
0
  6
CONTINUOUS
 10
352.591492
 20
127.103828
 40
35.500000
 50
-189.597305
 51
7.618591
  0
LINE
  8
0
  6
CONTINUOUS
 10
396.264282
 20
81.052925
 11
387.607697
 21
132.945221
  0
LINE
  8
0
  6
CONTINUOUS
 10
317.575500
 20
132.945267
 11
308.918701
 21
81.052979
  0
LINE
  8
0
  6
CONTINUOUS
 10
416.645844
 20
155.103928
 11
435.091492
 21
155.103928
  0
LINE
  8
0
  6
CONTINUOUS
 10
435.091492
 20
27.103729
 11
420.091492
 21
27.103729
  0
LINE
  8
0
  6
CONTINUOUS
 10
413.810944
 20
155.985275
 11
377.871887
 21
180.722443
  0
ARC
  8
0
  6
CONTINUOUS
 10
375.037109
 20
176.603790
 40
5.000000
 50
55.459671
 51
90.000000
  0
ARC
  8
0
  6
CONTINUOUS
 10
410.091492
 20
152.475433
 40
5.000000
 50
0.000000
 51
55.459560
  0
ARC
  8
0
  6
CONTINUOUS
 10
420.091492
 20
22.103712
 40
5.000000
 50
90.000000
 51
180.000000
  0
ARC
  8
0
  6
CONTINUOUS
 10
412.091492
 20
19.103849
 40
3.000000
 50
0.000000
 51
90.000000
  0
ARC
  8
0
  6
CONTINUOUS
 10
293.091492
 20
19.103828
 40
3.000000
 50
90.000000
 51
180.000000
  0
LINE
  8
0
  6
CONTINUOUS
 10
342.295105
 20
63.103828
 11
338.134705
 21
63.103828
  0
LINE
  8
0
  6
CONTINUOUS
 10
344.591492
 20
70.072571
 11
344.591492
 21
63.103828
  0
LINE
  8
0
  6
CONTINUOUS
 10
348.591492
 20
72.603828
 11
348.591492
 21
75.103828
  0
LINE
  8
0
  6
CONTINUOUS
 10
356.591492
 20
72.603828
 11
356.591492
 21
75.103828
  0
LINE
  8
0
  6
CONTINUOUS
 10
351.810303
 20
73.635078
 11
351.810303
 21
64.416328
  0
LINE
  8
0
  6
CONTINUOUS
 10
353.310303
 20
73.635078
 11
353.310303
 21
64.416328
  0
LINE
  8
0
  6
CONTINUOUS
 10
361.185303
 20
73.635078
 11
361.185303
 21
64.353828
  0
LINE
  8
0
  6
CONTINUOUS
 10
362.560303
 20
68.713211
 11
362.560303
 21
64.353828
  0
LINE
  8
0
  6
CONTINUOUS
 10
342.693481
 20
73.510078
 11
338.838501
 21
73.510078
  0
LINE
  8
0
  6
CONTINUOUS
 10
338.838501
 20
73.510078
 11
337.935303
 21
72.390083
  0
LINE
  8
0
  6
CONTINUOUS
 10
338.043884
 20
75.103828
 11
336.591492
 21
73.244064
  0
LINE
  8
0
  6
CONTINUOUS
 10
337.935303
 20
65.476746
 11
338.852905
 21
64.510071
  0
LINE
  8
0
  6
CONTINUOUS
 10
336.591492
 20
64.660988
 11
338.134705
 21
63.103828
  0
LINE
  8
0
  6
CONTINUOUS
 10
336.591492
 20
73.244064
 11
336.591492
 21
64.660988
  0
LINE
  8
0
  6
CONTINUOUS
 10
337.935303
 20
72.390083
 11
337.935303
 21
65.476746
  0
LINE
  8
0
  6
CONTINUOUS
 10
343.435303
 20
72.792969
 11
342.678284
 21
73.510078
  0
LINE
  8
0
  6
CONTINUOUS
 10
343.423309
 20
75.103828
 11
344.591492
 21
73.807335
  0
LINE
  8
0
  6
CONTINUOUS
 10
343.435303
 20
72.603828
 11
344.591492
 21
72.603828
  0
LINE
  8
0
  6
CONTINUOUS
 10
338.043884
 20
75.103828
 11
343.423309
 21
75.103828
  0
LINE
  8
0
  6
CONTINUOUS
 10
341.341492
 20
70.072571
 11
344.591492
 21
70.072571
  0
LINE
  8
0
  6
CONTINUOUS
 10
343.435303
 20
68.760071
 11
341.341492
 21
68.760071
  0
LINE
  8
0
  6
CONTINUOUS
 10
340.935303
 20
64.510071
 11
338.852905
 21
64.510071
  0
LINE
  8
0
  6
CONTINUOUS
 10
343.435303
 20
67.510071
 11
343.435303
 21
68.510071
  0
ARC
  8
0
  6
CONTINUOUS
 10
340.935303
 20
67.010071
 40
2.500000
 50
-89.999786
 51
0.000109
  0
LINE
  8
0
  6
CONTINUOUS
 10
343.435303
 20
64.060387
 11
343.435303
 21
63.103828
  0
LINE
  8
0
  6
CONTINUOUS
 10
344.591492
 20
73.807335
 11
344.591492
 21
72.603828
  0
LINE
  8
0
  6
CONTINUOUS
 10
343.435303
 20
68.760071
 11
343.435303
 21
67.010071
  0
LINE
  8
0
  6
CONTINUOUS
 10
341.341492
 20
70.072571
 11
341.341492
 21
68.760071
  0
LINE
  8
0
  6
CONTINUOUS
 10
343.435303
 20
63.103828
 11
344.591492
 21
63.103828
  0
LINE
  8
0
  6
CONTINUOUS
 10
343.435303
 20
64.060387
 11
342.295105
 21
63.103828
  0
LINE
  8
0
  6
CONTINUOUS
 10
353.310303
 20
64.416328
 11
353.810303
 21
64.416328
  0
LINE
  8
0
  6
CONTINUOUS
 10
351.216492
 20
64.416328
 11
351.216492
 21
63.103828
  0
LINE
  8
0
  6
CONTINUOUS
 10
353.810303
 20
64.416328
 11
353.810303
 21
63.103828
  0
LINE
  8
0
  6
CONTINUOUS
 10
355.757111
 20
72.603828
 11
356.591492
 21
72.603828
  0
LINE
  8
0
  6
CONTINUOUS
 10
348.591492
 20
72.603828
 11
349.479492
 21
72.603828
  0
LINE
  8
0
  6
CONTINUOUS
 10
348.591492
 20
75.103828
 11
356.591492
 21
75.103828
  0
LINE
  8
0
  6
CONTINUOUS
 10
351.216492
 20
63.103828
 11
353.810303
 21
63.103828
  0
LINE
  8
0
  6
CONTINUOUS
 10
351.216492
 20
64.416328
 11
351.810303
 21
64.416328
  0
ARC
  8
0
  6
CONTINUOUS
 10
365.388489
 20
71.900703
 40
3.203128
 50
-73.981873
 51
90.003510
  0
ARC
  8
0
  6
CONTINUOUS
 10
365.388489
 20
71.900703
 40
1.954124
 50
-82.585274
 51
62.411850
  0
LINE
  8
0
  6
CONTINUOUS
 10
360.591492
 20
75.103828
 11
365.388489
 21
75.103828
  0
LINE
  8
0
  6
CONTINUOUS
 10
365.640503
 20
69.962906
 11
362.560303
 21
69.962906
  0
LINE
  8
0
  6
CONTINUOUS
 10
360.591492
 20
75.103828
 11
360.591492
 21
73.635078
  0
LINE
  8
0
  6
CONTINUOUS
 10
362.560303
 20
73.635078
 11
362.560303
 21
69.962906
  0
LINE
  8
0
  6
CONTINUOUS
 10
366.272308
 20
68.821945
 11
368.254883
 21
64.353828
  0
LINE
  8
0
  6
CONTINUOUS
 10
365.120697
 20
68.713211
 11
366.996887
 21
64.353828
  0
LINE
  8
0
  6
CONTINUOUS
 10
360.591492
 20
64.353828
 11
361.185303
 21
64.353828
  0
LINE
  8
0
  6
CONTINUOUS
 10
362.560303
 20
64.353828
 11
363.107086
 21
64.353828
  0
LINE
  8
0
  6
CONTINUOUS
 10
363.107086
 20
63.103828
 11
360.591492
 21
63.103828
  0
LINE
  8
0
  6
CONTINUOUS
 10
366.747711
 20
64.353828
 11
366.996887
 21
64.353828
  0
LINE
  8
0
  6
CONTINUOUS
 10
368.254883
 20
64.353828
 11
368.591492
 21
64.353828
  0
LINE
  8
0
  6
CONTINUOUS
 10
366.747711
 20
63.103828
 11
368.591492
 21
63.103828
  0
LINE
  8
0
  6
CONTINUOUS
 10
368.591492
 20
64.353828
 11
368.591492
 21
63.103828
  0
LINE
  8
0
  6
CONTINUOUS
 10
366.747711
 20
64.353828
 11
366.747711
 21
63.103828
  0
LINE
  8
0
  6
CONTINUOUS
 10
363.107086
 20
64.353828
 11
363.107086
 21
63.103828
  0
LINE
  8
0
  6
CONTINUOUS
 10
360.591492
 20
64.353828
 11
360.591492
 21
63.103828
  0
LINE
  8
0
  6
CONTINUOUS
 10
349.909302
 20
73.635078
 11
349.479492
 21
72.603828
  0
LINE
  8
0
  6
CONTINUOUS
 10
355.394684
 20
73.635078
 11
355.757111
 21
72.603828
  0
LINE
  8
0
  6
CONTINUOUS
 10
353.310303
 20
73.635078
 11
355.394684
 21
73.635078
  0
LINE
  8
0
  6
CONTINUOUS
 10
351.810303
 20
73.635078
 11
349.909302
 21
73.635078
  0
LINE
  8
0
  6
CONTINUOUS
 10
362.560303
 20
68.713211
 11
365.120697
 21
68.713211
  0
LINE
  8
0
  6
CONTINUOUS
 10
360.591492
 20
73.635078
 11
361.185303
 21
73.635078
  0
LINE
  8
0
  6
CONTINUOUS
 10
362.560303
 20
73.635078
 11
366.293304
 21
73.632652
  0
LINE
  8
0
  6
CONTINUOUS
 10
343.435303
 20
72.792969
 11
343.435303
 21
72.603828
  0
ARC
  8
0
  6
CONTINUOUS
 10
352.591492
 20
105.103828
 40
73.000000
 50
47.590931
 51
132.409302
  0
ARC
  8
0
  6
CONTINUOUS
 10
352.591492
 20
105.103828
 40
73.000000
 50
227.591095
 51
312.409393
  0
LINE
  8
0
  6
CONTINUOUS
 10
411.591492
 20
136.852844
 11
411.591492
 21
73.354813
  0
LINE
  8
0
  6
CONTINUOUS
 10
293.591492
 20
136.852844
 11
293.591492
 21
73.354813
  0
ARC
  8
0
  6
CONTINUOUS
 10
381.591492
 20
136.852844
 40
30.000000
 50
0.000000
 51
47.590950
  0
ARC
  8
0
  6
CONTINUOUS
 10
381.591492
 20
73.354813
 40
30.000000
 50
-47.590061
 51
0.000000
  0
ARC
  8
0
  6
CONTINUOUS
 10
323.591492
 20
136.852844
 40
30.000000
 50
132.409500
 51
180.000000
  0
ARC
  8
0
  6
CONTINUOUS
 10
323.591492
 20
73.354813
 40
30.000000
 50
180.000000
 51
227.591400
  0
LINE
  8
0
  6
CONTINUOUS
 10
342.591492
 20
131.103821
 11
342.591492
 21
123.103828
  0
LINE
  8
0
  6
CONTINUOUS
 10
335.591492
 20
131.103821
 11
335.591492
 21
123.103828
  0
LINE
  8
0
  6
CONTINUOUS
 10
335.591492
 20
131.103821
 11
342.591492
 21
131.103821
  0
LINE
  8
0
  6
CONTINUOUS
 10
335.591492
 20
123.103828
 11
342.591492
 21
123.103828
  0
ARC
  8
0
  6
CONTINUOUS
 10
352.591492
 20
127.103828
 40
14.000000
 50
-163.398499
 51
163.398499
  0
LINE
  8
0
  6
CONTINUOUS
 10
332.591492
 20
26.734602
 11
332.591492
 21
22.103828
  0
LINE
  8
0
  6
CONTINUOUS
 10
334.033386
 20
27.103828
 11
371.149628
 21
27.103828
  0
LINE
  8
0
  6
CONTINUOUS
 10
331.690765
 20
25.977901
 11
329.492279
 21
23.229753
  0
ARC
  8
0
  6
CONTINUOUS
 10
327.149658
 20
25.103828
 40
3.000000
 50
270.000000
 51
321.340454
  0
ARC
  8
0
  6
CONTINUOUS
 10
334.033386
 20
24.103828
 40
3.000000
 50
90.000000
 51
141.340454
  0
LINE
  8
0
  6
CONTINUOUS
 10
372.591492
 20
26.734602
 11
372.591492
 21
22.103828
  0
LINE
  8
0
  6
CONTINUOUS
 10
373.492218
 20
25.977901
 11
375.690735
 21
23.229753
  0
ARC
  8
0
  6
CONTINUOUS
 10
378.033356
 20
25.103828
 40
3.000000
 50
-141.340454
 51
-90.000000
  0
ARC
  8
0
  6
CONTINUOUS
 10
371.149628
 20
24.103828
 40
3.000000
 50
38.659546
 51
90.000000
  0
LINE
  8
0
  6
CONTINUOUS
 10
416.591492
 20
142.703827
 11
416.591492
 21
39.503849
  0
LINE
  8
0
  6
CONTINUOUS
 10
416.591492
 20
142.703827
 11
415.091492
 21
142.703827
  0
LINE
  8
0
  6
CONTINUOUS
 10
416.591492
 20
39.503849
 11
415.091492
 21
39.503849
  0
ARC
  8
0
  6
CONTINUOUS
 10
232.638290
 20
91.103828
 40
191.053177
 50
-15.669100
 51
15.669100
  0
ARC
  8
0
  6
CONTINUOUS
 10
232.638290
 20
91.103828
 40
190.053177
 50
-1.478500
 51
1.451400
  0
LINE
  8
0
  6
CONTINUOUS
 10
420.591492
 20
96.103828
 11
421.596283
 21
96.103828
  0
LINE
  8
0
  6
CONTINUOUS
 10
418.091492
 20
93.603828
 11
418.091492
 21
88.603828
  0
ARC
  8
0
  6
CONTINUOUS
 10
421.596283
 20
97.102226
 40
1.000000
 50
-90.000000
 51
1.817900
  0
ARC
  8
0
  6
CONTINUOUS
 10
420.591492
 20
93.603828
 40
2.500000
 50
90.000000
 51
180.000000
  0
LINE
  8
0
  6
CONTINUOUS
 10
420.591492
 20
86.103828
 11
421.596283
 21
86.103828
  0
ARC
  8
0
  6
CONTINUOUS
 10
421.596283
 20
85.105431
 40
1.000000
 50
-1.817900
 51
90.000000
  0
ARC
  8
0
  6
CONTINUOUS
 10
420.591492
 20
88.603828
 40
2.500000
 50
180.000000
 51
270.000000
  0
LINE
  8
0
  6
CONTINUOUS
 10
415.091492
 20
142.703827
 11
415.091492
 21
152.475403
  0
ARC
  8
0
  6
CONTINUOUS
 10
416.645844
 20
160.103928
 40
5.000000
 50
235.460007
 51
270.000000
  0
LINE
  8
0
  6
CONTINUOUS
 10
618.091492
 20
327.828796
 11
608.591492
 21
327.828796
  0
LINE
  8
0
  6
CONTINUOUS
 10
608.591492
 20
343.828796
 11
618.091492
 21
343.828796
  0
LINE
  8
0
  6
CONTINUOUS
 10
618.091492
 20
417.828796
 11
608.591492
 21
417.828796
  0
LINE
  8
0
  6
CONTINUOUS
 10
608.591492
 20
417.828796
 11
608.591492
 21
379.694824
  0
LINE
  8
0
  6
CONTINUOUS
 10
608.591492
 20
401.828796
 11
618.091492
 21
401.828796
  0
LINE
  8
0
  6
CONTINUOUS
 10
615.091492
 20
378.828796
 11
615.091492
 21
366.828796
  0
LINE
  8
0
  6
CONTINUOUS
 10
608.091492
 20
378.828796
 11
608.091492
 21
366.828796
  0
LINE
  8
0
  6
CONTINUOUS
 10
614.091492
 20
365.828796
 11
609.091492
 21
365.828796
  0
LINE
  8
0
  6
CONTINUOUS
 10
609.091492
 20
379.828796
 11
614.091492
 21
379.828796
  0
ARC
  8
0
  6
CONTINUOUS
 10
609.091492
 20
366.828796
 40
1.000000
 50
180.000000
 51
270.000000
  0
ARC
  8
0
  6
CONTINUOUS
 10
614.091492
 20
366.828796
 40
1.000000
 50
-90.000000
 51
0.000000
  0
ARC
  8
0
  6
CONTINUOUS
 10
614.091492
 20
378.828796
 40
1.000000
 50
0.000000
 51
90.000000
  0
ARC
  8
0
  6
CONTINUOUS
 10
609.091492
 20
378.828796
 40
1.000000
 50
90.000000
 51
180.000000
  0
LINE
  8
0
  6
CONTINUOUS
 10
610.591492
 20
376.328796
 11
610.591492
 21
369.328796
  0
LINE
  8
0
  6
CONTINUOUS
 10
612.591492
 20
376.328796
 11
612.591492
 21
369.328796
  0
ARC
  8
0
  6
CONTINUOUS
 10
611.591492
 20
369.328796
 40
1.000000
 50
-90.000000
 51
0.000000
  0
ARC
  8
0
  6
CONTINUOUS
 10
611.591492
 20
369.328796
 40
1.000000
 50
180.000000
 51
270.000000
  0
ARC
  8
0
  6
CONTINUOUS
 10
611.591492
 20
376.328796
 40
1.000000
 50
0.000000
 51
90.000000
  0
ARC
  8
0
  6
CONTINUOUS
 10
611.591492
 20
376.328796
 40
1.000000
 50
90.000000
 51
180.000000
  0
LINE
  8
0
  6
CONTINUOUS
 10
608.591492
 20
365.962769
 11
608.591492
 21
327.828796
  0
LINE
  8
0
  6
CONTINUOUS
 10
618.091492
 20
325.828796
 11
618.091492
 21
419.828796
  0
LINE
  8
0
  6
CONTINUOUS
 10
618.091492
 20
343.828796
 11
662.066528
 21
343.828796
  0
LINE
  8
0
  6
CONTINUOUS
 10
618.091492
 20
401.828796
 11
662.066528
 21
401.828796
  0
LINE
  8
0
  6
CONTINUOUS
 10
660.591492
 20
325.828796
 11
618.091492
 21
325.828796
  0
LINE
  8
0
  6
CONTINUOUS
 10
660.591492
 20
419.828796
 11
618.091492
 21
419.828796
  0
ARC
  8
0
  6
CONTINUOUS
 10
660.591492
 20
330.828796
 40
5.000000
 50
-90.000000
 51
0.000000
  0
ARC
  8
0
  6
CONTINUOUS
 10
660.591492
 20
414.828796
 40
5.000000
 50
0.000000
 51
90.000000
  0
LINE
  8
0
  6
CONTINUOUS
 10
665.591492
 20
330.828796
 11
665.591492
 21
414.828796
  0
LINE
  8
0
  6
CONTINUOUS
 10
618.091492
 20
123.103828
 11
608.591492
 21
123.103828
  0
LINE
  8
0
  6
CONTINUOUS
 10
608.591492
 20
112.513130
 11
618.091492
 21
112.513130
  0
LINE
  8
0
  6
CONTINUOUS
 10
618.091492
 20
33.103828
 11
608.591492
 21
33.103828
  0
LINE
  8
0
  6
CONTINUOUS
 10
608.591492
 20
43.694538
 11
618.091492
 21
43.694538
  0
LINE
  8
0
  6
CONTINUOUS
 10
618.091492
 20
125.103828
 11
618.091492
 21
31.103828
  0
LINE
  8
0
  6
CONTINUOUS
 10
618.091492
 20
107.103828
 11
662.066528
 21
107.103828
  0
LINE
  8
0
  6
CONTINUOUS
 10
618.091492
 20
49.103828
 11
662.066528
 21
49.103828
  0
LINE
  8
0
  6
CONTINUOUS
 10
608.091492
 20
124.603828
 11
608.091492
 21
123.103828
  0
LINE
  8
0
  6
CONTINUOUS
 10
615.091492
 20
124.603828
 11
615.091492
 21
123.103828
  0
LINE
  8
0
  6
CONTINUOUS
 10
615.091492
 20
124.603828
 11
608.091492
 21
124.603828
  0
LINE
  8
0
  6
CONTINUOUS
 10
610.691528
 20
137.603821
 11
610.691528
 21
124.603828
  0
LINE
  8
0
  6
CONTINUOUS
 10
612.491516
 20
138.228821
 11
612.491516
 21
124.603828
  0
LINE
  8
0
  6
CONTINUOUS
 10
614.291504
 20
136.166321
 11
614.291504
 21
124.603828
  0
LINE
  8
0
  6
CONTINUOUS
 10
608.891479
 20
136.978821
 11
608.891479
 21
124.603828
  0
LINE
  8
0
  6
CONTINUOUS
 10
612.491516
 20
138.228821
 11
610.691528
 21
137.603821
  0
LINE
  8
0
  6
CONTINUOUS
 10
614.291504
 20
136.166321
 11
612.491516
 21
136.791321
  0
LINE
  8
0
  6
CONTINUOUS
 10
608.891479
 20
136.978821
 11
610.690491
 21
136.531128
  0
LINE
  8
0
  6
CONTINUOUS
 10
660.591492
 20
125.103828
 11
618.091492
 21
125.103828
  0
LINE
  8
0
  6
CONTINUOUS
 10
660.591492
 20
31.103828
 11
618.091492
 21
31.103828
  0
ARC
  8
0
  6
CONTINUOUS
 10
660.591492
 20
120.103828
 40
5.000000
 50
0.000000
 51
90.000000
  0
ARC
  8
0
  6
CONTINUOUS
 10
660.591492
 20
36.103828
 40
5.000000
 50
-90.000000
 51
0.000000
  0
LINE
  8
0
  6
CONTINUOUS
 10
665.591492
 20
120.103828
 11
665.591492
 21
36.103817
  0
LINE
  8
0
  6
CONTINUOUS
 10
608.591492
 20
33.103828
 11
608.591492
 21
123.103828
  0
ARC
  8
0
  6
CONTINUOUS
 10
618.091492
 20
412.098633
 40
4.500000
 50
180.000000
 51
270.000000
  0
ARC
  8
0
  6
CONTINUOUS
 10
618.091492
 20
412.098633
 40
3.000000
 50
180.000000
 51
270.000000
  0
ARC
  8
0
  6
CONTINUOUS
 10
618.091492
 20
412.098633
 40
1.500000
 50
180.000000
 51
270.000000
  0
LINE
  8
0
  6
CONTINUOUS
 10
616.591492
 20
412.098633
 11
616.591492
 21
417.114258
  0
LINE
  8
0
  6
CONTINUOUS
 10
615.091492
 20
412.098633
 11
615.091492
 21
416.598633
  0
LINE
  8
0
  6
CONTINUOUS
 10
613.591492
 20
412.098633
 11
613.591492
 21
416.598633
  0
LINE
  8
0
  6
CONTINUOUS
 10
616.591492
 20
417.098633
 11
615.091492
 21
416.598633
  0
LINE
  8
0
  6
CONTINUOUS
 10
615.091492
 20
416.098633
 11
613.591492
 21
416.598633
  0
LINE
  8
0
  6
CONTINUOUS
 10
498.591492
 20
401.828796
 11
498.591492
 21
415.828827
  0
TEXT
  8
0
 10
-7.000000
 20
-10.000000
 40
4.000000
 41
1.000000
  1
HLMN-28L-600~900-S40W
 50
0.000000
  0
ENDSEC
  0
EOF
