  0
SECTION
  2
HEADER
  9
$CLAYER
  8
1
  9
$LTSCALE
 40
3.0
  0
ENDSEC
  0
SECTION
  2
TABLES
  0
TABLE
  2
LTYPE
 70
     4
  0
LTYPE
  2
CONTINUOUS
  3
solid line
 70
    64
 72
    65
 73
     0
 40
0.0
  0
LTYPE
  2
DASHED
  3
__ __ __ __ __ __ __ __ __ __ __ __ __ __ __
 70
    64
 72
    65
 73
     2
 40
0.75
 49
0.5
 49
-0.25
  0
LTYPE
  2
CENTER
  3
____ _ ____ _ ____ _ ____ _ ____ _ ____ _ ____
 70
    64
 72
    65
 73
     4
 40
2.0
 49
1.25
 49
-0.25
 49
0.25
 49
-0.25
  0
LTYPE
  2
PHANTOM
  3
_____ _ _ _____ _ _ _____ _ _ _____ _ _ ____
 70
    64
 72
    65
 73
     6
 40
2.5
 49
1.25
 49
-0.25
 49
0.25
 49
-0.25
 49
0.25
 49
-0.25
  0
ENDTAB
  0
TABLE
  2
LAYER
 70
     1
  0
LAYER
  2
0
 70
    64
 62
     7
  6
CONTINUOUS
  0
ENDTAB
  0
TABLE
  2
STYLE
 70
     1
  0
STYLE
  2
STANDARD
 70
     0
 40
0.000000
 41
1.000000
 50
0.000000
 71
     0
 42
3.000000
  3
txt
  4
BIGFONT
  0
ENDTAB
  0
ENDSEC
  0
SECTION
  2
BLOCKS
  0
ENDSEC
  0
SECTION
  2
ENTITIES
  0
LINE
  8
0
  6
CONTINUOUS
 10
501.032745
 20
123.540703
 11
501.032745
 21
37.540684
  0
LINE
  8
0
  6
CONTINUOUS
 10
611.032776
 20
125.540703
 11
492.032745
 21
125.540703
  0
LINE
  8
0
  6
CONTINUOUS
 10
611.032776
 20
35.540703
 11
492.032745
 21
35.540703
  0
LINE
  8
0
  6
CONTINUOUS
 10
611.032776
 20
114.950005
 11
502.070435
 21
114.950005
  0
LINE
  8
0
  6
CONTINUOUS
 10
611.032776
 20
46.131405
 11
502.070435
 21
46.131405
  0
ARC
  8
0
  6
CONTINUOUS
 10
499.032745
 20
123.540726
 40
2.000000
 50
0.000000
 51
90.000000
  0
ARC
  8
0
  6
CONTINUOUS
 10
499.032745
 20
37.540703
 40
2.000000
 50
-90.000000
 51
0.000000
  0
LINE
  8
0
  6
CENTER
 10
519.008423
 20
93.540703
 11
393.782745
 21
93.540703
  0
LINE
  8
0
  6
CONTINUOUS
 10
437.532745
 20
93.540703
 11
437.532745
 21
29.540606
  0
LINE
  8
0
  6
CONTINUOUS
 10
437.532745
 20
93.540703
 11
437.532745
 21
157.540802
  0
LINE
  8
0
  6
CONTINUOUS
 10
117.050247
 20
40.540703
 11
117.050247
 21
44.519424
  0
LINE
  8
0
  6
CONTINUOUS
 10
27.050245
 20
40.540703
 11
27.050245
 21
44.519363
  0
LINE
  8
0
  6
CONTINUOUS
 10
32.050247
 20
35.540703
 11
35.050247
 21
35.540703
  0
LINE
  8
0
  6
CONTINUOUS
 10
112.050247
 20
35.540703
 11
109.050247
 21
35.540703
  0
ARC
  8
0
  6
CONTINUOUS
 10
32.050247
 20
40.540703
 40
5.000000
 50
180.000000
 51
270.000000
  0
ARC
  8
0
  6
CONTINUOUS
 10
112.050247
 20
40.540703
 40
5.000000
 50
-90.000000
 51
0.000000
  0
ARC
  8
0
  6
CONTINUOUS
 10
113.062645
 20
52.528744
 40
8.000000
 50
306.780975
 51
358.958740
  0
ARC
  8
0
  6
CONTINUOUS
 10
31.038046
 20
52.528484
 40
8.000000
 50
181.041107
 51
233.216995
  0
ARC
  8
0
  6
CONTINUOUS
 10
119.050247
 20
44.519444
 40
2.000000
 50
126.781197
 51
180.000000
  0
ARC
  8
0
  6
CONTINUOUS
 10
25.050245
 20
44.519363
 40
2.000000
 50
0.000000
 51
53.217121
  0
LINE
  8
0
  6
CENTER
 10
72.050247
 20
-7.788137
 11
72.050247
 21
205.460022
  0
LINE
  8
0
  6
CENTER
 10
1.741496
 20
129.540710
 11
189.087250
 21
129.540710
  0
LINE
  8
0
  6
CONTINUOUS
 10
9.050246
 20
9.540703
 11
44.550247
 21
9.540703
  0
LINE
  8
0
  6
CONTINUOUS
 10
13.050246
 20
24.540703
 11
31.050245
 21
24.540703
  0
LINE
  8
0
  6
CONTINUOUS
 10
131.050247
 20
24.540703
 11
113.050247
 21
24.540703
  0
LINE
  8
0
  6
CONTINUOUS
 10
36.550247
 20
157.540710
 11
107.300247
 21
157.540710
  0
LINE
  8
0
  6
CONTINUOUS
 10
106.102646
 20
183.446579
 11
72.050247
 21
184.040710
  0
LINE
  8
0
  6
CONTINUOUS
 10
37.997845
 20
183.446182
 11
72.050247
 21
184.040710
  0
LINE
  8
0
  6
CONTINUOUS
 10
109.050247
 20
180.447037
 11
109.050247
 21
9.540683
  0
LINE
  8
0
  6
CONTINUOUS
 10
35.050247
 20
180.446640
 11
35.050247
 21
9.540703
  0
LINE
  8
0
  6
CONTINUOUS
 10
19.050245
 20
99.828438
 11
19.050245
 21
159.252945
  0
LINE
  8
0
  6
CONTINUOUS
 10
125.050247
 20
159.252960
 11
125.050247
 21
99.828438
  0
LINE
  8
0
  6
CONTINUOUS
 10
26.050245
 20
59.341122
 11
26.050245
 21
132.040710
  0
LINE
  8
0
  6
CONTINUOUS
 10
118.050247
 20
59.341122
 11
118.050247
 21
132.040710
  0
LINE
  8
0
  6
CONTINUOUS
 10
135.050247
 20
21.236641
 11
135.050247
 21
9.540703
  0
LINE
  8
0
  6
CONTINUOUS
 10
9.050246
 20
21.236641
 11
9.050246
 21
9.540703
  0
LINE
  8
0
  6
CENTER
 10
22.050245
 20
32.540703
 11
22.050245
 21
-1.812697
  0
LINE
  8
0
  6
CENTER
 10
122.050247
 20
33.040703
 11
122.050247
 21
-1.812697
  0
LINE
  8
0
  6
DASHED
 10
16.550245
 20
24.540703
 11
16.550245
 21
9.540703
  0
LINE
  8
0
  6
DASHED
 10
27.550245
 20
24.540703
 11
27.550245
 21
9.540703
  0
LINE
  8
0
  6
DASHED
 10
116.550247
 20
24.540703
 11
116.550247
 21
9.540703
  0
LINE
  8
0
  6
DASHED
 10
127.550247
 20
24.540703
 11
127.550247
 21
9.540703
  0
ARC
  8
0
  6
CONTINUOUS
 10
38.050247
 20
180.446671
 40
3.000000
 50
91.000526
 51
180.000000
  0
ARC
  8
0
  6
CONTINUOUS
 10
106.050247
 20
180.447021
 40
3.000000
 50
0.000000
 51
89.000580
  0
LINE
  8
0
  6
CONTINUOUS
 10
99.550247
 20
9.540703
 11
135.050247
 21
9.540703
  0
LINE
  8
0
  6
CONTINUOUS
 10
45.550247
 20
10.540703
 11
98.550247
 21
10.540703
  0
LINE
  8
0
  6
CONTINUOUS
 10
22.696445
 20
164.066223
 11
31.403847
 21
166.515182
  0
LINE
  8
0
  6
CONTINUOUS
 10
22.696445
 20
95.015182
 11
23.862446
 21
94.687256
  0
LINE
  8
0
  6
CONTINUOUS
 10
29.712046
 20
54.523544
 11
31.388447
 21
54.057861
  0
LINE
  8
0
  6
CONTINUOUS
 10
114.388443
 20
54.523544
 11
112.712044
 21
54.057861
  0
LINE
  8
0
  6
CONTINUOUS
 10
121.403847
 20
95.015190
 11
120.238045
 21
94.687256
  0
LINE
  8
0
  6
CONTINUOUS
 10
121.403847
 20
164.066223
 11
112.696648
 21
166.515182
  0
ARC
  8
0
  6
CONTINUOUS
 10
24.050245
 20
159.252975
 40
5.000000
 50
105.709000
 51
180.000000
  0
ARC
  8
0
  6
CONTINUOUS
 10
24.050245
 20
99.828476
 40
5.000000
 50
180.000000
 51
254.291702
  0
ARC
  8
0
  6
CONTINUOUS
 10
31.050245
 20
59.341164
 40
5.000000
 50
180.000000
 51
254.476196
  0
ARC
  8
0
  6
CONTINUOUS
 10
113.050247
 20
59.341122
 40
5.000000
 50
-74.475708
 51
0.000000
  0
ARC
  8
0
  6
CONTINUOUS
 10
120.050247
 20
99.828430
 40
5.000000
 50
-74.291199
 51
0.000000
  0
ARC
  8
0
  6
CONTINUOUS
 10
120.050247
 20
159.252945
 40
5.000000
 50
0.000000
 51
74.291527
  0
ARC
  8
0
  6
CONTINUOUS
 10
121.050247
 20
91.799324
 40
3.000000
 50
105.709000
 51
180.000000
  0
ARC
  8
0
  6
CONTINUOUS
 10
23.050245
 20
91.799294
 40
3.000000
 50
0.000000
 51
74.291397
  0
ARC
  8
0
  6
CONTINUOUS
 10
30.050245
 20
171.328445
 40
5.000000
 50
-74.291199
 51
0.000000
  0
ARC
  8
0
  6
CONTINUOUS
 10
114.050247
 20
171.328461
 40
5.000000
 50
180.000000
 51
254.291702
  0
ARC
  8
0
  6
CONTINUOUS
 10
114.050247
 20
49.240303
 40
5.000000
 50
105.524399
 51
180.000000
  0
ARC
  8
0
  6
CONTINUOUS
 10
30.050245
 20
49.240265
 40
5.000000
 50
0.000000
 51
74.475952
  0
LINE
  8
0
  6
CONTINUOUS
 10
99.550247
 20
9.540703
 11
98.550247
 21
10.540703
  0
LINE
  8
0
  6
CONTINUOUS
 10
44.550247
 20
9.540703
 11
45.550247
 21
10.540703
  0
LINE
  8
0
  6
CENTER
 10
-4.848504
 20
93.540695
 11
151.571503
 21
93.540695
  0
LINE
  8
0
  6
CONTINUOUS
 10
172.050247
 20
115.540703
 11
172.050247
 21
143.540710
  0
LINE
  8
0
  6
CONTINUOUS
 10
127.050247
 20
143.540710
 11
172.050247
 21
143.540710
  0
LINE
  8
0
  6
CONTINUOUS
 10
127.050247
 20
115.540703
 11
172.050247
 21
115.540703
  0
LINE
  8
0
  6
CONTINUOUS
 10
127.050247
 20
144.540710
 11
127.050247
 21
114.540703
  0
LINE
  8
0
  6
CONTINUOUS
 10
125.050247
 20
114.540703
 11
127.050247
 21
114.540703
  0
ARC
  8
0
  6
CONTINUOUS
 10
136.050247
 20
129.540710
 40
4.000000
 50
90.000000
 51
270.000000
  0
LINE
  8
0
  6
CONTINUOUS
 10
136.050247
 20
133.540710
 11
172.050247
 21
133.540710
  0
LINE
  8
0
  6
CONTINUOUS
 10
136.050247
 20
125.540703
 11
172.050247
 21
125.540703
  0
LINE
  8
0
  6
CONTINUOUS
 10
125.050247
 20
144.540710
 11
127.050247
 21
144.540710
  0
LINE
  8
0
  6
CONTINUOUS
 10
444.032745
 20
157.540802
 11
437.532745
 21
157.540802
  0
LINE
  8
0
  6
CONTINUOUS
 10
444.032745
 20
29.540606
 11
437.532745
 21
29.540606
  0
LINE
  8
0
  6
CONTINUOUS
 10
492.032745
 20
125.540703
 11
446.032745
 21
127.147057
  0
LINE
  8
0
  6
CONTINUOUS
 10
437.532745
 20
33.637520
 11
492.032745
 21
35.540703
  0
ARC
  8
0
  6
CONTINUOUS
 10
444.032715
 20
155.540833
 40
2.000000
 50
0.000000
 51
90.000000
  0
ARC
  8
0
  6
CONTINUOUS
 10
444.032745
 20
31.540606
 40
2.000000
 50
-90.000000
 51
-0.260773
  0
LINE
  8
0
  6
CENTER
 10
681.258728
 20
80.540703
 11
393.782745
 21
80.540703
  0
LINE
  8
0
  6
CONTINUOUS
 10
492.032745
 20
125.540703
 11
492.032745
 21
35.540703
  0
LINE
  8
0
  6
CONTINUOUS
 10
446.764984
 20
133.308472
 11
452.479492
 21
127.593956
  0
LINE
  8
0
  6
CONTINUOUS
 10
415.269379
 20
338.265686
 11
296.126678
 21
338.265686
  0
ARC
  8
0
  6
CONTINUOUS
 10
296.126678
 20
341.265686
 40
3.000000
 50
181.000000
 51
270.000000
  0
LINE
  8
0
  6
CONTINUOUS
 10
310.038483
 20
332.911957
 11
309.148041
 21
336.077911
  0
ARC
  8
0
  6
CONTINUOUS
 10
306.260101
 20
335.265686
 40
3.000000
 50
15.708648
 51
90.000000
  0
ARC
  8
0
  6
CONTINUOUS
 10
423.455139
 20
321.039124
 40
3.000000
 50
181.500198
 51
257.801208
  0
LINE
  8
0
  6
CONTINUOUS
 10
420.456146
 20
320.960541
 11
420.100159
 21
334.555328
  0
ARC
  8
0
  6
CONTINUOUS
 10
422.187347
 20
315.174561
 40
3.000000
 50
15.000100
 51
77.801201
  0
LINE
  8
0
  6
CENTER
 10
683.163757
 20
375.265686
 11
277.128876
 21
375.265686
  0
LINE
  8
0
  6
CONTINUOUS
 10
404.017883
 20
438.265686
 11
355.032745
 21
438.265686
  0
LINE
  8
0
  6
CONTINUOUS
 10
292.532745
 20
375.265686
 11
293.178589
 21
338.265686
  0
LINE
  8
0
  6
CONTINUOUS
 10
301.342834
 20
315.573029
 11
293.178589
 21
338.265686
  0
ARC
  8
0
  6
CONTINUOUS
 10
306.047607
 20
317.265686
 40
5.000000
 50
199.787491
 51
270.000000
  0
LINE
  8
0
  6
CONTINUOUS
 10
292.532745
 20
375.265686
 11
293.178589
 21
412.265686
  0
LINE
  8
0
  6
CONTINUOUS
 10
301.342834
 20
434.958344
 11
293.178589
 21
412.265686
  0
ARC
  8
0
  6
CONTINUOUS
 10
306.047607
 20
433.265686
 40
5.000000
 50
90.000000
 51
160.212509
  0
LINE
  8
0
  6
CONTINUOUS
 10
415.269379
 20
338.265686
 11
296.126678
 21
338.265686
  0
LINE
  8
0
  6
CENTER
 10
355.032745
 20
454.384369
 11
355.032745
 21
264.159485
  0
ARC
  8
0
  6
CONTINUOUS
 10
296.126678
 20
341.265686
 40
3.000000
 50
181.000000
 51
270.000000
  0
ARC
  8
0
  6
CONTINUOUS
 10
296.126678
 20
409.265686
 40
3.000000
 50
90.000000
 51
179.000000
  0
LINE
  8
0
  6
CONTINUOUS
 10
415.196136
 20
412.265686
 11
296.126678
 21
412.265686
  0
LINE
  8
0
  6
CONTINUOUS
 10
325.320496
 20
322.265686
 11
384.744995
 21
322.265686
  0
LINE
  8
0
  6
CONTINUOUS
 10
320.507233
 20
325.911957
 11
319.563995
 21
329.265686
  0
ARC
  8
0
  6
CONTINUOUS
 10
325.320496
 20
327.265686
 40
5.000000
 50
195.708633
 51
270.000000
  0
LINE
  8
0
  6
CONTINUOUS
 10
319.563995
 20
329.265686
 11
314.851746
 21
329.265686
  0
ARC
  8
0
  6
CONTINUOUS
 10
314.851746
 20
334.265686
 40
5.000000
 50
195.708633
 51
270.000000
  0
LINE
  8
0
  6
CONTINUOUS
 10
389.558258
 20
325.911957
 11
390.501495
 21
329.265686
  0
ARC
  8
0
  6
CONTINUOUS
 10
384.744995
 20
327.265686
 40
5.000000
 50
270.000000
 51
344.291351
  0
LINE
  8
0
  6
CONTINUOUS
 10
390.501495
 20
329.265686
 11
395.213745
 21
329.265686
  0
LINE
  8
0
  6
CONTINUOUS
 10
400.027008
 20
332.911957
 11
400.917450
 21
336.077911
  0
ARC
  8
0
  6
CONTINUOUS
 10
395.213745
 20
334.265686
 40
5.000000
 50
270.000000
 51
344.291351
  0
ARC
  8
0
  6
CONTINUOUS
 10
403.805389
 20
335.265686
 40
3.000000
 50
90.000000
 51
164.291367
  0
LINE
  8
0
  6
CONTINUOUS
 10
325.320496
 20
428.265686
 11
384.744995
 21
428.265686
  0
LINE
  8
0
  6
CONTINUOUS
 10
320.507233
 20
424.619415
 11
319.563995
 21
421.265686
  0
ARC
  8
0
  6
CONTINUOUS
 10
325.320496
 20
423.265686
 40
5.000000
 50
90.000000
 51
164.291367
  0
LINE
  8
0
  6
CONTINUOUS
 10
319.563995
 20
421.265686
 11
314.851746
 21
421.265686
  0
LINE
  8
0
  6
CONTINUOUS
 10
310.038483
 20
417.619415
 11
309.148041
 21
414.453430
  0
ARC
  8
0
  6
CONTINUOUS
 10
314.851746
 20
416.265686
 40
5.000000
 50
90.000000
 51
164.291367
  0
ARC
  8
0
  6
CONTINUOUS
 10
306.260101
 20
415.265686
 40
3.000000
 50
-90.000000
 51
-15.708638
  0
LINE
  8
0
  6
CONTINUOUS
 10
389.558258
 20
424.619415
 11
390.501495
 21
421.265686
  0
ARC
  8
0
  6
CONTINUOUS
 10
384.744995
 20
423.265686
 40
5.000000
 50
15.708638
 51
90.000000
  0
LINE
  8
0
  6
CONTINUOUS
 10
390.501495
 20
421.265686
 11
395.213745
 21
421.265686
  0
LINE
  8
0
  6
CONTINUOUS
 10
400.027008
 20
417.619415
 11
400.917450
 21
414.453430
  0
ARC
  8
0
  6
CONTINUOUS
 10
395.213745
 20
416.265686
 40
5.000000
 50
15.708638
 51
90.000000
  0
ARC
  8
0
  6
CONTINUOUS
 10
403.805389
 20
415.265686
 40
3.000000
 50
195.708633
 51
270.000000
  0
LINE
  8
0
  6
CONTINUOUS
 10
408.722656
 20
315.573029
 11
416.800476
 21
338.025482
  0
ARC
  8
0
  6
CONTINUOUS
 10
404.017883
 20
317.265686
 40
5.000000
 50
270.000000
 51
340.212524
  0
LINE
  8
0
  6
CONTINUOUS
 10
408.722656
 20
434.958344
 11
416.784637
 21
412.549927
  0
ARC
  8
0
  6
CONTINUOUS
 10
404.017883
 20
433.265686
 40
5.000000
 50
19.787489
 51
90.000000
  0
LINE
  8
0
  6
CONTINUOUS
 10
404.017883
 20
312.265686
 11
369.032745
 21
312.265686
  0
LINE
  8
0
  6
CENTER
 10
315.032745
 20
314.152405
 11
315.032745
 21
333.593811
  0
LINE
  8
0
  6
CENTER
 10
324.943634
 20
325.265686
 11
306.425079
 21
325.265686
  0
ARC
  8
0
  6
CONTINUOUS
 10
315.032745
 20
325.265686
 40
5.500000
 50
-239.465683
 51
7.598493
  0
ARC
  8
0
  6
CONTINUOUS
 10
395.032745
 20
325.265686
 40
5.500000
 50
-187.598602
 51
59.465683
  0
LINE
  8
0
  6
CENTER
 10
395.032745
 20
314.152405
 11
395.032745
 21
333.593811
  0
LINE
  8
0
  6
CENTER
 10
385.121857
 20
325.265686
 11
403.640411
 21
325.265686
  0
ARC
  8
0
  6
CONTINUOUS
 10
395.032745
 20
425.265686
 40
5.500000
 50
-59.465683
 51
187.598602
  0
LINE
  8
0
  6
CENTER
 10
385.121857
 20
425.265686
 11
403.640411
 21
425.265686
  0
LINE
  8
0
  6
CENTER
 10
395.032745
 20
436.378967
 11
395.032745
 21
416.937561
  0
LINE
  8
0
  6
CENTER
 10
315.032745
 20
436.378967
 11
315.032745
 21
416.937561
  0
LINE
  8
0
  6
CENTER
 10
324.943634
 20
425.265686
 11
306.425079
 21
425.265686
  0
ARC
  8
0
  6
CONTINUOUS
 10
315.032745
 20
425.265686
 40
5.500000
 50
-7.598608
 51
239.465683
  0
LINE
  8
0
  6
CONTINUOUS
 10
331.032745
 20
409.265686
 11
331.032745
 21
341.265686
  0
LINE
  8
0
  6
CONTINUOUS
 10
379.032745
 20
409.265686
 11
379.032745
 21
341.265686
  0
LINE
  8
0
  6
CONTINUOUS
 10
419.952454
 20
415.971588
 11
425.201080
 21
435.559784
  0
LINE
  8
0
  6
CONTINUOUS
 10
420.456146
 20
430.117706
 11
420.100159
 21
416.522919
  0
ARC
  8
0
  6
CONTINUOUS
 10
423.455139
 20
430.039124
 40
3.000000
 50
102.198799
 51
178.499802
  0
ARC
  8
0
  6
CONTINUOUS
 10
422.187347
 20
435.903717
 40
3.000000
 50
282.198792
 51
345.000031
  0
ARC
  8
0
  6
CONTINUOUS
 10
423.455139
 20
321.039124
 40
3.000000
 50
181.500198
 51
257.801208
  0
LINE
  8
0
  6
CONTINUOUS
 10
420.456146
 20
320.960541
 11
420.100159
 21
334.555328
  0
ARC
  8
0
  6
CONTINUOUS
 10
422.187347
 20
315.174561
 40
3.000000
 50
15.000100
 51
77.801201
  0
LINE
  8
0
  6
CONTINUOUS
 10
430.103943
 20
311.265686
 11
437.532745
 21
311.265686
  0
LINE
  8
0
  6
CONTINUOUS
 10
425.347595
 20
314.971588
 11
420.025757
 21
334.833160
  0
ARC
  8
0
  6
CONTINUOUS
 10
415.122833
 20
417.265686
 40
5.000000
 50
270.000000
 51
345.000031
  0
ARC
  8
0
  6
CONTINUOUS
 10
415.269379
 20
333.265686
 40
5.000000
 50
14.999843
 51
90.000000
  0
LINE
  8
0
  6
CONTINUOUS
 10
338.032745
 20
275.265686
 11
369.032745
 21
275.265686
  0
LINE
  8
0
  6
CONTINUOUS
 10
369.032745
 20
320.265686
 11
369.032745
 21
275.265686
  0
LINE
  8
0
  6
CONTINUOUS
 10
341.032745
 20
320.265686
 11
341.032745
 21
315.265686
  0
LINE
  8
0
  6
CONTINUOUS
 10
370.032745
 20
320.265686
 11
340.032745
 21
320.265686
  0
LINE
  8
0
  6
CONTINUOUS
 10
340.032745
 20
322.265686
 11
340.032745
 21
320.265686
  0
LINE
  8
0
  6
CONTINUOUS
 10
370.032745
 20
322.265686
 11
370.032745
 21
320.265686
  0
LINE
  8
0
  6
CONTINUOUS
 10
338.032745
 20
312.265686
 11
306.047607
 21
312.265686
  0
LINE
  8
0
  6
CONTINUOUS
 10
341.616333
 20
315.265686
 11
338.032745
 21
315.265686
  0
LINE
  8
0
  6
CONTINUOUS
 10
341.616333
 20
315.265686
 11
341.616333
 21
275.265686
  0
LINE
  8
0
  6
CONTINUOUS
 10
338.032745
 20
275.265686
 11
338.032745
 21
315.265686
  0
LINE
  8
0
  6
CONTINUOUS
 10
355.032745
 20
438.265686
 11
306.047607
 21
438.265686
  0
LINE
  8
0
  6
CONTINUOUS
 10
437.532745
 20
439.265686
 11
430.030701
 21
439.265686
  0
ARC
  8
0
  6
CONTINUOUS
 10
430.030701
 20
434.265686
 40
5.000000
 50
90.000000
 51
165.000031
  0
ARC
  8
0
  6
CONTINUOUS
 10
430.177216
 20
316.265686
 40
5.000000
 50
194.999847
 51
270.000000
  0
LINE
  8
0
  6
CONTINUOUS
 10
417.532745
 20
375.265686
 11
416.938354
 21
341.213318
  0
LINE
  8
0
  6
CONTINUOUS
 10
417.532745
 20
375.265686
 11
416.938354
 21
409.318024
  0
ARC
  8
0
  6
CONTINUOUS
 10
413.938812
 20
341.265686
 40
3.000000
 50
270.000000
 51
359.000000
  0
ARC
  8
0
  6
CONTINUOUS
 10
413.938812
 20
409.265686
 40
3.000000
 50
1.000000
 51
90.000000
  0
LINE
  8
0
  6
CONTINUOUS
 10
12.294856
 20
25.164679
 11
31.805634
 21
28.916740
  0
ARC
  8
0
  6
CONTINUOUS
 10
72.050247
 20
93.540703
 40
64.000099
 50
-54.681290
 51
20.105476
  0
ARC
  8
0
  6
CONTINUOUS
 10
72.050247
 20
93.540703
 40
64.000099
 50
145.906479
 51
234.681290
  0
ARC
  8
0
  6
CONTINUOUS
 10
13.050246
 20
20.540703
 40
4.000000
 50
90.000000
 51
180.000000
  0
ARC
  8
0
  6
CONTINUOUS
 10
13.050246
 20
21.236641
 40
4.000000
 50
100.885529
 51
180.000000
  0
ARC
  8
0
  6
CONTINUOUS
 10
31.050245
 20
32.844765
 40
4.000000
 50
-79.114502
 51
0.000000
  0
ARC
  8
0
  6
CONTINUOUS
 10
31.050245
 20
28.540703
 40
4.000000
 50
-90.000000
 51
0.000000
  0
LINE
  8
0
  6
CONTINUOUS
 10
131.805634
 20
25.164679
 11
112.294861
 21
28.916740
  0
ARC
  8
0
  6
CONTINUOUS
 10
131.050247
 20
20.540703
 40
4.000000
 50
0.000000
 51
90.000000
  0
ARC
  8
0
  6
CONTINUOUS
 10
131.050247
 20
21.236641
 40
4.000000
 50
0.000000
 51
79.114471
  0
ARC
  8
0
  6
CONTINUOUS
 10
113.050247
 20
32.844765
 40
4.000000
 50
180.000000
 51
259.114502
  0
ARC
  8
0
  6
CONTINUOUS
 10
113.050247
 20
28.540703
 40
4.000000
 50
180.000000
 51
270.000000
  0
LINE
  8
0
  6
CONTINUOUS
 10
437.532745
 20
311.265686
 11
437.532745
 21
439.265686
  0
LINE
  8
0
  6
CONTINUOUS
 10
492.032745
 20
60.034702
 11
448.032745
 21
60.034702
  0
LINE
  8
0
  6
CONTINUOUS
 10
492.032745
 20
45.021702
 11
437.532745
 21
45.021706
  0
LINE
  8
0
  6
CONTINUOUS
 10
445.464783
 20
52.973701
 11
437.532745
 21
52.973701
  0
LINE
  8
0
  6
CONTINUOUS
 10
446.032745
 20
54.188438
 11
446.032745
 21
155.540833
  0
ARC
  8
0
  6
CONTINUOUS
 10
448.532684
 20
31.520124
 40
2.500000
 50
92.000000
 51
179.739227
  0
ARC
  8
0
  6
CONTINUOUS
 10
448.532745
 20
135.076233
 40
2.500000
 50
180.000000
 51
225.000000
  0
ARC
  8
0
  6
CONTINUOUS
 10
454.247253
 20
129.361725
 40
2.500000
 50
-135.000000
 51
-92.000000
  0
LINE
  8
0
  6
CONTINUOUS
 10
446.032745
 20
437.265686
 11
446.032745
 21
313.265686
  0
LINE
  8
0
  6
CONTINUOUS
 10
492.032745
 20
330.265686
 11
448.469116
 21
328.744385
  0
LINE
  8
0
  6
CONTINUOUS
 10
492.032745
 20
420.265686
 11
448.469116
 21
421.786957
  0
LINE
  8
0
  6
CONTINUOUS
 10
492.032745
 20
326.253662
 11
492.032745
 21
424.277679
  0
LINE
  8
0
  6
CONTINUOUS
 10
444.032745
 20
311.265686
 11
437.532745
 21
311.265686
  0
LINE
  8
0
  6
CONTINUOUS
 10
444.032745
 20
439.265686
 11
437.532745
 21
439.265686
  0
LINE
  8
0
  6
CONTINUOUS
 10
453.175751
 20
351.265686
 11
446.060760
 21
351.265686
  0
LINE
  8
0
  6
CONTINUOUS
 10
452.570587
 20
399.265686
 11
446.060760
 21
399.265686
  0
LINE
  8
0
  6
CONTINUOUS
 10
453.175751
 20
353.470184
 11
453.175751
 21
397.182770
  0
LINE
  8
0
  6
CONTINUOUS
 10
501.032745
 20
332.265686
 11
501.032745
 21
346.265686
  0
LINE
  8
0
  6
CONTINUOUS
 10
611.032776
 20
330.265686
 11
492.032745
 21
330.265686
  0
LINE
  8
0
  6
CONTINUOUS
 10
611.032776
 20
420.265686
 11
492.032745
 21
420.265686
  0
LINE
  8
0
  6
CONTINUOUS
 10
558.032776
 20
346.265686
 11
501.032745
 21
346.265686
  0
LINE
  8
0
  6
CONTINUOUS
 10
558.032776
 20
404.265686
 11
501.032745
 21
404.265686
  0
ARC
  8
0
  6
CONTINUOUS
 10
499.032745
 20
332.265656
 40
2.000000
 50
-90.000000
 51
0.000000
  0
ARC
  8
0
  6
CONTINUOUS
 10
499.032745
 20
418.265686
 40
2.000000
 50
0.000000
 51
90.000000
  0
LINE
  8
0
  6
CONTINUOUS
 10
492.032745
 20
330.265686
 11
492.032745
 21
420.265686
  0
ARC
  8
0
  6
CONTINUOUS
 10
444.032745
 20
313.265686
 40
2.000000
 50
-90.000000
 51
0.000000
  0
ARC
  8
0
  6
CONTINUOUS
 10
444.032745
 20
437.265686
 40
2.000000
 50
0.000000
 51
90.000000
  0
ARC
  8
0
  6
CONTINUOUS
 10
448.556366
 20
326.245911
 40
2.500000
 50
92.000000
 51
179.895706
  0
ARC
  8
0
  6
CONTINUOUS
 10
448.556366
 20
424.285431
 40
2.500000
 50
180.104294
 51
268.000000
  0
LINE
  8
0
  6
CONTINUOUS
 10
446.032745
 20
328.659332
 11
446.060760
 21
328.660309
  0
LINE
  8
0
  6
CONTINUOUS
 10
491.533051
 20
325.736237
 11
446.032745
 21
324.147308
  0
LINE
  8
0
  6
CONTINUOUS
 10
492.032745
 20
326.253662
 11
491.533051
 21
325.736237
  0
LINE
  8
0
  6
CONTINUOUS
 10
491.533051
 20
424.795135
 11
446.032745
 21
426.384033
  0
LINE
  8
0
  6
CONTINUOUS
 10
492.032745
 20
424.277679
 11
491.533051
 21
424.795135
  0
LINE
  8
0
  6
CONTINUOUS
 10
292.532745
 20
154.912323
 11
292.532745
 21
9.540703
  0
LINE
  8
0
  6
CONTINUOUS
 10
417.532745
 20
9.540703
 11
292.532745
 21
9.540703
  0
LINE
  8
0
  6
CENTER
 10
397.965088
 20
129.540710
 11
312.992737
 21
129.540710
  0
LINE
  8
0
  6
CENTER
 10
355.032745
 20
201.040665
 11
355.032745
 21
-1.209297
  0
LINE
  8
0
  6
CONTINUOUS
 10
377.478333
 20
184.040665
 11
332.587158
 21
184.040665
  0
LINE
  8
0
  6
CONTINUOUS
 10
329.752350
 20
183.159363
 11
294.697937
 21
159.030945
  0
LINE
  8
0
  6
CONTINUOUS
 10
414.532745
 20
24.540703
 11
295.532745
 21
24.540703
  0
LINE
  8
0
  6
CONTINUOUS
 10
302.532745
 20
23.003204
 11
302.532745
 21
9.540703
  0
LINE
  8
0
  6
CONTINUOUS
 10
406.532745
 20
23.003204
 11
406.532745
 21
9.540703
  0
LINE
  8
0
  6
CENTER
 10
315.032745
 20
31.790703
 11
315.032745
 21
2.790703
  0
LINE
  8
0
  6
CENTER
 10
395.032745
 20
31.790703
 11
395.032745
 21
4.040703
  0
LINE
  8
0
  6
DASHED
 10
309.532745
 20
24.540703
 11
309.532745
 21
9.540703
  0
LINE
  8
0
  6
DASHED
 10
320.532745
 20
24.540703
 11
320.532745
 21
9.540703
  0
LINE
  8
0
  6
DASHED
 10
389.532745
 20
24.540703
 11
389.532745
 21
9.540703
  0
LINE
  8
0
  6
DASHED
 10
400.532745
 20
24.540703
 11
400.532745
 21
9.540703
  0
ARC
  8
0
  6
CONTINUOUS
 10
375.032745
 20
79.540703
 40
26.500000
 50
-90.000000
 51
9.470901
  0
ARC
  8
0
  6
CONTINUOUS
 10
335.032745
 20
79.540703
 40
26.500000
 50
170.529099
 51
270.000000
  0
LINE
  8
0
  6
CONTINUOUS
 10
401.171539
 20
83.901176
 11
392.514740
 21
135.793427
  0
LINE
  8
0
  6
CONTINUOUS
 10
317.550751
 20
135.793549
 11
308.893951
 21
83.901207
  0
LINE
  8
0
  6
CONTINUOUS
 10
375.032745
 20
53.040703
 11
335.032745
 21
53.040703
  0
ARC
  8
0
  6
CONTINUOUS
 10
297.532745
 20
154.912262
 40
5.000000
 50
124.539902
 51
180.000000
  0
ARC
  8
0
  6
CONTINUOUS
 10
332.587158
 20
179.040665
 40
5.000000
 50
90.000000
 51
124.539902
  0
ARC
  8
0
  6
CONTINUOUS
 10
377.444336
 20
179.040665
 40
5.000000
 50
88.961128
 51
90.000000
  0
LINE
  8
0
  6
CONTINUOUS
 10
417.532745
 20
9.540703
 11
417.532745
 21
41.940723
  0
ARC
  8
0
  6
CONTINUOUS
 10
375.032745
 20
79.540703
 40
24.000000
 50
-90.000000
 51
9.470790
  0
ARC
  8
0
  6
CONTINUOUS
 10
335.032745
 20
79.540703
 40
24.000000
 50
170.528992
 51
271.534393
  0
LINE
  8
0
  6
CONTINUOUS
 10
375.032745
 20
55.540703
 11
335.032745
 21
55.540703
  0
CIRCLE
  8
0
  6
CONTINUOUS
 10
355.032745
 20
129.540710
 40
33.500000
  0
ARC
  8
0
  6
CONTINUOUS
 10
355.032745
 20
129.540710
 40
38.000000
 50
9.471016
 51
170.529007
  0
ARC
  8
0
  6
CONTINUOUS
 10
355.032745
 20
129.540710
 40
35.500000
 50
-189.597305
 51
7.618591
  0
LINE
  8
0
  6
CONTINUOUS
 10
398.705536
 20
83.489799
 11
390.048950
 21
135.382111
  0
LINE
  8
0
  6
CONTINUOUS
 10
320.016754
 20
135.382141
 11
311.359955
 21
83.489853
  0
LINE
  8
0
  6
CONTINUOUS
 10
419.087097
 20
157.540802
 11
437.532745
 21
157.540802
  0
LINE
  8
0
  6
CONTINUOUS
 10
437.532745
 20
29.540606
 11
422.532745
 21
29.540606
  0
LINE
  8
0
  6
CONTINUOUS
 10
416.252197
 20
158.422150
 11
380.313141
 21
183.159332
  0
ARC
  8
0
  6
CONTINUOUS
 10
377.478333
 20
179.040665
 40
5.000000
 50
55.459671
 51
90.000000
  0
ARC
  8
0
  6
CONTINUOUS
 10
412.532745
 20
154.912308
 40
5.000000
 50
0.000000
 51
55.459560
  0
ARC
  8
0
  6
CONTINUOUS
 10
422.532745
 20
24.540586
 40
5.000000
 50
90.000000
 51
180.000000
  0
ARC
  8
0
  6
CONTINUOUS
 10
414.532745
 20
21.540726
 40
3.000000
 50
0.000000
 51
90.000000
  0
ARC
  8
0
  6
CONTINUOUS
 10
295.532745
 20
21.540703
 40
3.000000
 50
90.000000
 51
180.000000
  0
LINE
  8
0
  6
CONTINUOUS
 10
344.736359
 20
65.540703
 11
340.575958
 21
65.540703
  0
LINE
  8
0
  6
CONTINUOUS
 10
347.032745
 20
72.509445
 11
347.032745
 21
65.540703
  0
LINE
  8
0
  6
CONTINUOUS
 10
351.032745
 20
75.040703
 11
351.032745
 21
77.540703
  0
LINE
  8
0
  6
CONTINUOUS
 10
359.032745
 20
75.040703
 11
359.032745
 21
77.540703
  0
LINE
  8
0
  6
CONTINUOUS
 10
354.251556
 20
76.071953
 11
354.251556
 21
66.853203
  0
LINE
  8
0
  6
CONTINUOUS
 10
355.751556
 20
76.071953
 11
355.751556
 21
66.853203
  0
LINE
  8
0
  6
CONTINUOUS
 10
363.626556
 20
76.071953
 11
363.626556
 21
66.790703
  0
LINE
  8
0
  6
CONTINUOUS
 10
365.001556
 20
71.150085
 11
365.001556
 21
66.790703
  0
LINE
  8
0
  6
CONTINUOUS
 10
345.134735
 20
75.946953
 11
341.279755
 21
75.946953
  0
LINE
  8
0
  6
CONTINUOUS
 10
341.279755
 20
75.946953
 11
340.376556
 21
74.826958
  0
LINE
  8
0
  6
CONTINUOUS
 10
340.485138
 20
77.540703
 11
339.032745
 21
75.680946
  0
LINE
  8
0
  6
CONTINUOUS
 10
340.376556
 20
67.913620
 11
341.294159
 21
66.946945
  0
LINE
  8
0
  6
CONTINUOUS
 10
339.032745
 20
67.097862
 11
340.575958
 21
65.540703
  0
LINE
  8
0
  6
CONTINUOUS
 10
339.032745
 20
75.680946
 11
339.032745
 21
67.097862
  0
LINE
  8
0
  6
CONTINUOUS
 10
340.376556
 20
74.826958
 11
340.376556
 21
67.913620
  0
LINE
  8
0
  6
CONTINUOUS
 10
345.876556
 20
75.229851
 11
345.119537
 21
75.946953
  0
LINE
  8
0
  6
CONTINUOUS
 10
345.864532
 20
77.540703
 11
347.032745
 21
76.244209
  0
LINE
  8
0
  6
CONTINUOUS
 10
345.876556
 20
75.040703
 11
347.032745
 21
75.040703
  0
LINE
  8
0
  6
CONTINUOUS
 10
340.485138
 20
77.540703
 11
345.864532
 21
77.540703
  0
LINE
  8
0
  6
CONTINUOUS
 10
343.782745
 20
72.509445
 11
347.032745
 21
72.509445
  0
LINE
  8
0
  6
CONTINUOUS
 10
345.876556
 20
71.196945
 11
343.782745
 21
71.196945
  0
LINE
  8
0
  6
CONTINUOUS
 10
343.376556
 20
66.946945
 11
341.294159
 21
66.946945
  0
LINE
  8
0
  6
CONTINUOUS
 10
345.876556
 20
69.946945
 11
345.876556
 21
70.946945
  0
ARC
  8
0
  6
CONTINUOUS
 10
343.376556
 20
69.446945
 40
2.500000
 50
-89.999786
 51
0.000109
  0
LINE
  8
0
  6
CONTINUOUS
 10
345.876556
 20
66.497261
 11
345.876556
 21
65.540703
  0
LINE
  8
0
  6
CONTINUOUS
 10
347.032745
 20
76.244209
 11
347.032745
 21
75.040703
  0
LINE
  8
0
  6
CONTINUOUS
 10
345.876556
 20
71.196945
 11
345.876556
 21
69.446945
  0
LINE
  8
0
  6
CONTINUOUS
 10
343.782745
 20
72.509445
 11
343.782745
 21
71.196945
  0
LINE
  8
0
  6
CONTINUOUS
 10
345.876556
 20
65.540703
 11
347.032745
 21
65.540703
  0
LINE
  8
0
  6
CONTINUOUS
 10
345.876556
 20
66.497261
 11
344.736359
 21
65.540703
  0
LINE
  8
0
  6
CONTINUOUS
 10
355.751556
 20
66.853203
 11
356.251556
 21
66.853203
  0
LINE
  8
0
  6
CONTINUOUS
 10
353.657745
 20
66.853203
 11
353.657745
 21
65.540703
  0
LINE
  8
0
  6
CONTINUOUS
 10
356.251556
 20
66.853203
 11
356.251556
 21
65.540703
  0
LINE
  8
0
  6
CONTINUOUS
 10
358.198334
 20
75.040703
 11
359.032745
 21
75.040703
  0
LINE
  8
0
  6
CONTINUOUS
 10
351.032745
 20
75.040703
 11
351.920746
 21
75.040703
  0
LINE
  8
0
  6
CONTINUOUS
 10
351.032745
 20
77.540703
 11
359.032745
 21
77.540703
  0
LINE
  8
0
  6
CONTINUOUS
 10
353.657745
 20
65.540703
 11
356.251556
 21
65.540703
  0
LINE
  8
0
  6
CONTINUOUS
 10
353.657745
 20
66.853203
 11
354.251556
 21
66.853203
  0
ARC
  8
0
  6
CONTINUOUS
 10
367.829742
 20
74.337578
 40
3.203128
 50
-73.981873
 51
90.003510
  0
ARC
  8
0
  6
CONTINUOUS
 10
367.829742
 20
74.337578
 40
1.954124
 50
-82.585274
 51
62.411850
  0
LINE
  8
0
  6
CONTINUOUS
 10
363.032745
 20
77.540703
 11
367.829742
 21
77.540703
  0
LINE
  8
0
  6
CONTINUOUS
 10
368.081757
 20
72.399780
 11
365.001556
 21
72.399780
  0
LINE
  8
0
  6
CONTINUOUS
 10
363.032745
 20
77.540703
 11
363.032745
 21
76.071953
  0
LINE
  8
0
  6
CONTINUOUS
 10
365.001556
 20
76.071953
 11
365.001556
 21
72.399780
  0
LINE
  8
0
  6
CONTINUOUS
 10
368.713531
 20
71.258820
 11
370.696136
 21
66.790703
  0
LINE
  8
0
  6
CONTINUOUS
 10
367.561951
 20
71.150085
 11
369.438141
 21
66.790703
  0
LINE
  8
0
  6
CONTINUOUS
 10
363.032745
 20
66.790703
 11
363.626556
 21
66.790703
  0
LINE
  8
0
  6
CONTINUOUS
 10
365.001556
 20
66.790703
 11
365.548340
 21
66.790703
  0
LINE
  8
0
  6
CONTINUOUS
 10
365.548340
 20
65.540703
 11
363.032745
 21
65.540703
  0
LINE
  8
0
  6
CONTINUOUS
 10
369.188934
 20
66.790703
 11
369.438141
 21
66.790703
  0
LINE
  8
0
  6
CONTINUOUS
 10
370.696136
 20
66.790703
 11
371.032745
 21
66.790703
  0
LINE
  8
0
  6
CONTINUOUS
 10
369.188934
 20
65.540703
 11
371.032745
 21
65.540703
  0
LINE
  8
0
  6
CONTINUOUS
 10
371.032745
 20
66.790703
 11
371.032745
 21
65.540703
  0
LINE
  8
0
  6
CONTINUOUS
 10
369.188934
 20
66.790703
 11
369.188934
 21
65.540703
  0
LINE
  8
0
  6
CONTINUOUS
 10
365.548340
 20
66.790703
 11
365.548340
 21
65.540703
  0
LINE
  8
0
  6
CONTINUOUS
 10
363.032745
 20
66.790703
 11
363.032745
 21
65.540703
  0
LINE
  8
0
  6
CONTINUOUS
 10
352.350555
 20
76.071953
 11
351.920746
 21
75.040703
  0
LINE
  8
0
  6
CONTINUOUS
 10
357.835938
 20
76.071953
 11
358.198334
 21
75.040703
  0
LINE
  8
0
  6
CONTINUOUS
 10
355.751556
 20
76.071953
 11
357.835938
 21
76.071953
  0
LINE
  8
0
  6
CONTINUOUS
 10
354.251556
 20
76.071953
 11
352.350555
 21
76.071953
  0
LINE
  8
0
  6
CONTINUOUS
 10
365.001556
 20
71.150085
 11
367.561951
 21
71.150085
  0
LINE
  8
0
  6
CONTINUOUS
 10
363.032745
 20
76.071953
 11
363.626556
 21
76.071953
  0
LINE
  8
0
  6
CONTINUOUS
 10
365.001556
 20
76.071953
 11
368.734558
 21
76.069527
  0
LINE
  8
0
  6
CONTINUOUS
 10
345.876556
 20
75.229851
 11
345.876556
 21
75.040703
  0
ARC
  8
0
  6
CONTINUOUS
 10
355.032745
 20
107.540710
 40
73.000000
 50
47.590931
 51
132.409302
  0
ARC
  8
0
  6
CONTINUOUS
 10
355.032745
 20
107.540710
 40
73.000000
 50
227.591095
 51
312.409393
  0
LINE
  8
0
  6
CONTINUOUS
 10
414.032745
 20
139.289719
 11
414.032745
 21
75.791695
  0
LINE
  8
0
  6
CONTINUOUS
 10
296.032745
 20
139.289719
 11
296.032745
 21
75.791695
  0
ARC
  8
0
  6
CONTINUOUS
 10
384.032745
 20
139.289719
 40
30.000000
 50
0.000000
 51
47.590950
  0
ARC
  8
0
  6
CONTINUOUS
 10
384.032745
 20
75.791695
 40
30.000000
 50
-47.590061
 51
0.000000
  0
ARC
  8
0
  6
CONTINUOUS
 10
326.032745
 20
139.289719
 40
30.000000
 50
132.409500
 51
180.000000
  0
ARC
  8
0
  6
CONTINUOUS
 10
326.032745
 20
75.791695
 40
30.000000
 50
180.000000
 51
227.591400
  0
LINE
  8
0
  6
CONTINUOUS
 10
345.032745
 20
133.540710
 11
345.032745
 21
125.540703
  0
LINE
  8
0
  6
CONTINUOUS
 10
338.032745
 20
133.540710
 11
338.032745
 21
125.540703
  0
LINE
  8
0
  6
CONTINUOUS
 10
338.032745
 20
133.540710
 11
345.032745
 21
133.540710
  0
LINE
  8
0
  6
CONTINUOUS
 10
338.032745
 20
125.540703
 11
345.032745
 21
125.540703
  0
ARC
  8
0
  6
CONTINUOUS
 10
355.032745
 20
129.540710
 40
14.000000
 50
-163.398499
 51
163.398499
  0
LINE
  8
0
  6
CONTINUOUS
 10
335.032745
 20
29.171476
 11
335.032745
 21
24.540703
  0
LINE
  8
0
  6
CONTINUOUS
 10
336.474640
 20
29.540703
 11
373.590851
 21
29.540703
  0
LINE
  8
0
  6
CONTINUOUS
 10
334.132019
 20
28.414778
 11
331.933502
 21
25.666630
  0
ARC
  8
0
  6
CONTINUOUS
 10
329.590912
 20
27.540703
 40
3.000000
 50
270.000000
 51
321.340454
  0
ARC
  8
0
  6
CONTINUOUS
 10
336.474640
 20
26.540703
 40
3.000000
 50
90.000000
 51
141.340454
  0
LINE
  8
0
  6
CONTINUOUS
 10
375.032745
 20
29.171476
 11
375.032745
 21
24.540703
  0
LINE
  8
0
  6
CONTINUOUS
 10
375.933472
 20
28.414778
 11
378.131989
 21
25.666630
  0
ARC
  8
0
  6
CONTINUOUS
 10
380.474579
 20
27.540703
 40
3.000000
 50
-141.340454
 51
-90.000000
  0
ARC
  8
0
  6
CONTINUOUS
 10
373.590851
 20
26.540703
 40
3.000000
 50
38.659546
 51
90.000000
  0
LINE
  8
0
  6
CONTINUOUS
 10
419.032745
 20
145.140701
 11
419.032745
 21
41.940723
  0
LINE
  8
0
  6
CONTINUOUS
 10
419.032745
 20
145.140701
 11
417.532745
 21
145.140701
  0
LINE
  8
0
  6
CONTINUOUS
 10
419.032745
 20
41.940723
 11
417.532745
 21
41.940723
  0
ARC
  8
0
  6
CONTINUOUS
 10
235.079544
 20
93.540703
 40
191.053177
 50
-15.669100
 51
15.669100
  0
ARC
  8
0
  6
CONTINUOUS
 10
235.079544
 20
93.540703
 40
190.053177
 50
-1.478500
 51
1.451400
  0
LINE
  8
0
  6
CONTINUOUS
 10
423.032745
 20
98.540703
 11
424.037537
 21
98.540703
  0
LINE
  8
0
  6
CONTINUOUS
 10
420.532745
 20
96.040703
 11
420.532745
 21
91.040703
  0
ARC
  8
0
  6
CONTINUOUS
 10
424.037537
 20
99.539101
 40
1.000000
 50
-90.000000
 51
1.817900
  0
ARC
  8
0
  6
CONTINUOUS
 10
423.032745
 20
96.040703
 40
2.500000
 50
90.000000
 51
180.000000
  0
LINE
  8
0
  6
CONTINUOUS
 10
423.032745
 20
88.540703
 11
424.037537
 21
88.540703
  0
ARC
  8
0
  6
CONTINUOUS
 10
424.037537
 20
87.542305
 40
1.000000
 50
-1.817900
 51
90.000000
  0
ARC
  8
0
  6
CONTINUOUS
 10
423.032745
 20
91.040703
 40
2.500000
 50
180.000000
 51
270.000000
  0
LINE
  8
0
  6
CONTINUOUS
 10
417.532745
 20
145.140701
 11
417.532745
 21
154.912292
  0
ARC
  8
0
  6
CONTINUOUS
 10
419.087097
 20
162.540802
 40
5.000000
 50
235.460007
 51
270.000000
  0
LINE
  8
0
  6
CONTINUOUS
 10
620.532776
 20
330.265686
 11
611.032776
 21
330.265686
  0
LINE
  8
0
  6
CONTINUOUS
 10
620.032776
 20
346.265686
 11
620.532776
 21
346.265686
  0
LINE
  8
0
  6
CONTINUOUS
 10
620.532776
 20
420.265686
 11
611.032776
 21
420.265686
  0
LINE
  8
0
  6
CONTINUOUS
 10
611.032776
 20
420.265686
 11
611.032776
 21
406.265686
  0
LINE
  8
0
  6
CONTINUOUS
 10
620.032776
 20
404.265686
 11
620.532776
 21
404.265686
  0
LINE
  8
0
  6
CONTINUOUS
 10
611.032776
 20
344.265686
 11
611.032776
 21
330.265686
  0
LINE
  8
0
  6
CONTINUOUS
 10
620.532776
 20
328.265686
 11
620.532776
 21
422.265686
  0
LINE
  8
0
  6
CONTINUOUS
 10
620.532776
 20
346.265686
 11
664.507751
 21
346.265686
  0
LINE
  8
0
  6
CONTINUOUS
 10
620.532776
 20
404.265686
 11
664.507751
 21
404.265686
  0
LINE
  8
0
  6
CONTINUOUS
 10
663.032776
 20
328.265686
 11
620.532776
 21
328.265686
  0
LINE
  8
0
  6
CONTINUOUS
 10
663.032776
 20
422.265686
 11
620.532776
 21
422.265686
  0
ARC
  8
0
  6
CONTINUOUS
 10
663.032715
 20
333.265686
 40
5.000000
 50
-90.000000
 51
0.000000
  0
ARC
  8
0
  6
CONTINUOUS
 10
663.032776
 20
417.265686
 40
5.000000
 50
0.000000
 51
90.000000
  0
LINE
  8
0
  6
CONTINUOUS
 10
668.032715
 20
333.265686
 11
668.032776
 21
417.265686
  0
LINE
  8
0
  6
CONTINUOUS
 10
620.532776
 20
125.540703
 11
611.032776
 21
125.540703
  0
LINE
  8
0
  6
CONTINUOUS
 10
611.032776
 20
114.950005
 11
620.532776
 21
114.950005
  0
LINE
  8
0
  6
CONTINUOUS
 10
620.532776
 20
35.540703
 11
611.032776
 21
35.540703
  0
LINE
  8
0
  6
CONTINUOUS
 10
611.032776
 20
46.131413
 11
620.532776
 21
46.131413
  0
LINE
  8
0
  6
CONTINUOUS
 10
620.532776
 20
127.540703
 11
620.532776
 21
33.540703
  0
LINE
  8
0
  6
CONTINUOUS
 10
620.532776
 20
109.540703
 11
664.507751
 21
109.540703
  0
LINE
  8
0
  6
CONTINUOUS
 10
620.532776
 20
51.540703
 11
664.507751
 21
51.540703
  0
LINE
  8
0
  6
CONTINUOUS
 10
663.032776
 20
127.540703
 11
620.532776
 21
127.540703
  0
LINE
  8
0
  6
CONTINUOUS
 10
663.032776
 20
33.540703
 11
620.532776
 21
33.540703
  0
ARC
  8
0
  6
CONTINUOUS
 10
663.032715
 20
122.540703
 40
5.000000
 50
0.000000
 51
90.000000
  0
ARC
  8
0
  6
CONTINUOUS
 10
663.032776
 20
38.540703
 40
5.000000
 50
-90.000000
 51
0.000000
  0
LINE
  8
0
  6
CONTINUOUS
 10
668.032715
 20
122.540703
 11
668.032776
 21
38.540691
  0
LINE
  8
0
  6
CONTINUOUS
 10
611.032776
 20
35.540703
 11
611.032776
 21
125.540703
  0
LINE
  8
0
  6
CONTINUOUS
 10
501.032745
 20
404.265686
 11
501.032745
 21
418.265686
  0
LINE
  8
0
  6
CONTINUOUS
 10
618.532776
 20
127.040703
 11
560.032776
 21
127.040703
  0
LINE
  8
0
  6
CONTINUOUS
 10
618.532776
 20
127.040703
 11
618.532776
 21
125.540703
  0
LINE
  8
0
  6
CONTINUOUS
 10
572.532776
 20
127.040703
 11
572.532776
 21
125.540703
  0
LINE
  8
0
  6
CONTINUOUS
 10
620.032776
 20
176.040710
 11
620.032776
 21
129.040710
  0
LINE
  8
0
  6
CONTINUOUS
 10
558.032776
 20
176.040726
 11
558.032776
 21
129.040710
  0
LINE
  8
0
  6
CONTINUOUS
 10
558.032776
 20
129.040710
 11
560.032776
 21
127.040703
  0
LINE
  8
0
  6
CONTINUOUS
 10
620.032776
 20
129.040710
 11
618.032776
 21
127.040703
  0
LINE
  8
0
  6
CONTINUOUS
 10
620.032776
 20
129.040710
 11
558.032776
 21
129.040710
  0
LINE
  8
0
  6
CONTINUOUS
 10
620.032776
 20
139.040710
 11
558.032776
 21
139.040710
  0
LINE
  8
0
  6
CENTER
 10
589.032776
 20
180.469681
 11
589.032776
 21
122.446701
  0
LINE
  8
0
  6
CONTINUOUS
 10
620.032776
 20
140.040710
 11
558.032776
 21
140.040710
  0
LINE
  8
0
  6
CONTINUOUS
 10
619.032776
 20
177.040710
 11
559.032776
 21
177.040726
  0
LINE
  8
0
  6
CONTINUOUS
 10
559.032776
 20
177.040726
 11
558.032776
 21
176.040726
  0
LINE
  8
0
  6
CONTINUOUS
 10
620.032776
 20
176.040710
 11
619.032776
 21
177.040710
  0
LINE
  8
0
  6
CONTINUOUS
 10
620.032776
 20
176.040710
 11
558.032776
 21
176.040726
  0
LINE
  8
0
  6
CENTER
 10
622.657776
 20
160.040726
 11
616.907776
 21
160.040726
  0
LINE
  8
0
  6
CONTINUOUS
 10
621.157776
 20
170.540726
 11
618.032776
 21
170.540726
  0
LINE
  8
0
  6
CONTINUOUS
 10
621.157776
 20
149.540710
 11
618.032776
 21
149.540710
  0
LINE
  8
0
  6
CONTINUOUS
 10
620.032776
 20
346.265686
 11
620.032776
 21
404.265686
  0
LINE
  8
0
  6
CONTINUOUS
 10
558.032776
 20
404.265686
 11
558.032776
 21
346.265686
  0
LINE
  8
0
  6
CENTER
 10
589.032776
 20
339.019440
 11
589.032776
 21
411.712250
  0
LINE
  8
0
  6
CONTINUOUS
 10
618.032776
 20
344.265686
 11
560.032776
 21
344.265686
  0
LINE
  8
0
  6
CONTINUOUS
 10
618.032776
 20
406.265686
 11
560.032776
 21
406.265686
  0
LINE
  8
0
  6
CONTINUOUS
 10
560.032776
 20
344.265686
 11
558.032776
 21
346.265686
  0
LINE
  8
0
  6
CONTINUOUS
 10
558.032776
 20
404.265686
 11
560.032776
 21
406.265686
  0
LINE
  8
0
  6
CONTINUOUS
 10
620.032776
 20
404.265686
 11
618.032776
 21
406.265686
  0
LINE
  8
0
  6
CONTINUOUS
 10
620.032776
 20
346.265686
 11
618.032776
 21
344.265686
  0
LINE
  8
0
  6
CONTINUOUS
 10
566.032776
 20
349.265686
 11
566.032776
 21
344.265686
  0
LINE
  8
0
  6
CONTINUOUS
 10
563.032776
 20
352.265686
 11
558.032776
 21
352.265686
  0
CIRCLE
  8
0
  6
CONTINUOUS
 10
562.032776
 20
348.265686
 40
2.250000
  0
ARC
  8
0
  6
CONTINUOUS
 10
563.032776
 20
349.265686
 40
3.000000
 50
0.000000
 51
90.000000
  0
LINE
  8
0
  6
CONTINUOUS
 10
559.032776
 20
353.265686
 11
559.032776
 21
397.265686
  0
LINE
  8
0
  6
CONTINUOUS
 10
563.032776
 20
353.265686
 11
559.032776
 21
353.265686
  0
ARC
  8
0
  6
CONTINUOUS
 10
563.032776
 20
349.265686
 40
4.000000
 50
0.000000
 51
90.000000
  0
LINE
  8
0
  6
CONTINUOUS
 10
567.032776
 20
345.265686
 11
567.032776
 21
349.265686
  0
LINE
  8
0
  6
CONTINUOUS
 10
559.032776
 20
353.265686
 11
558.032776
 21
352.265686
  0
LINE
  8
0
  6
CONTINUOUS
 10
611.032776
 20
345.265686
 11
567.032776
 21
345.265686
  0
LINE
  8
0
  6
CONTINUOUS
 10
567.032776
 20
345.265686
 11
566.032776
 21
344.265686
  0
LINE
  8
0
  6
CONTINUOUS
 10
615.032776
 20
352.265686
 11
620.032776
 21
352.265686
  0
LINE
  8
0
  6
CONTINUOUS
 10
612.032776
 20
349.265686
 11
612.032776
 21
344.265686
  0
CIRCLE
  8
0
  6
CONTINUOUS
 10
616.032776
 20
348.265686
 40
2.250000
  0
ARC
  8
0
  6
CONTINUOUS
 10
615.032776
 20
349.265686
 40
3.000000
 50
90.000000
 51
180.000000
  0
LINE
  8
0
  6
CONTINUOUS
 10
611.032776
 20
349.265686
 11
611.032776
 21
345.265686
  0
ARC
  8
0
  6
CONTINUOUS
 10
615.032776
 20
349.265686
 40
4.000000
 50
90.000000
 51
180.000000
  0
LINE
  8
0
  6
CONTINUOUS
 10
619.032776
 20
353.265686
 11
615.032776
 21
353.265686
  0
LINE
  8
0
  6
CONTINUOUS
 10
611.032776
 20
345.265686
 11
612.032776
 21
344.265686
  0
LINE
  8
0
  6
CONTINUOUS
 10
619.032776
 20
353.265686
 11
620.032776
 21
352.265686
  0
LINE
  8
0
  6
CONTINUOUS
 10
612.032776
 20
401.265686
 11
612.032776
 21
406.265686
  0
LINE
  8
0
  6
CONTINUOUS
 10
615.032776
 20
398.265686
 11
620.032776
 21
398.265686
  0
CIRCLE
  8
0
  6
CONTINUOUS
 10
616.032776
 20
402.265686
 40
2.250000
  0
ARC
  8
0
  6
CONTINUOUS
 10
615.032776
 20
401.265686
 40
3.000000
 50
180.000000
 51
270.000000
  0
LINE
  8
0
  6
CONTINUOUS
 10
615.032776
 20
397.265686
 11
619.032776
 21
397.265686
  0
ARC
  8
0
  6
CONTINUOUS
 10
615.032776
 20
401.265686
 40
4.000000
 50
180.000000
 51
270.000000
  0
LINE
  8
0
  6
CONTINUOUS
 10
611.032776
 20
405.265686
 11
611.032776
 21
401.265686
  0
LINE
  8
0
  6
CONTINUOUS
 10
619.032776
 20
397.265686
 11
620.032776
 21
398.265686
  0
LINE
  8
0
  6
CONTINUOUS
 10
611.032776
 20
405.265686
 11
612.032776
 21
406.265686
  0
LINE
  8
0
  6
CONTINUOUS
 10
563.032776
 20
398.265686
 11
558.032776
 21
398.265686
  0
LINE
  8
0
  6
CONTINUOUS
 10
566.032776
 20
401.265686
 11
566.032776
 21
406.265686
  0
CIRCLE
  8
0
  6
CONTINUOUS
 10
562.032776
 20
402.265686
 40
2.250000
  0
ARC
  8
0
  6
CONTINUOUS
 10
563.032776
 20
401.265686
 40
3.000000
 50
-90.000000
 51
0.000000
  0
LINE
  8
0
  6
CONTINUOUS
 10
567.032776
 20
401.265686
 11
567.032776
 21
405.265686
  0
ARC
  8
0
  6
CONTINUOUS
 10
563.032776
 20
401.265686
 40
4.000000
 50
-90.000000
 51
0.000000
  0
LINE
  8
0
  6
CONTINUOUS
 10
559.032776
 20
397.265686
 11
563.032776
 21
397.265686
  0
LINE
  8
0
  6
CONTINUOUS
 10
567.032776
 20
405.265686
 11
566.032776
 21
406.265686
  0
LINE
  8
0
  6
CONTINUOUS
 10
559.032776
 20
397.265686
 11
558.032776
 21
398.265686
  0
LINE
  8
0
  6
CONTINUOUS
 10
611.032776
 20
405.265686
 11
567.032776
 21
405.265686
  0
LINE
  8
0
  6
CONTINUOUS
 10
619.032776
 20
353.265686
 11
619.032776
 21
397.265686
  0
TEXT
  8
0
 10
-10.000000
 20
-7.000000
 40
4.000000
 41
1.000000
  1
HLMN-28L-600~900-S60C
 50
0.000000
  0
ENDSEC
  0
EOF
