  0
SECTION
  2
HEADER
  9
$ACADVER
  1
AC1014
  9
$ACADMAINTVER
 70
     9
  9
$DWGCODEPAGE
  3
ANSI_932
  9
$INSBASE
 10
0.0
 20
0.0
 30
0.0
  9
$EXTMIN
 10
60.92223956622058
 20
67.5216868103619
 30
0.0
  9
$EXTMAX
 10
768.4503559383202
 20
527.320589797506
 30
0.0
  9
$LIMMIN
 10
0.0
 20
0.0
  9
$LIMMAX
 10
297.0
 20
210.0
  9
$ORTHOMODE
 70
     1
  9
$REGENMODE
 70
     1
  9
$FILLMODE
 70
     1
  9
$QTEXTMODE
 70
     0
  9
$MIRRTEXT
 70
     0
  9
$DRAGMODE
 70
     2
  9
$LTSCALE
 40
3.0
  9
$OSMODE
 70
    37
  9
$ATTMODE
 70
     1
  9
$TEXTSIZE
 40
2.0
  9
$TRACEWID
 40
1.0
  9
$TEXTSTYLE
  7
STANDARD
  9
$CLAYER
  8
0
  9
$CELTYPE
  6
BYLAYER
  9
$CECOLOR
 62
   256
  9
$CELTSCALE
 40
1.0
  9
$DELOBJ
 70
     1
  9
$DISPSILH
 70
     0
  9
$DIMSCALE
 40
3.0
  9
$DIMASZ
 40
1.8
  9
$DIMEXO
 40
0.625
  9
$DIMDLI
 40
3.75
  9
$DIMRND
 40
0.0
  9
$DIMDLE
 40
0.0
  9
$DIMEXE
 40
0.8
  9
$DIMTP
 40
0.0
  9
$DIMTM
 40
0.0
  9
$DIMTXT
 40
1.8
  9
$DIMCEN
 40
2.5
  9
$DIMTSZ
 40
0.0
  9
$DIMTOL
 70
     0
  9
$DIMLIM
 70
     0
  9
$DIMTIH
 70
     0
  9
$DIMTOH
 70
     0
  9
$DIMSE1
 70
     0
  9
$DIMSE2
 70
     0
  9
$DIMTAD
 70
     1
  9
$DIMZIN
 70
     8
  9
$DIMBLK
  1

  9
$DIMASO
 70
     1
  9
$DIMSHO
 70
     1
  9
$DIMPOST
  1

  9
$DIMAPOST
  1

  9
$DIMALT
 70
     0
  9
$DIMALTD
 70
     4
  9
$DIMALTF
 40
0.0394
  9
$DIMLFAC
 40
1.0
  9
$DIMTOFL
 70
     1
  9
$DIMTVP
 40
0.0
  9
$DIMTIX
 70
     0
  9
$DIMSOXD
 70
     0
  9
$DIMSAH
 70
     0
  9
$DIMBLK1
  1

  9
$DIMBLK2
  1

  9
$DIMSTYLE
  2
STANDARD
  9
$DIMCLRD
 70
     0
  9
$DIMCLRE
 70
     0
  9
$DIMCLRT
 70
     0
  9
$DIMTFAC
 40
1.0
  9
$DIMGAP
 40
0.75
  9
$DIMJUST
 70
     0
  9
$DIMSD1
 70
     0
  9
$DIMSD2
 70
     0
  9
$DIMTOLJ
 70
     1
  9
$DIMTZIN
 70
     0
  9
$DIMALTZ
 70
     0
  9
$DIMALTTZ
 70
     0
  9
$DIMFIT
 70
     3
  9
$DIMUPT
 70
     0
  9
$DIMUNIT
 70
     8
  9
$DIMDEC
 70
     2
  9
$DIMTDEC
 70
     2
  9
$DIMALTU
 70
     8
  9
$DIMALTTD
 70
     4
  9
$DIMTXSTY
  7
STANDARD
  9
$DIMAUNIT
 70
     0
  9
$LUNITS
 70
     2
  9
$LUPREC
 70
     3
  9
$SKETCHINC
 40
1.0
  9
$FILLETRAD
 40
10.0
  9
$AUNITS
 70
     0
  9
$AUPREC
 70
     2
  9
$MENU
  1
.
  9
$ELEVATION
 40
0.0
  9
$PELEVATION
 40
0.0
  9
$THICKNESS
 40
0.0
  9
$LIMCHECK
 70
     0
  9
$BLIPMODE
 70
     0
  9
$CHAMFERA
 40
0.0
  9
$CHAMFERB
 40
0.0
  9
$CHAMFERC
 40
20.0
  9
$CHAMFERD
 40
0.0
  9
$SKPOLY
 70
     0
  9
$TDCREATE
 40
2453753.552061447
  9
$TDUPDATE
 40
2453832.473005995
  9
$TDINDWG
 40
0.2345576968
  9
$TDUSRTIMER
 40
0.2345576968
  9
$USRTIMER
 70
     1
  9
$ANGBASE
 50
0.0
  9
$ANGDIR
 70
     0
  9
$PDMODE
 70
     0
  9
$PDSIZE
 40
-10.0
  9
$PLINEWID
 40
0.0
  9
$COORDS
 70
     0
  9
$SPLFRAME
 70
     0
  9
$SPLINETYPE
 70
     6
  9
$SPLINESEGS
 70
     8
  9
$ATTDIA
 70
     0
  9
$ATTREQ
 70
     1
  9
$HANDLING
 70
-16383
  9
$HANDSEED
  5
206D
  9
$SURFTAB1
 70
     6
  9
$SURFTAB2
 70
     6
  9
$SURFTYPE
 70
     6
  9
$SURFU
 70
     6
  9
$SURFV
 70
     6
  9
$UCSNAME
  2

  9
$UCSORG
 10
0.0
 20
0.0
 30
0.0
  9
$UCSXDIR
 10
1.0
 20
0.0
 30
0.0
  9
$UCSYDIR
 10
0.0
 20
1.0
 30
0.0
  9
$PUCSNAME
  2

  9
$PUCSORG
 10
0.0
 20
0.0
 30
0.0
  9
$PUCSXDIR
 10
1.0
 20
0.0
 30
0.0
  9
$PUCSYDIR
 10
0.0
 20
1.0
 30
0.0
  9
$USERI1
 70
     0
  9
$USERI2
 70
     0
  9
$USERI3
 70
     0
  9
$USERI4
 70
     0
  9
$USERI5
 70
     0
  9
$USERR1
 40
0.0
  9
$USERR2
 40
0.0
  9
$USERR3
 40
0.0
  9
$USERR4
 40
0.0
  9
$USERR5
 40
0.0
  9
$WORLDVIEW
 70
     1
  9
$SHADEDGE
 70
     3
  9
$SHADEDIF
 70
    70
  9
$TILEMODE
 70
     1
  9
$MAXACTVP
 70
    48
  9
$PINSBASE
 10
0.0
 20
0.0
 30
0.0
  9
$PLIMCHECK
 70
     0
  9
$PEXTMIN
 10
3.0
 20
3.999999999999998
 30
0.0
  9
$PEXTMAX
 10
280.0
 20
194.0
 30
0.0
  9
$PLIMMIN
 10
-5.873748779296875
 20
-5.873749732971191
  9
$PLIMMAX
 10
291.05224609375
 20
204.0995779037475
  9
$UNITMODE
 70
     0
  9
$VISRETAIN
 70
     1
  9
$PLINEGEN
 70
     0
  9
$PSLTSCALE
 70
     0
  9
$TREEDEPTH
 70
  3020
  9
$PICKSTYLE
 70
     1
  9
$CMLSTYLE
  2
STANDARD
  9
$CMLJUST
 70
     0
  9
$CMLSCALE
 40
1.0
  9
$PROXYGRAPHICS
 70
     1
  9
$MEASUREMENT
 70
     0
  0
ENDSEC
  0
SECTION
  2
CLASSES
  0
CLASS
  1
DICTIONARYVAR
  2
AcDbDictionaryVar
  3
AutoCAD 2000
 90
        0
280
     0
281
     0
  0
CLASS
  1
ACDBDICTIONARYWDFLT
  2
AcDbDictionaryWithDefault
  3
AutoCAD 2000
 90
        0
280
     0
281
     0
  0
CLASS
  1
ACDBPLACEHOLDER
  2
AcDbPlaceHolder
  3
AutoCAD 2000
 90
        0
280
     0
281
     0
  0
CLASS
  1
LAYOUT
  2
AcDbLayout
  3
AutoCAD 2000
 90
        0
280
     0
281
     0
  0
CLASS
  1
LONG_TRANSACTION
  2
AcDbLongTransaction
  3
AutoCAD 2000
 90
        0
280
     0
281
     0
  0
CLASS
  1
LWPOLYLINE
  2
AcDbPolyline
  3
AutoCAD 2000
 90
        0
280
     0
281
     1
  0
CLASS
  1
HATCH
  2
AcDbHatch
  3
AutoCAD 2000
 90
        0
280
     0
281
     1
  0
CLASS
  1
XRECORD
  2
AcDbXrecord
  3
AutoCAD 2000
 90
        0
280
     0
281
     0
  0
ENDSEC
  0
SECTION
  2
TABLES
  0
TABLE
  2
VPORT
  5
6E
330
0
100
AcDbSymbolTable
 70
     2
  0
VPORT
  5
2042
330
6E
100
AcDbSymbolTableRecord
100
AcDbViewportTableRecord
  2
*ACTIVE
 70
     0
 10
0.0
 20
0.0
 11
1.0
 21
1.0
 12
403.8192924821126
 22
279.5199858950656
 13
0.0
 23
0.0
 14
10.0
 24
10.0
 15
10.0
 25
10.0
 16
0.0
 26
0.0
 36
1.0
 17
0.0
 27
0.0
 37
0.0
 40
499.5943130501458
 41
1.566970091027308
 42
50.0
 43
0.0
 44
0.0
 50
0.0
 51
0.0
 71
     0
 72
   100
 73
     1
 74
     3
 75
     0
 76
     0
 77
     0
 78
     0
  0
ENDTAB
  0
TABLE
  2
LTYPE
  5
69
330
0
100
AcDbSymbolTable
 70
     3
  0
LTYPE
  5
6A
330
69
100
AcDbSymbolTableRecord
100
AcDbLinetypeTableRecord
  2
BYBLOCK
 70
     0
  3

 72
    65
 73
     0
 40
0.0
  0
LTYPE
  5
6B
330
69
100
AcDbSymbolTableRecord
100
AcDbLinetypeTableRecord
  2
BYLAYER
 70
     0
  3

 72
    65
 73
     0
 40
0.0
  0
LTYPE
  5
8
330
69
100
AcDbSymbolTableRecord
100
AcDbLinetypeTableRecord
  2
CONTINUOUS
 70
     0
  3
Solid line
 72
    65
 73
     0
 40
0.0
  0
LTYPE
  5
27C
330
69
100
AcDbSymbolTableRecord
100
AcDbLinetypeTableRecord
  2
SEKKEI_A2_
 70
     0
  3
center(A2)  ____ _ ____ _ ____ _ ____ _ ____ _ 
 72
    65
 73
     4
 40
14.28749999999999
 49
9.525
 74
     0
 49
-1.587499999999999
 74
     0
 49
1.587499999999999
 74
     0
 49
-1.587499999999999
 74
     0
  0
LTYPE
  5
2B4
330
69
100
AcDbSymbolTableRecord
100
AcDbLinetypeTableRecord
  2
HIDDEN2
 70
     0
  3
Hidden (.5x) _ _ _ _ _ _ _ _ _ _ _ _ _ _ _ _ _
 72
    65
 73
     2
 40
4.762499999999999
 49
3.174999999999999
 74
     0
 49
-1.587499999999999
 74
     0
  0
ENDTAB
  0
TABLE
  2
LAYER
  5
66
330
0
100
AcDbSymbolTable
 70
     9
  0
LAYER
  5
5E
330
66
100
AcDbSymbolTableRecord
100
AcDbLayerTableRecord
  2
0
 70
     0
 62
     7
  6
CONTINUOUS
  0
LAYER
  5
3E
330
66
100
AcDbSymbolTableRecord
100
AcDbLayerTableRecord
  2
CENTER
 70
     0
 62
     3
  6
SEKKEI_A2_
  0
LAYER
  5
4
330
66
100
AcDbSymbolTableRecord
100
AcDbLayerTableRecord
  2
WAKU
 70
     0
 62
     5
  6
CONTINUOUS
  0
LAYER
  5
E4
330
66
100
AcDbSymbolTableRecord
100
AcDbLayerTableRecord
  2
TEXT
 70
     0
 62
     4
  6
CONTINUOUS
  0
LAYER
  5
135
330
66
100
AcDbSymbolTableRecord
100
AcDbLayerTableRecord
  2
DEFPOINTS
 70
     0
 62
     7
  6
CONTINUOUS
  0
LAYER
  5
2B5
330
66
100
AcDbSymbolTableRecord
100
AcDbLayerTableRecord
  2
HIDS
 70
     0
 62
     1
  6
HIDDEN2
  0
LAYER
  5
2BA
330
66
100
AcDbSymbolTableRecord
100
AcDbLayerTableRecord
  2
HOJO
 70
     0
 62
     4
  6
CONTINUOUS
  0
LAYER
  5
3FA
330
66
100
AcDbSymbolTableRecord
100
AcDbLayerTableRecord
  2
TITLE
 70
     0
 62
     4
  6
CONTINUOUS
  0
ENDTAB
  0
TABLE
  2
STYLE
  5
67
330
0
100
AcDbSymbolTable
 70
     1
  0
STYLE
  5
16
330
67
100
AcDbSymbolTableRecord
100
AcDbTextStyleTableRecord
  2
STANDARD
 70
     0
 40
0.0
 41
1.0
 50
0.0
 71
     0
 42
2.0
  3
simplex.shx
  4
extfont.shx
  0
ENDTAB
  0
TABLE
  2
VIEW
  5
6C
330
0
100
AcDbSymbolTable
 70
     0
  0
ENDTAB
  0
TABLE
  2
UCS
  5
6D
330
0
100
AcDbSymbolTable
 70
     0
  0
ENDTAB
  0
TABLE
  2
APPID
  5
70
330
0
100
AcDbSymbolTable
 70
     2
  0
APPID
  5
71
330
70
100
AcDbSymbolTableRecord
100
AcDbRegAppTableRecord
  2
ACAD
 70
     0
  0
APPID
  5
2066
330
70
100
AcDbSymbolTableRecord
100
AcDbRegAppTableRecord
  2
CONTENTBLOCKICON
 70
     0
  0
ENDTAB
  0
TABLE
  2
DIMSTYLE
  5
72
330
0
100
AcDbSymbolTable
 70
     1
  0
DIMSTYLE
105
73
330
72
100
AcDbSymbolTableRecord
100
AcDbDimStyleTableRecord
  2
STANDARD
 70
     0
  3

  4

  5

  6

  7

 40
3.0
 41
1.8
 42
0.625
 43
3.75
 44
0.8
 45
0.0
 46
0.0
 47
0.0
 48
0.0
140
1.8
141
2.5
142
0.0
143
0.0394
144
1.0
145
0.0
146
1.0
147
0.75
 71
     0
 72
     0
 73
     0
 74
     0
 75
     0
 76
     0
 77
     1
 78
     8
170
     0
171
     4
172
     1
173
     0
174
     0
175
     0
176
     0
177
     0
178
     0
270
     8
271
     2
272
     2
273
     8
274
     4
340
16
275
     0
280
     0
281
     0
282
     0
283
     1
284
     0
285
     0
286
     0
287
     3
288
     0
  0
ENDTAB
  0
TABLE
  2
BLOCK_RECORD
  5
1
330
0
100
AcDbSymbolTable
 70
    69
  0
BLOCK_RECORD
  5
2
102
{ACAD_XDICTIONARY
360
2064
102
}
330
1
100
AcDbSymbolTableRecord
100
AcDbBlockTableRecord
  2
*MODEL_SPACE
  0
BLOCK_RECORD
  5
1429
102
{ACAD_XDICTIONARY
360
2067
102
}
330
1
100
AcDbSymbolTableRecord
100
AcDbBlockTableRecord
  2
*PAPER_SPACE
  0
BLOCK_RECORD
  5
40C
330
1
100
AcDbSymbolTableRecord
100
AcDbBlockTableRecord
  2
外寸枠A4テンプレート
1001
CONTENTBLOCKICON
1071
        0
1004
2800000020000000200000000100080000000000000400000000000000000000000000000000000000000000000080000080000000808000800000008000800080800000C0C0C000C0DCC000F0CAA6000020400000206000002080000020A0000020C0000020E00000400000004020000040400000406000004080000040A0
1004
000040C0000040E00000600000006020000060400000606000006080000060A0000060C0000060E00000800000008020000080400000806000008080000080A0000080C0000080E00000A0000000A0200000A0400000A0600000A0800000A0A00000A0C00000A0E00000C0000000C0200000C0400000C0600000C0800000C0
1004
A00000C0C00000C0E00000E0000000E0200000E0400000E0600000E0800000E0A00000E0C00000E0E00040000000400020004000400040006000400080004000A0004000C0004000E00040200000402020004020400040206000402080004020A0004020C0004020E000404000004040200040404000404060004040800040
1004
40A0004040C0004040E00040600000406020004060400040606000406080004060A0004060C0004060E00040800000408020004080400040806000408080004080A0004080C0004080E00040A0000040A0200040A0400040A0600040A0800040A0A00040A0C00040A0E00040C0000040C0200040C0400040C0600040C08000
1004
40C0A00040C0C00040C0E00040E0000040E0200040E0400040E0600040E0800040E0A00040E0C00040E0E00080000000800020008000400080006000800080008000A0008000C0008000E00080200000802020008020400080206000802080008020A0008020C0008020E00080400000804020008040400080406000804080
1004
008040A0008040C0008040E00080600000806020008060400080606000806080008060A0008060C0008060E00080800000808020008080400080806000808080008080A0008080C0008080E00080A0000080A0200080A0400080A0600080A0800080A0A00080A0C00080A0E00080C0000080C0200080C0400080C0600080C0
1004
800080C0A00080C0C00080C0E00080E0000080E0200080E0400080E0600080E0800080E0A00080E0C00080E0E000C0000000C0002000C0004000C0006000C0008000C000A000C000C000C000E000C0200000C0202000C0204000C0206000C0208000C020A000C020C000C020E000C0400000C0402000C0404000C0406000C0
1004
408000C040A000C040C000C040E000C0600000C0602000C0604000C0606000C0608000C060A000C060C000C060E000C0800000C0802000C0804000C0806000C0808000C080A000C080C000C080E000C0A00000C0A02000C0A04000C0A06000C0A08000C0A0A000C0A0C000C0A0E000C0C00000C0C02000C0C04000C0C06000
1004
C0C08000C0C0A000F0FBFF00A4A0A000808080000000FF0000FF000000FFFF00FF000000FF00FF00FFFF0000FFFFFF0000000000000000000000000000000000000000000000000000000000000000000000000000000000000000000000000000000000000000000000000000000000000000000000000000000000000000
1004
000000000000000000000000000000000000000000000000000000000000000000000000000000000000000000000000000000000000000000000000000000000000000000000000000000000000000000000000000000000000000000000000000000000000000000000000000000000000FCFCFCFCFCFCFCFCFCFCFCFCFC
1004
FCFCFCFCFCFCFCFCFEFEFEFDFDFCFDFDFD0000FC0000000000000000000000000000000000000000FDFDFDFDFDFDFDFDFD0000FC0000000000000000000000000000000000000000FDFDFEFEFEFEFDFDFD0000FC0000000000000000000000000000000000000000FDFCFEFEFEFEFCFCFC0000FC0000000000000000000000
1004
0000000000000000000000000000000000FC0000FC00000000000000000000000000000000000000000000000000000000FC0000FC00000000000000000000000000000000000000000000000000000000FC0000FC00000000000000000000000000000000000000000000000000000000FC0000FC00000000000000000000
1004
000000000000000000000000000000000000FC0000FC00000000000000000000000000000000000000000000000000000000FC0000FC00000000000000000000000000000000000000000000000000000000FC0000FC00000000000000000000000000000000000000000000000000000000FC0000FC000000000000000000
1004
00000000000000000000000000000000000000FC0000FC00000000000000000000000000000000000000000000000000000000FC0000FC00000000000000000000000000000000000000000000000000000000FC0000FC00000000000000000000000000000000000000000000000000000000FC0000FC0000000000000000
1004
0000000000000000000000000000000000000000FC0000FC00000000000000000000000000000000000000000000000000000000FC0000FC00000000000000000000000000000000000000000000FCFCFCFCFCFCFC0000FCFCFCFCFCFCFCFCFCFCFCFCFCFCFCFCFCFCFCFCFCFCFCFCFDFCFCFCFCFC00000000000000000000
1004
00000000000000000000000000000000000000000000000000000000000000000000000000000000000000000000000000000000000000000000000000000000000000000000000000000000000000000000000000000000000000000000000000000000000000000000000000000000000000000000000000000000000000
1004
0000000000000000000000000000000000000000000000000000000000000000000000000000000000000000000000000000000000000000
  0
BLOCK_RECORD
  5
4DC
330
1
100
AcDbSymbolTableRecord
100
AcDbBlockTableRecord
  2
1
  0
BLOCK_RECORD
  5
151A
330
1
100
AcDbSymbolTableRecord
100
AcDbBlockTableRecord
  2
GSPEC_H-28R-600-900
  0
BLOCK_RECORD
  5
155F
330
1
100
AcDbSymbolTableRecord
100
AcDbBlockTableRecord
  2
GSPEC_H-28R-300-450
  0
BLOCK_RECORD
  5
17B7
330
1
100
AcDbSymbolTableRecord
100
AcDbBlockTableRecord
  2
MSPEC_S60WF-90
  0
BLOCK_RECORD
  5
17E1
330
1
100
AcDbSymbolTableRecord
100
AcDbBlockTableRecord
  2
MSPEC_S90F-90
  0
BLOCK_RECORD
  5
1807
330
1
100
AcDbSymbolTableRecord
100
AcDbBlockTableRecord
  2
MSPEC_S90WF-90
  0
BLOCK_RECORD
  5
1836
330
1
100
AcDbSymbolTableRecord
100
AcDbBlockTableRecord
  2
BSPEC_90-90-0038
  0
BLOCK_RECORD
  5
18AA
330
1
100
AcDbSymbolTableRecord
100
AcDbBlockTableRecord
  2
BSPEC_90-90-0055
  0
BLOCK_RECORD
  5
191A
330
1
100
AcDbSymbolTableRecord
100
AcDbBlockTableRecord
  2
BSPEC_90-45-0055
  0
ENDTAB
  0
ENDSEC
  0
SECTION
  2
BLOCKS
  0
BLOCK
  5
5D
330
2
100
AcDbEntity
  8
0
100
AcDbBlockBegin
  2
*MODEL_SPACE
 70
     0
 10
0.0
 20
0.0
 30
0.0
  3
*MODEL_SPACE
  1

  0
ENDBLK
  5
5F
330
2
100
AcDbEntity
  8
0
100
AcDbBlockEnd
  0
BLOCK
  5
1436
330
1429
100
AcDbEntity
 67
     1
  8
0
100
AcDbBlockBegin
  2
*PAPER_SPACE
 70
     0
 10
0.0
 20
0.0
 30
0.0
  3
*PAPER_SPACE
  1

  0
ENDBLK
  5
1437
330
1429
100
AcDbEntity
 67
     1
  8
0
100
AcDbBlockEnd
  0
BLOCK
  5
463
330
40C
100
AcDbEntity
  8
0
100
AcDbBlockBegin
  2
外寸枠A4テンプレート
 70
     2
 10
0.0
 20
0.0
 30
0.0
  3
外寸枠A4テンプレート
  1

  0
LWPOLYLINE
  5
40D
330
40C
100
AcDbEntity
  8
WAKU
100
AcDbPolyline
 90
        4
 70
     1
 43
0.0
 10
3.0
 20
4.0
 10
280.0
 20
4.0
 10
280.0
 20
194.0
 10
3.0
 20
194.0
  0
LWPOLYLINE
  5
40E
330
40C
100
AcDbEntity
  8
WAKU
100
AcDbPolyline
 90
        4
 70
     1
 43
0.0
 10
3.0
 20
4.0
 10
280.0
 20
4.0
 10
280.0
 20
194.0
 10
3.0
 20
194.0
  0
LINE
  5
40F
330
40C
100
AcDbEntity
  8
WAKU
100
AcDbLine
 10
280.0
 20
182.0
 30
0.0
 11
226.4018178786999
 21
182.0
 31
0.0
  0
TEXT
  5
410
330
40C
100
AcDbEntity
  8
WAKU
 62
     6
100
AcDbText
 10
228.3816999999999
 20
190.11095
 30
0.0
 40
2.1213
  1
REVISIONS
 41
0.7
100
AcDbText
  0
LINE
  5
411
330
40C
100
AcDbEntity
  8
WAKU
100
AcDbLine
 10
226.4018178786999
 20
194.0
 30
0.0
 11
226.4018178786999
 21
181.9999999999999
 31
0.0
  0
LINE
  5
412
330
40C
100
AcDbEntity
  8
WAKU
 62
     6
100
AcDbLine
 10
203.6331999999998
 20
29.0030567071
 30
0.0
 11
280.0
 21
29.0030567071
 31
0.0
  0
LINE
  5
413
330
40C
100
AcDbEntity
  8
WAKU
 62
     6
100
AcDbLine
 10
203.6331999999998
 20
24.47761529289999
 30
0.0
 11
280.0
 21
24.47761529289999
 31
0.0
  0
LINE
  5
414
330
40C
100
AcDbEntity
  8
WAKU
 62
     6
100
AcDbLine
 10
203.6331999999998
 20
19.9521752929
 30
0.0
 11
280.0
 21
19.9521752929
 31
0.0
  0
LINE
  5
415
330
40C
100
AcDbEntity
  8
WAKU
 62
     6
100
AcDbLine
 10
203.6331999999998
 20
15.42673599999999
 30
0.0
 11
280.0
 21
15.42673599999999
 31
0.0
  0
LINE
  5
416
330
40C
100
AcDbEntity
  8
WAKU
 62
     6
100
AcDbLine
 10
203.6331999999998
 20
29.0030567071
 30
0.0
 11
280.0
 21
29.0030567071
 31
0.0
  0
LINE
  5
417
330
40C
100
AcDbEntity
  8
WAKU
 62
     6
100
AcDbLine
 10
203.6331999999998
 20
24.47761529289999
 30
0.0
 11
280.0
 21
24.47761529289999
 31
0.0
  0
LINE
  5
418
330
40C
100
AcDbEntity
  8
WAKU
 62
     6
100
AcDbLine
 10
203.6331999999998
 20
19.9521752929
 30
0.0
 11
280.0
 21
19.9521752929
 31
0.0
  0
LINE
  5
419
330
40C
100
AcDbEntity
  8
WAKU
 62
     6
100
AcDbLine
 10
203.6331999999998
 20
15.42673599999999
 30
0.0
 11
280.0
 21
15.42673599999999
 31
0.0
  0
LINE
  5
41A
330
40C
100
AcDbEntity
  8
WAKU
 62
     6
100
AcDbLine
 10
203.6331999999998
 20
29.0030567071
 30
0.0
 11
280.0
 21
29.0030567071
 31
0.0
  0
LINE
  5
41B
330
40C
100
AcDbEntity
  8
WAKU
 62
     6
100
AcDbLine
 10
203.6331999999998
 20
24.47761529289999
 30
0.0
 11
280.0
 21
24.47761529289999
 31
0.0
  0
LINE
  5
41C
330
40C
100
AcDbEntity
  8
WAKU
 62
     6
100
AcDbLine
 10
203.6331999999998
 20
19.9521752929
 30
0.0
 11
280.0
 21
19.9521752929
 31
0.0
  0
LINE
  5
41D
330
40C
100
AcDbEntity
  8
WAKU
 62
     6
100
AcDbLine
 10
203.6331999999998
 20
15.42673599999999
 30
0.0
 11
280.0
 21
15.42673599999999
 31
0.0
  0
LINE
  5
41E
330
40C
100
AcDbEntity
  8
WAKU
100
AcDbLine
 10
203.6331999999998
 20
38.053936
 30
0.0
 11
280.0
 21
38.053936
 31
0.0
  0
LINE
  5
41F
330
40C
100
AcDbEntity
  8
WAKU
100
AcDbLine
 10
203.6331999999998
 20
38.053936
 30
0.0
 11
280.0
 21
38.053936
 31
0.0
  0
LINE
  5
420
330
40C
100
AcDbEntity
  8
WAKU
100
AcDbLine
 10
203.6331999999998
 20
38.053936
 30
0.0
 11
280.0
 21
38.053936
 31
0.0
  0
TEXT
  5
421
330
40C
100
AcDbEntity
  8
WAKU
 62
     6
100
AcDbText
 10
231.4464545235218
 20
12.856420429
 30
0.0
 40
1.76775
  1
SCALE
 41
0.7
100
AcDbText
  0
TEXT
  5
422
330
40C
100
AcDbEntity
  8
TEXT
100
AcDbText
 10
228.8293221750166
 20
29.96641277760619
 30
0.0
 40
2.5
  1
外　形　寸　法　図
100
AcDbText
  0
ATTDEF
  5
423
330
40C
100
AcDbEntity
  8
TEXT
100
AcDbText
 10
241.8165999999999
 20
35.58735183158626
 30
0.0
 40
2.500000000000001
  1

 72
     4
 11
241.8165999999999
 21
35.58735183158626
 31
0.0
100
AcDbAttributeDefinition
  3
タイトル
  2
T　I　T　L　E
 70
     0
  0
LINE
  5
424
330
40C
100
AcDbEntity
  8
WAKU
100
AcDbLine
 10
203.6331999999998
 20
38.053936
 30
0.0
 11
203.6331999999998
 21
3.999999999999998
 31
0.0
  0
LINE
  5
425
330
40C
100
AcDbEntity
  8
WAKU
100
AcDbLine
 10
203.6331999999998
 20
38.053936
 30
0.0
 11
203.6331999999998
 21
3.999999999999998
 31
0.0
  0
LINE
  5
426
330
40C
100
AcDbEntity
  8
WAKU
100
AcDbLine
 10
203.6331999999998
 20
38.053936
 30
0.0
 11
203.6331999999998
 21
3.999999999999998
 31
0.0
  0
TEXT
  5
427
330
40C
100
AcDbEntity
  8
WAKU
 62
     6
100
AcDbText
 10
204.7645642425999
 20
25.805189179
 30
0.0
 40
2.1213
  1
DRAWING  NO.
 41
0.7
100
AcDbText
  0
TEXT
  5
428
330
40C
100
AcDbEntity
  8
WAKU
 62
     6
100
AcDbText
 10
204.7645642425999
 20
16.75430988609998
 30
0.0
 40
2.1213
  1
NOTICE
 41
0.7
100
AcDbText
  0
TEXT
  5
429
330
40C
100
AcDbEntity
  8
WAKU
 62
     6
100
AcDbText
 10
204.8446469479863
 20
12.674695729
 30
0.0
 40
1.8097340625
  1
APPROVE
 41
0.512174
100
AcDbText
  0
TEXT
  5
42A
330
40C
100
AcDbEntity
  8
WAKU
 62
     6
100
AcDbText
 10
204.7645642425999
 20
21.279749179
 30
0.0
 40
2.1213
  1
USER
 41
0.7
100
AcDbText
  0
TEXT
  5
42B
330
40C
100
AcDbEntity
  8
WAKU
 62
     6
100
AcDbText
 10
222.3147516895863
 20
12.6973292929
 30
0.0
 40
1.7832163983
  1
DESIGN
 41
0.5729449999999999
100
AcDbText
  0
LINE
  5
42C
330
40C
100
AcDbEntity
  8
WAKU
 62
     6
100
AcDbLine
 10
212.3823646725999
 20
15.42673599999999
 30
0.0
 11
212.3823646725999
 21
3.999999999999998
 31
0.0
  0
LINE
  5
42D
330
40C
100
AcDbEntity
  8
WAKU
 62
     6
100
AcDbLine
 10
212.3823646725999
 20
15.42673599999999
 30
0.0
 11
212.3823646725999
 21
3.999999999999998
 31
0.0
  0
LINE
  5
42E
330
40C
100
AcDbEntity
  8
WAKU
 62
     6
100
AcDbLine
 10
212.3823646725999
 20
15.42673599999999
 30
0.0
 11
212.3823646725999
 21
3.999999999999998
 31
0.0
  0
LINE
  5
42F
330
40C
100
AcDbEntity
  8
WAKU
 62
     6
100
AcDbLine
 10
221.1033047415999
 20
15.42673599999999
 30
0.0
 11
221.1033047415999
 21
3.999999999999998
 31
0.0
  0
LINE
  5
430
330
40C
100
AcDbEntity
  8
WAKU
 62
     6
100
AcDbLine
 10
221.1033047415999
 20
15.42673599999999
 30
0.0
 11
221.1033047415999
 21
3.999999999999998
 31
0.0
  0
LINE
  5
431
330
40C
100
AcDbEntity
  8
WAKU
 62
     6
100
AcDbLine
 10
221.1033047415999
 20
15.42673599999999
 30
0.0
 11
221.1033047415999
 21
3.999999999999998
 31
0.0
  0
TEXT
  5
432
330
40C
100
AcDbEntity
  8
WAKU
 62
     6
100
AcDbText
 10
213.5938010140863
 20
12.674695729
 30
0.0
 40
1.76775
  1
CHECK
 41
0.7
100
AcDbText
  0
LINE
  5
433
330
40C
100
AcDbEntity
  8
WAKU
 62
     6
100
AcDbLine
 10
229.8241790502999
 20
15.42673599999999
 30
0.0
 11
229.8241790502999
 21
3.999999999999998
 31
0.0
  0
LINE
  5
434
330
40C
100
AcDbEntity
  8
WAKU
 62
     6
100
AcDbLine
 10
229.8241790502999
 20
15.42673599999999
 30
0.0
 11
229.8241790502999
 21
3.999999999999998
 31
0.0
  0
LINE
  5
435
330
40C
100
AcDbEntity
  8
WAKU
 62
     6
100
AcDbLine
 10
229.8241790502999
 20
15.42673599999999
 30
0.0
 11
229.8241790502999
 21
3.999999999999998
 31
0.0
  0
TEXT
  5
436
330
40C
100
AcDbEntity
  8
WAKU
 62
     6
100
AcDbText
 10
204.7645642425999
 20
35.31568488609999
 30
0.0
 40
2.1213
  1
TITLE
 41
0.7
100
AcDbText
  0
ATTDEF
  5
437
330
40C
100
AcDbEntity
  8
TEXT
100
AcDbText
 10
234.056163734276
 20
8.134449518875573
 30
0.0
 40
2.0
  1

 72
     4
 11
234.056163734276
 21
8.134449518875573
 31
0.0
100
AcDbAttributeDefinition
  3
SCALE
  2
FREE
 70
     0
  0
ATTDEF
  5
438
330
40C
100
AcDbEntity
  8
TEXT
100
AcDbText
 10
207.865184683976
 20
8.134449518875573
 30
0.0
 40
2.500000000000004
  1

 72
     4
 11
207.865184683976
 21
8.134449518875573
 31
0.0
100
AcDbAttributeDefinition
  3
承認
  2
海野
 70
     0
  0
ATTDEF
  5
439
330
40C
100
AcDbEntity
  8
TEXT
100
AcDbText
 10
225.335289425576
 20
8.134449518875575
 30
0.0
 40
2.500000000000004
  1

 72
     4
 11
225.335289425576
 21
8.134449518875575
 31
0.0
100
AcDbAttributeDefinition
  3
作成
  2
鳥居
 70
     0
  0
ATTDEF
  5
43A
330
40C
100
AcDbEntity
  8
TEXT
100
AcDbText
 10
216.614349356576
 20
8.134449518875575
 30
0.0
 40
2.500000000000004
  1

 72
     4
 11
216.614349356576
 21
8.134449518875575
 31
0.0
100
AcDbAttributeDefinition
  3
確認
  2
永坂
 70
     0
  0
LINE
  5
43B
330
40C
100
AcDbEntity
  8
WAKU
 62
     6
100
AcDbLine
 10
238.6487948283999
 20
8.638576
 30
0.0
 11
280.0
 21
8.638576
 31
0.0
  0
LINE
  5
43C
330
40C
100
AcDbEntity
  8
WAKU
 62
     6
100
AcDbLine
 10
238.6487948283999
 20
8.638576
 30
0.0
 11
280.0
 21
8.638576
 31
0.0
  0
LINE
  5
43D
330
40C
100
AcDbEntity
  8
WAKU
 62
     6
100
AcDbLine
 10
238.6487948283999
 20
8.638576
 30
0.0
 11
280.0
 21
8.638576
 31
0.0
  0
TEXT
  5
43E
330
40C
100
AcDbEntity
  8
WAKU
 62
     6
100
AcDbText
 10
241.15294501234
 20
5.246258800300003
 30
0.0
 40
2.1213
  1
NISSEI  CORPORATION
100
AcDbText
  0
LINE
  5
43F
330
40C
100
AcDbEntity
  8
WAKU
100
AcDbLine
 10
246.5683127070999
 20
13.02259600000001
 30
0.0
 11
250.5280769496998
 21
14.01253599999999
 31
0.0
  0
LINE
  5
440
330
40C
100
AcDbEntity
  8
WAKU
100
AcDbLine
 10
246.5683127070999
 20
13.02259600000001
 30
0.0
 11
250.5280769496998
 21
14.01253599999999
 31
0.0
  0
LINE
  5
441
330
40C
100
AcDbEntity
  8
WAKU
100
AcDbLine
 10
246.5683127070999
 20
13.02259600000001
 30
0.0
 11
250.5280769496998
 21
14.01253599999999
 31
0.0
  0
LINE
  5
442
330
40C
100
AcDbEntity
  8
WAKU
100
AcDbLine
 10
246.5683127070999
 20
11.0427152929
 30
0.0
 11
250.5280769496998
 21
10.052776
 31
0.0
  0
LINE
  5
443
330
40C
100
AcDbEntity
  8
WAKU
100
AcDbLine
 10
246.5683127070999
 20
11.0427152929
 30
0.0
 11
250.5280769496998
 21
10.052776
 31
0.0
  0
LINE
  5
444
330
40C
100
AcDbEntity
  8
WAKU
100
AcDbLine
 10
246.5683127070999
 20
11.0427152929
 30
0.0
 11
250.5280769496998
 21
10.052776
 31
0.0
  0
LINE
  5
445
330
40C
100
AcDbEntity
  8
CENTER
 62
     6
100
AcDbLine
 10
239.4478107573998
 20
12.0326567071
 30
0.0
 11
251.3624499999998
 21
12.0326567071
 31
0.0
  0
LINE
  5
446
330
40C
100
AcDbEntity
  8
CENTER
 62
     6
100
AcDbLine
 10
239.4478107573998
 20
12.0326567071
 30
0.0
 11
251.3624499999998
 21
12.0326567071
 31
0.0
  0
LINE
  5
447
330
40C
100
AcDbEntity
  8
CENTER
 62
     6
100
AcDbLine
 10
239.4478107573998
 20
12.0326567071
 30
0.0
 11
251.3624499999998
 21
12.0326567071
 31
0.0
  0
LINE
  5
448
330
40C
100
AcDbEntity
  8
WAKU
 62
     6
100
AcDbLine
 10
238.6487948283999
 20
15.42673599999999
 30
0.0
 11
238.6487948283999
 21
3.999999999999998
 31
0.0
  0
LINE
  5
449
330
40C
100
AcDbEntity
  8
WAKU
 62
     6
100
AcDbLine
 10
238.6487948283999
 20
15.42673599999999
 30
0.0
 11
238.6487948283999
 21
3.999999999999998
 31
0.0
  0
LINE
  5
44A
330
40C
100
AcDbEntity
  8
WAKU
 62
     6
100
AcDbLine
 10
238.6487948283999
 20
15.42673599999999
 30
0.0
 11
238.6487948283999
 21
3.999999999999998
 31
0.0
  0
CIRCLE
  5
44B
330
40C
100
AcDbEntity
  8
WAKU
100
AcDbCircle
 10
242.0428769496999
 20
12.0326567071
 30
0.0
 40
0.9899399999999999
  0
CIRCLE
  5
44C
330
40C
100
AcDbEntity
  8
WAKU
100
AcDbCircle
 10
242.0428769496999
 20
12.0326567071
 30
0.0
 40
0.9899399999999999
  0
CIRCLE
  5
44D
330
40C
100
AcDbEntity
  8
WAKU
100
AcDbCircle
 10
242.0428769496999
 20
12.0326567071
 30
0.0
 40
0.9899399999999999
  0
CIRCLE
  5
44E
330
40C
100
AcDbEntity
  8
WAKU
100
AcDbCircle
 10
242.0428769496999
 20
12.0326567071
 30
0.0
 40
1.979879999999999
  0
CIRCLE
  5
44F
330
40C
100
AcDbEntity
  8
WAKU
100
AcDbCircle
 10
242.0428769496999
 20
12.0326567071
 30
0.0
 40
1.979879999999999
  0
CIRCLE
  5
450
330
40C
100
AcDbEntity
  8
WAKU
100
AcDbCircle
 10
242.0428769496999
 20
12.0326567071
 30
0.0
 40
1.979879999999999
  0
LINE
  5
451
330
40C
100
AcDbEntity
  8
WAKU
100
AcDbLine
 10
246.5683127070999
 20
13.02259600000001
 30
0.0
 11
246.5683127070999
 21
11.0427152929
 31
0.0
  0
LINE
  5
452
330
40C
100
AcDbEntity
  8
WAKU
100
AcDbLine
 10
246.5683127070999
 20
13.02259600000001
 30
0.0
 11
246.5683127070999
 21
11.0427152929
 31
0.0
  0
LINE
  5
453
330
40C
100
AcDbEntity
  8
WAKU
100
AcDbLine
 10
246.5683127070999
 20
13.02259600000001
 30
0.0
 11
246.5683127070999
 21
11.0427152929
 31
0.0
  0
LINE
  5
454
330
40C
100
AcDbEntity
  8
CENTER
 62
     6
100
AcDbLine
 10
242.0428769496999
 20
14.96005
 30
0.0
 11
242.0428769496999
 21
9.267895000000009
 31
0.0
  0
LINE
  5
455
330
40C
100
AcDbEntity
  8
CENTER
 62
     6
100
AcDbLine
 10
242.0428769496999
 20
14.96005
 30
0.0
 11
242.0428769496999
 21
9.267895000000009
 31
0.0
  0
LINE
  5
456
330
40C
100
AcDbEntity
  8
CENTER
 62
     6
100
AcDbLine
 10
242.0428769496999
 20
14.96005
 30
0.0
 11
242.0428769496999
 21
9.267895000000009
 31
0.0
  0
TEXT
  5
457
330
40C
100
AcDbEntity
  8
TEXT
100
AcDbText
 10
257.3078171288039
 20
9.492177985111482
 30
0.0
 40
2.0
  1
mm
100
AcDbText
  0
LINE
  5
458
330
40C
100
AcDbEntity
  8
WAKU
 62
     6
100
AcDbLine
 10
252.2251127070999
 20
15.42673599999999
 30
0.0
 11
252.2251127070999
 21
8.638576
 31
0.0
  0
LINE
  5
459
330
40C
100
AcDbEntity
  8
WAKU
 62
     6
100
AcDbLine
 10
252.2251127070999
 20
15.42673599999999
 30
0.0
 11
252.2251127070999
 21
8.638576
 31
0.0
  0
LINE
  5
45A
330
40C
100
AcDbEntity
  8
WAKU
 62
     6
100
AcDbLine
 10
252.2251127070999
 20
15.42673599999999
 30
0.0
 11
252.2251127070999
 21
8.638576
 31
0.0
  0
LINE
  5
45B
330
40C
100
AcDbEntity
  8
WAKU
100
AcDbLine
 10
250.5280769496998
 20
14.01253599999999
 30
0.0
 11
250.5280769496998
 21
10.052776
 31
0.0
  0
LINE
  5
45C
330
40C
100
AcDbEntity
  8
WAKU
100
AcDbLine
 10
250.5280769496998
 20
14.01253599999999
 30
0.0
 11
250.5280769496998
 21
10.052776
 31
0.0
  0
LINE
  5
45D
330
40C
100
AcDbEntity
  8
WAKU
100
AcDbLine
 10
250.5280769496998
 20
14.01253599999999
 30
0.0
 11
250.5280769496998
 21
10.052776
 31
0.0
  0
TEXT
  5
45E
330
40C
100
AcDbEntity
  8
WAKU
 62
     6
100
AcDbText
 10
253.4130357573999
 20
13.0508792929
 30
0.0
 40
1.76775
  1
UNIT
 41
0.7
100
AcDbText
  0
TEXT
  5
45F
330
40C
100
AcDbEntity
  8
WAKU
 62
     6
100
AcDbText
 10
266.9893642426
 20
13.0508792929
 30
0.0
 40
1.76775
  1
DATE
 41
0.7
100
AcDbText
  0
LINE
  5
460
330
40C
100
AcDbEntity
  8
WAKU
 62
     6
100
AcDbLine
 10
265.7448611715999
 20
15.42673599999999
 30
0.0
 11
265.7448611715999
 21
8.638576
 31
0.0
  0
LINE
  5
461
330
40C
100
AcDbEntity
  8
WAKU
 62
     6
100
AcDbLine
 10
265.7448611715999
 20
15.42673599999999
 30
0.0
 11
265.7448611715999
 21
8.638576
 31
0.0
  0
LINE
  5
462
330
40C
100
AcDbEntity
  8
WAKU
 62
     6
100
AcDbLine
 10
265.7448611715999
 20
15.42673599999999
 30
0.0
 11
265.7448611715999
 21
8.638576
 31
0.0
  0
ENDBLK
  5
464
330
40C
100
AcDbEntity
  8
0
100
AcDbBlockEnd
  0
BLOCK
  5
4DE
330
4DC
100
AcDbEntity
  8
0
100
AcDbBlockBegin
  2
1
 70
     0
 10
0.0
 20
0.0
 30
0.0
  3
1
  1

  0
TEXT
  5
4DD
330
4DC
100
AcDbEntity
  8
0
100
AcDbText
 10
0.0
 20
0.0
 30
0.0
 40
2.0
  1
注。出力軸キーは JIS B 1301-1976平行キーに依ります。
100
AcDbText
  0
ENDBLK
  5
4DF
330
4DC
100
AcDbEntity
  8
0
100
AcDbBlockEnd
  0
BLOCK
  5
1532
330
151A
100
AcDbEntity
  8
0
100
AcDbBlockBegin
  2
GSPEC_H-28R-600-900
 70
     0
 10
0.0
 20
0.0
 30
0.0
  3
GSPEC_H-28R-600-900
  1

  0
LINE
  5
151B
330
151A
100
AcDbEntity
  8
0
100
AcDbLine
 10
131.0
 20
20.32250000000001
 30
0.0
 11
183.0
 21
20.32250000000001
 31
0.0
  0
LINE
  5
151C
330
151A
100
AcDbEntity
  8
0
100
AcDbLine
 10
131.0
 20
16.78700000000002
 30
0.0
 11
183.0
 21
16.78700000000002
 31
0.0
  0
LINE
  5
151D
330
151A
100
AcDbEntity
  8
0
100
AcDbLine
 10
131.0
 20
23.85799999999999
 30
0.0
 11
183.0
 21
23.85799999999999
 31
0.0
  0
LINE
  5
151E
330
151A
100
AcDbEntity
  8
0
100
AcDbLine
 10
131.0
 20
34.46450000000001
 30
0.0
 11
183.0
 21
34.46450000000001
 31
0.0
  0
LINE
  5
151F
330
151A
100
AcDbEntity
  8
0
100
AcDbLine
 10
131.0
 20
30.929
 30
0.0
 11
183.0
 21
30.92899999999997
 31
0.0
  0
LINE
  5
1520
330
151A
100
AcDbEntity
  8
0
100
AcDbLine
 10
131.0
 20
38.0
 30
0.0
 11
183.0
 21
38.0
 31
0.0
  0
LINE
  5
1521
330
151A
100
AcDbEntity
  8
0
100
AcDbLine
 10
131.0
 20
16.78700000000002
 30
0.0
 11
131.0
 21
38.0
 31
0.0
  0
TEXT
  5
1522
330
151A
100
AcDbEntity
  8
0
100
AcDbText
 10
131.6780944417463
 20
21.0296
 30
0.0
 40
2.0
  1
潤滑
100
AcDbText
  0
TEXT
  5
1523
330
151A
100
AcDbEntity
  8
0
100
AcDbText
 10
131.6780944417462
 20
17.40054220928055
 30
0.0
 40
2.0
  1
塗色
100
AcDbText
  0
TEXT
  5
1524
330
151A
100
AcDbEntity
  8
0
100
AcDbText
 10
131.6780944417462
 20
26.36442426805074
 30
0.0
 40
2.0
  1
減速比
100
AcDbText
  0
TEXT
  5
1525
330
151A
100
AcDbEntity
  8
0
100
AcDbText
 10
131.6780944417462
 20
31.6361
 30
0.0
 40
2.0
  1
枠番
100
AcDbText
  0
TEXT
  5
1526
330
151A
100
AcDbEntity
  8
0
100
AcDbText
 10
131.6780944417462
 20
35.17159999999998
 30
0.0
 40
2.0
  1
名称
100
AcDbText
  0
LINE
  5
1527
330
151A
100
AcDbEntity
  8
0
100
AcDbLine
 10
183.0
 20
16.78700000000002
 30
0.0
 11
183.0
 21
38.0
 31
0.0
  0
LINE
  5
1528
330
151A
100
AcDbEntity
  8
0
100
AcDbLine
 10
142.5
 20
20.32250000000001
 30
0.0
 11
142.5
 21
38.0
 31
0.0
  0
TEXT
  5
1529
330
151A
100
AcDbEntity
  8
0
100
AcDbText
 10
143.3531994322572
 20
28.10060000000001
 30
0.0
 40
2.0
  1
1/600 1/750 1/900 
100
AcDbText
  0
TEXT
  5
152A
330
151A
100
AcDbEntity
  8
0
100
AcDbText
 10
143.3531994322572
 20
17.49409999999999
 30
0.0
 40
2.0
  1
グレー（マンセル値 9B6/0.5）
100
AcDbText
  0
TEXT
  5
152B
330
151A
100
AcDbEntity
  8
0
100
AcDbText
 10
143.3531994322572
 20
21.0296
 30
0.0
 40
2.0
  1
グリース
100
AcDbText
  0
LINE
  5
152C
330
151A
100
AcDbEntity
  8
0
100
AcDbLine
 10
150.4725366217368
 20
39.41419999999999
 30
0.0
 11
163.5274633782631
 21
39.41419999999999
 31
0.0
  0
LINE
  5
152D
330
151A
100
AcDbEntity
  8
0
100
AcDbLine
 10
150.4725366217368
 20
40.12129999999999
 30
0.0
 11
163.5274633782631
 21
40.12129999999999
 31
0.0
  0
TEXT
  5
152E
330
151A
100
AcDbEntity
  8
0
100
AcDbText
 10
151.1299348544099
 20
40.47485
 30
0.0
 40
2.0
  1
減速機仕様
100
AcDbText
  0
TEXT
  5
152F
330
151A
100
AcDbEntity
  8
0
100
AcDbText
 10
143.3531994322572
 20
31.6361
 30
0.0
 40
2.0
  1
28R
100
AcDbText
  0
TEXT
  5
1530
330
151A
100
AcDbEntity
  8
0
100
AcDbText
 10
143.3531994322572
 20
35.17159999999998
 30
0.0
 40
2.0
  1
GTR
100
AcDbText
  0
LINE
  5
1531
330
151A
100
AcDbEntity
  8
0
100
AcDbLine
 10
142.5
 20
27.39349999999995
 30
0.0
 11
183.0
 21
27.39349999999993
 31
0.0
  0
ENDBLK
  5
1533
330
151A
100
AcDbEntity
  8
0
100
AcDbBlockEnd
  0
BLOCK
  5
1577
330
155F
100
AcDbEntity
  8
0
100
AcDbBlockBegin
  2
GSPEC_H-28R-300-450
 70
     0
 10
0.0
 20
0.0
 30
0.0
  3
GSPEC_H-28R-300-450
  1

  0
LINE
  5
1560
330
155F
100
AcDbEntity
  8
0
100
AcDbLine
 10
131.0
 20
20.3225
 30
0.0
 11
183.0
 21
20.3225
 31
0.0
  0
LINE
  5
1561
330
155F
100
AcDbEntity
  8
0
100
AcDbLine
 10
131.0
 20
16.78700000000002
 30
0.0
 11
183.0
 21
16.78700000000002
 31
0.0
  0
LINE
  5
1562
330
155F
100
AcDbEntity
  8
0
100
AcDbLine
 10
131.0
 20
23.85799999999999
 30
0.0
 11
183.0
 21
23.85799999999999
 31
0.0
  0
LINE
  5
1563
330
155F
100
AcDbEntity
  8
0
100
AcDbLine
 10
131.0
 20
34.46450000000001
 30
0.0
 11
183.0
 21
34.46450000000001
 31
0.0
  0
LINE
  5
1564
330
155F
100
AcDbEntity
  8
0
100
AcDbLine
 10
131.0
 20
30.929
 30
0.0
 11
183.0
 21
30.92899999999997
 31
0.0
  0
LINE
  5
1565
330
155F
100
AcDbEntity
  8
0
100
AcDbLine
 10
131.0
 20
38.0
 30
0.0
 11
183.0
 21
38.0
 31
0.0
  0
LINE
  5
1566
330
155F
100
AcDbEntity
  8
0
100
AcDbLine
 10
131.0
 20
16.78700000000002
 30
0.0
 11
131.0
 21
38.0
 31
0.0
  0
TEXT
  5
1567
330
155F
100
AcDbEntity
  8
0
100
AcDbText
 10
131.6780944417463
 20
21.0296
 30
0.0
 40
2.0
  1
潤滑
100
AcDbText
  0
TEXT
  5
1568
330
155F
100
AcDbEntity
  8
0
100
AcDbText
 10
131.6780944417462
 20
17.40054220928054
 30
0.0
 40
2.0
  1
塗色
100
AcDbText
  0
TEXT
  5
1569
330
155F
100
AcDbEntity
  8
0
100
AcDbText
 10
131.6780944417462
 20
26.36442426805074
 30
0.0
 40
2.0
  1
減速比
100
AcDbText
  0
TEXT
  5
156A
330
155F
100
AcDbEntity
  8
0
100
AcDbText
 10
131.6780944417462
 20
31.6361
 30
0.0
 40
2.0
  1
枠番
100
AcDbText
  0
TEXT
  5
156B
330
155F
100
AcDbEntity
  8
0
100
AcDbText
 10
131.6780944417462
 20
35.17159999999998
 30
0.0
 40
2.0
  1
名称
100
AcDbText
  0
LINE
  5
156C
330
155F
100
AcDbEntity
  8
0
100
AcDbLine
 10
183.0
 20
16.78700000000002
 30
0.0
 11
183.0
 21
38.0
 31
0.0
  0
LINE
  5
156D
330
155F
100
AcDbEntity
  8
0
100
AcDbLine
 10
142.5
 20
16.78700000000002
 30
0.0
 11
142.5
 21
38.0
 31
0.0
  0
TEXT
  5
156E
330
155F
100
AcDbEntity
  8
0
100
AcDbText
 10
143.3531994322572
 20
28.10060000000001
 30
0.0
 40
2.0
  1
1/300 1/375 1/450 
100
AcDbText
  0
TEXT
  5
156F
330
155F
100
AcDbEntity
  8
0
100
AcDbText
 10
143.3531994322572
 20
17.49409999999999
 30
0.0
 40
2.0
  1
グレー（マンセル値 9B6/0.5）
100
AcDbText
  0
TEXT
  5
1570
330
155F
100
AcDbEntity
  8
0
100
AcDbText
 10
143.3531994322572
 20
21.0296
 30
0.0
 40
2.0
  1
グリース
100
AcDbText
  0
LINE
  5
1571
330
155F
100
AcDbEntity
  8
0
100
AcDbLine
 10
150.4725366217368
 20
39.41419999999999
 30
0.0
 11
163.5274633782631
 21
39.41419999999999
 31
0.0
  0
LINE
  5
1572
330
155F
100
AcDbEntity
  8
0
100
AcDbLine
 10
150.4725366217368
 20
40.12129999999999
 30
0.0
 11
163.5274633782631
 21
40.12129999999999
 31
0.0
  0
TEXT
  5
1573
330
155F
100
AcDbEntity
  8
0
100
AcDbText
 10
151.1299348544099
 20
40.47485
 30
0.0
 40
2.0
  1
減速機仕様
100
AcDbText
  0
TEXT
  5
1574
330
155F
100
AcDbEntity
  8
0
100
AcDbText
 10
143.3531994322572
 20
31.6361
 30
0.0
 40
2.0
  1
28R
100
AcDbText
  0
TEXT
  5
1575
330
155F
100
AcDbEntity
  8
0
100
AcDbText
 10
143.3531994322572
 20
35.17159999999998
 30
0.0
 40
2.0
  1
GTR
100
AcDbText
  0
LINE
  5
1576
330
155F
100
AcDbEntity
  8
0
100
AcDbLine
 10
142.5
 20
27.39349999999995
 30
0.0
 11
183.0
 21
27.39349999999993
 31
0.0
  0
ENDBLK
  5
1578
330
155F
100
AcDbEntity
  8
0
100
AcDbBlockEnd
  0
BLOCK
  5
17DA
330
17B7
100
AcDbEntity
  8
0
100
AcDbBlockBegin
  2
MSPEC_S60WF-90
 70
     0
 10
0.0
 20
0.0
 30
0.0
  3
MSPEC_S60WF-90
  1

  0
LINE
  5
17B8
330
17B7
100
AcDbEntity
  8
0
100
AcDbLine
 10
126.0
 20
6.180499999999994
 30
0.0
 11
126.0
 21
37.99999999999997
 31
0.0
  0
TEXT
  5
17B9
330
17B7
100
AcDbEntity
  8
0
100
AcDbText
 10
86.35319943225727
 20
28.10060000000001
 30
0.0
 40
2.0
  1
60 W
100
AcDbText
  0
TEXT
  5
17BA
330
17B7
100
AcDbEntity
  8
0
100
AcDbText
 10
74.67809444174623
 20
28.10059999999998
 30
0.0
 40
2.0
  1
出力
100
AcDbText
  0
LINE
  5
17BB
330
17B7
100
AcDbEntity
  8
0
100
AcDbLine
 10
85.5
 20
6.180499999999994
 30
0.0
 11
85.5
 21
38.0
 31
0.0
  0
LINE
  5
17BC
330
17B7
100
AcDbEntity
  8
0
100
AcDbLine
 10
73.99999999999998
 20
6.180500000000023
 30
0.0
 11
74.0
 21
38.0
 31
0.0
  0
TEXT
  5
17BD
330
17B7
100
AcDbEntity
  8
0
100
AcDbText
 10
86.35319943225727
 20
13.95859999999993
 30
0.0
 40
2.0
  1
1500/1800 rpm
100
AcDbText
  0
LINE
  5
17BE
330
17B7
100
AcDbEntity
  8
0
100
AcDbLine
 10
74.0
 20
6.180500000000023
 30
0.0
 11
126.0
 21
6.180499999999994
 31
0.0
  0
LINE
  5
17BF
330
17B7
100
AcDbEntity
  8
0
100
AcDbLine
 10
74.0
 20
9.716000000000008
 30
0.0
 11
126.0
 21
9.715999999999979
 31
0.0
  0
LINE
  5
17C0
330
17B7
100
AcDbEntity
  8
0
100
AcDbLine
 10
74.0
 20
13.25149999999999
 30
0.0
 11
126.0
 21
13.25149999999996
 31
0.0
  0
LINE
  5
17C1
330
17B7
100
AcDbEntity
  8
0
100
AcDbLine
 10
74.0
 20
23.85799999999994
 30
0.0
 11
126.0
 21
23.85799999999992
 31
0.0
  0
LINE
  5
17C2
330
17B7
100
AcDbEntity
  8
0
100
AcDbLine
 10
74.0
 20
16.78699999999997
 30
0.0
 11
126.0
 21
16.78699999999994
 31
0.0
  0
LINE
  5
17C3
330
17B7
100
AcDbEntity
  8
0
100
AcDbLine
 10
74.0
 20
20.32249999999996
 30
0.0
 11
126.0
 21
20.32249999999993
 31
0.0
  0
LINE
  5
17C4
330
17B7
100
AcDbEntity
  8
0
100
AcDbLine
 10
74.0
 20
27.39349999999999
 30
0.0
 11
126.0
 21
27.39349999999996
 31
0.0
  0
TEXT
  5
17C5
330
17B7
100
AcDbEntity
  8
0
100
AcDbText
 10
86.35319943225727
 20
24.56510000000003
 30
0.0
 40
2.0
  1
200 V
100
AcDbText
  0
TEXT
  5
17C6
330
17B7
100
AcDbEntity
  8
0
100
AcDbText
 10
86.35319943225727
 20
21.02959999999995
 30
0.0
 40
2.0
  1
50/60 Hz
100
AcDbText
  0
TEXT
  5
17C7
330
17B7
100
AcDbEntity
  8
0
100
AcDbText
 10
74.67809444174623
 20
10.3295422092805
 30
0.0
 40
2.0
  1
定格
100
AcDbText
  0
TEXT
  5
17C8
330
17B7
100
AcDbEntity
  8
0
100
AcDbText
 10
74.67809444174623
 20
6.794042209280519
 30
0.0
 40
2.0
  1
絶縁
100
AcDbText
  0
TEXT
  5
17C9
330
17B7
100
AcDbEntity
  8
0
100
AcDbText
 10
86.35319943225727
 20
10.42309999999994
 30
0.0
 40
2.0
  1
連続
100
AcDbText
  0
TEXT
  5
17CA
330
17B7
100
AcDbEntity
  8
0
100
AcDbText
 10
86.35319943225727
 20
6.887599999999963
 30
0.0
 40
2.0
  1
E種
100
AcDbText
  0
TEXT
  5
17CB
330
17B7
100
AcDbEntity
  8
0
100
AcDbText
 10
74.67809444174623
 20
13.86504220928048
 30
0.0
 40
2.0
  1
回転速度
100
AcDbText
  0
TEXT
  5
17CC
330
17B7
100
AcDbEntity
  8
0
100
AcDbText
 10
74.67809444174633
 20
21.02959999999995
 30
0.0
 40
2.0
  1
周波数
100
AcDbText
  0
TEXT
  5
17CD
330
17B7
100
AcDbEntity
  8
0
100
AcDbText
 10
74.67809444174623
 20
17.4005422092805
 30
0.0
 40
2.0
  1
極数
100
AcDbText
  0
TEXT
  5
17CE
330
17B7
100
AcDbEntity
  8
0
100
AcDbText
 10
74.67809444174623
 20
24.56509999999997
 30
0.0
 40
2.0
  1
電圧
100
AcDbText
  0
TEXT
  5
17CF
330
17B7
100
AcDbEntity
  8
0
100
AcDbText
 10
86.35319943225727
 20
17.49409999999994
 30
0.0
 40
2.0
  1
4
100
AcDbText
  0
TEXT
  5
17D0
330
17B7
100
AcDbEntity
  8
0
100
AcDbText
 10
86.35319943225727
 20
31.6361
 30
0.0
 40
2.0
  1
全閉外扇形（ｺﾝﾃﾞﾝｻﾗﾝ）DS-90
100
AcDbText
  0
LINE
  5
17D1
330
17B7
100
AcDbEntity
  8
0
100
AcDbLine
 10
74.0
 20
38.0
 30
0.0
 11
126.0
 21
37.99999999999997
 31
0.0
  0
LINE
  5
17D2
330
17B7
100
AcDbEntity
  8
0
100
AcDbLine
 10
74.0
 20
30.929
 30
0.0
 11
126.0
 21
30.92899999999994
 31
0.0
  0
LINE
  5
17D3
330
17B7
100
AcDbEntity
  8
0
100
AcDbLine
 10
74.0
 20
34.46450000000001
 30
0.0
 11
126.0
 21
34.46449999999998
 31
0.0
  0
TEXT
  5
17D4
330
17B7
100
AcDbEntity
  8
0
100
AcDbText
 10
86.35319943225727
 20
35.17159999999998
 30
0.0
 40
2.0
  1
単相誘導電動機
100
AcDbText
  0
TEXT
  5
17D5
330
17B7
100
AcDbEntity
  8
0
100
AcDbText
 10
74.67809444174623
 20
31.6361
 30
0.0
 40
2.0
  1
型式
100
AcDbText
  0
TEXT
  5
17D6
330
17B7
100
AcDbEntity
  8
0
100
AcDbText
 10
74.67809444174623
 20
35.17159999999998
 30
0.0
 40
2.0
  1
名称
100
AcDbText
  0
LINE
  5
17D7
330
17B7
100
AcDbEntity
  8
0
100
AcDbLine
 10
93.80123573807338
 20
40.12129999999999
 30
0.0
 11
106.1987642619266
 21
40.12129999999999
 31
0.0
  0
LINE
  5
17D8
330
17B7
100
AcDbEntity
  8
0
100
AcDbLine
 10
93.80123573807338
 20
39.41419999999999
 30
0.0
 11
106.1987642619266
 21
39.41419999999999
 31
0.0
  0
TEXT
  5
17D9
330
17B7
100
AcDbEntity
  8
0
100
AcDbText
 10
93.99902987649658
 20
40.47485
 30
0.0
 40
2.0
  1
モータ仕様
100
AcDbText
  0
ENDBLK
  5
17DB
330
17B7
100
AcDbEntity
  8
0
100
AcDbBlockEnd
  0
BLOCK
  5
1804
330
17E1
100
AcDbEntity
  8
0
100
AcDbBlockBegin
  2
MSPEC_S90F-90
 70
     0
 10
0.0
 20
0.0
 30
0.0
  3
MSPEC_S90F-90
  1

  0
LINE
  5
17E2
330
17E1
100
AcDbEntity
  8
0
100
AcDbLine
 10
126.0
 20
6.180499999999994
 30
0.0
 11
126.0
 21
37.99999999999997
 31
0.0
  0
TEXT
  5
17E3
330
17E1
100
AcDbEntity
  8
0
100
AcDbText
 10
86.35319943225727
 20
28.10060000000001
 30
0.0
 40
2.0
  1
90 W
100
AcDbText
  0
TEXT
  5
17E4
330
17E1
100
AcDbEntity
  8
0
100
AcDbText
 10
74.67809444174623
 20
28.10059999999998
 30
0.0
 40
2.0
  1
出力
100
AcDbText
  0
LINE
  5
17E5
330
17E1
100
AcDbEntity
  8
0
100
AcDbLine
 10
85.5
 20
6.180499999999994
 30
0.0
 11
85.5
 21
38.0
 31
0.0
  0
LINE
  5
17E6
330
17E1
100
AcDbEntity
  8
0
100
AcDbLine
 10
73.99999999999998
 20
6.180500000000023
 30
0.0
 11
74.0
 21
38.0
 31
0.0
  0
TEXT
  5
17E7
330
17E1
100
AcDbEntity
  8
0
100
AcDbText
 10
86.35319943225727
 20
13.95859999999993
 30
0.0
 40
2.0
  1
1500/1800 rpm
100
AcDbText
  0
LINE
  5
17E8
330
17E1
100
AcDbEntity
  8
0
100
AcDbLine
 10
74.0
 20
6.180500000000023
 30
0.0
 11
126.0
 21
6.180499999999994
 31
0.0
  0
LINE
  5
17E9
330
17E1
100
AcDbEntity
  8
0
100
AcDbLine
 10
74.0
 20
9.716000000000008
 30
0.0
 11
126.0
 21
9.715999999999979
 31
0.0
  0
LINE
  5
17EA
330
17E1
100
AcDbEntity
  8
0
100
AcDbLine
 10
74.0
 20
13.25149999999999
 30
0.0
 11
126.0
 21
13.25149999999996
 31
0.0
  0
LINE
  5
17EB
330
17E1
100
AcDbEntity
  8
0
100
AcDbLine
 10
74.0
 20
23.85799999999994
 30
0.0
 11
126.0
 21
23.85799999999992
 31
0.0
  0
LINE
  5
17EC
330
17E1
100
AcDbEntity
  8
0
100
AcDbLine
 10
74.0
 20
16.78699999999997
 30
0.0
 11
126.0
 21
16.78699999999994
 31
0.0
  0
LINE
  5
17ED
330
17E1
100
AcDbEntity
  8
0
100
AcDbLine
 10
74.0
 20
20.32249999999996
 30
0.0
 11
126.0
 21
20.32249999999993
 31
0.0
  0
LINE
  5
17EE
330
17E1
100
AcDbEntity
  8
0
100
AcDbLine
 10
74.0
 20
27.39349999999999
 30
0.0
 11
126.0
 21
27.39349999999996
 31
0.0
  0
TEXT
  5
17EF
330
17E1
100
AcDbEntity
  8
0
100
AcDbText
 10
86.35319943225727
 20
24.56510000000003
 30
0.0
 40
2.0
  1
100 V
100
AcDbText
  0
TEXT
  5
17F0
330
17E1
100
AcDbEntity
  8
0
100
AcDbText
 10
86.35319943225727
 20
21.02959999999995
 30
0.0
 40
2.0
  1
50/60 Hz
100
AcDbText
  0
TEXT
  5
17F1
330
17E1
100
AcDbEntity
  8
0
100
AcDbText
 10
74.67809444174623
 20
10.3295422092805
 30
0.0
 40
2.0
  1
定格
100
AcDbText
  0
TEXT
  5
17F2
330
17E1
100
AcDbEntity
  8
0
100
AcDbText
 10
74.67809444174623
 20
6.794042209280519
 30
0.0
 40
2.0
  1
絶縁
100
AcDbText
  0
TEXT
  5
17F3
330
17E1
100
AcDbEntity
  8
0
100
AcDbText
 10
86.35319943225727
 20
10.42309999999994
 30
0.0
 40
2.0
  1
連続
100
AcDbText
  0
TEXT
  5
17F4
330
17E1
100
AcDbEntity
  8
0
100
AcDbText
 10
86.35319943225727
 20
6.887599999999963
 30
0.0
 40
2.0
  1
E種
100
AcDbText
  0
TEXT
  5
17F5
330
17E1
100
AcDbEntity
  8
0
100
AcDbText
 10
74.67809444174623
 20
13.86504220928048
 30
0.0
 40
2.0
  1
回転速度
100
AcDbText
  0
TEXT
  5
17F6
330
17E1
100
AcDbEntity
  8
0
100
AcDbText
 10
74.67809444174633
 20
21.02959999999995
 30
0.0
 40
2.0
  1
周波数
100
AcDbText
  0
TEXT
  5
17F7
330
17E1
100
AcDbEntity
  8
0
100
AcDbText
 10
74.67809444174623
 20
17.4005422092805
 30
0.0
 40
2.0
  1
極数
100
AcDbText
  0
TEXT
  5
17F8
330
17E1
100
AcDbEntity
  8
0
100
AcDbText
 10
74.67809444174623
 20
24.56509999999997
 30
0.0
 40
2.0
  1
電圧
100
AcDbText
  0
TEXT
  5
17F9
330
17E1
100
AcDbEntity
  8
0
100
AcDbText
 10
86.35319943225727
 20
17.49409999999994
 30
0.0
 40
2.0
  1
4
100
AcDbText
  0
TEXT
  5
17FA
330
17E1
100
AcDbEntity
  8
0
100
AcDbText
 10
86.35319943225727
 20
31.6361
 30
0.0
 40
2.0
  1
全閉外扇形（ｺﾝﾃﾞﾝｻﾗﾝ）DS-90
100
AcDbText
  0
LINE
  5
17FB
330
17E1
100
AcDbEntity
  8
0
100
AcDbLine
 10
74.0
 20
38.0
 30
0.0
 11
126.0
 21
37.99999999999997
 31
0.0
  0
LINE
  5
17FC
330
17E1
100
AcDbEntity
  8
0
100
AcDbLine
 10
74.0
 20
30.929
 30
0.0
 11
126.0
 21
30.92899999999994
 31
0.0
  0
LINE
  5
17FD
330
17E1
100
AcDbEntity
  8
0
100
AcDbLine
 10
74.0
 20
34.46450000000001
 30
0.0
 11
126.0
 21
34.46449999999998
 31
0.0
  0
TEXT
  5
17FE
330
17E1
100
AcDbEntity
  8
0
100
AcDbText
 10
86.35319943225727
 20
35.17159999999998
 30
0.0
 40
2.0
  1
単相誘導電動機
100
AcDbText
  0
TEXT
  5
17FF
330
17E1
100
AcDbEntity
  8
0
100
AcDbText
 10
74.67809444174623
 20
31.6361
 30
0.0
 40
2.0
  1
型式
100
AcDbText
  0
TEXT
  5
1800
330
17E1
100
AcDbEntity
  8
0
100
AcDbText
 10
74.67809444174623
 20
35.17159999999998
 30
0.0
 40
2.0
  1
名称
100
AcDbText
  0
LINE
  5
1801
330
17E1
100
AcDbEntity
  8
0
100
AcDbLine
 10
93.80123573807338
 20
40.12129999999999
 30
0.0
 11
106.1987642619266
 21
40.12129999999999
 31
0.0
  0
LINE
  5
1802
330
17E1
100
AcDbEntity
  8
0
100
AcDbLine
 10
93.80123573807338
 20
39.41419999999999
 30
0.0
 11
106.1987642619266
 21
39.41419999999999
 31
0.0
  0
TEXT
  5
1803
330
17E1
100
AcDbEntity
  8
0
100
AcDbText
 10
93.99902987649658
 20
40.47485
 30
0.0
 40
2.0
  1
モータ仕様
100
AcDbText
  0
ENDBLK
  5
1805
330
17E1
100
AcDbEntity
  8
0
100
AcDbBlockEnd
  0
BLOCK
  5
182A
330
1807
100
AcDbEntity
  8
0
100
AcDbBlockBegin
  2
MSPEC_S90WF-90
 70
     0
 10
0.0
 20
0.0
 30
0.0
  3
MSPEC_S90WF-90
  1

  0
LINE
  5
1808
330
1807
100
AcDbEntity
  8
0
100
AcDbLine
 10
126.0
 20
6.180499999999994
 30
0.0
 11
126.0
 21
37.99999999999997
 31
0.0
  0
TEXT
  5
1809
330
1807
100
AcDbEntity
  8
0
100
AcDbText
 10
86.35319943225727
 20
28.10060000000001
 30
0.0
 40
2.0
  1
90 W
100
AcDbText
  0
TEXT
  5
180A
330
1807
100
AcDbEntity
  8
0
100
AcDbText
 10
74.67809444174623
 20
28.10059999999998
 30
0.0
 40
2.0
  1
出力
100
AcDbText
  0
LINE
  5
180B
330
1807
100
AcDbEntity
  8
0
100
AcDbLine
 10
85.5
 20
6.180499999999994
 30
0.0
 11
85.5
 21
38.0
 31
0.0
  0
LINE
  5
180C
330
1807
100
AcDbEntity
  8
0
100
AcDbLine
 10
73.99999999999998
 20
6.180500000000023
 30
0.0
 11
74.0
 21
38.0
 31
0.0
  0
TEXT
  5
180D
330
1807
100
AcDbEntity
  8
0
100
AcDbText
 10
86.35319943225727
 20
13.95859999999993
 30
0.0
 40
2.0
  1
1500/1800 rpm
100
AcDbText
  0
LINE
  5
180E
330
1807
100
AcDbEntity
  8
0
100
AcDbLine
 10
74.0
 20
6.180500000000023
 30
0.0
 11
126.0
 21
6.180499999999994
 31
0.0
  0
LINE
  5
180F
330
1807
100
AcDbEntity
  8
0
100
AcDbLine
 10
74.0
 20
9.716000000000008
 30
0.0
 11
126.0
 21
9.715999999999979
 31
0.0
  0
LINE
  5
1810
330
1807
100
AcDbEntity
  8
0
100
AcDbLine
 10
74.0
 20
13.25149999999999
 30
0.0
 11
126.0
 21
13.25149999999996
 31
0.0
  0
LINE
  5
1811
330
1807
100
AcDbEntity
  8
0
100
AcDbLine
 10
74.0
 20
23.85799999999994
 30
0.0
 11
126.0
 21
23.85799999999992
 31
0.0
  0
LINE
  5
1812
330
1807
100
AcDbEntity
  8
0
100
AcDbLine
 10
74.0
 20
16.78699999999997
 30
0.0
 11
126.0
 21
16.78699999999994
 31
0.0
  0
LINE
  5
1813
330
1807
100
AcDbEntity
  8
0
100
AcDbLine
 10
74.0
 20
20.32249999999996
 30
0.0
 11
126.0
 21
20.32249999999993
 31
0.0
  0
LINE
  5
1814
330
1807
100
AcDbEntity
  8
0
100
AcDbLine
 10
74.0
 20
27.39349999999999
 30
0.0
 11
126.0
 21
27.39349999999996
 31
0.0
  0
TEXT
  5
1815
330
1807
100
AcDbEntity
  8
0
100
AcDbText
 10
86.35319943225727
 20
24.56510000000003
 30
0.0
 40
2.0
  1
200 V
100
AcDbText
  0
TEXT
  5
1816
330
1807
100
AcDbEntity
  8
0
100
AcDbText
 10
86.35319943225727
 20
21.02959999999995
 30
0.0
 40
2.0
  1
50/60 Hz
100
AcDbText
  0
TEXT
  5
1817
330
1807
100
AcDbEntity
  8
0
100
AcDbText
 10
74.67809444174623
 20
10.3295422092805
 30
0.0
 40
2.0
  1
定格
100
AcDbText
  0
TEXT
  5
1818
330
1807
100
AcDbEntity
  8
0
100
AcDbText
 10
74.67809444174623
 20
6.794042209280519
 30
0.0
 40
2.0
  1
絶縁
100
AcDbText
  0
TEXT
  5
1819
330
1807
100
AcDbEntity
  8
0
100
AcDbText
 10
86.35319943225727
 20
10.42309999999994
 30
0.0
 40
2.0
  1
連続
100
AcDbText
  0
TEXT
  5
181A
330
1807
100
AcDbEntity
  8
0
100
AcDbText
 10
86.35319943225727
 20
6.887599999999963
 30
0.0
 40
2.0
  1
E種
100
AcDbText
  0
TEXT
  5
181B
330
1807
100
AcDbEntity
  8
0
100
AcDbText
 10
74.67809444174623
 20
13.86504220928048
 30
0.0
 40
2.0
  1
回転速度
100
AcDbText
  0
TEXT
  5
181C
330
1807
100
AcDbEntity
  8
0
100
AcDbText
 10
74.67809444174633
 20
21.02959999999995
 30
0.0
 40
2.0
  1
周波数
100
AcDbText
  0
TEXT
  5
181D
330
1807
100
AcDbEntity
  8
0
100
AcDbText
 10
74.67809444174623
 20
17.4005422092805
 30
0.0
 40
2.0
  1
極数
100
AcDbText
  0
TEXT
  5
181E
330
1807
100
AcDbEntity
  8
0
100
AcDbText
 10
74.67809444174623
 20
24.56509999999997
 30
0.0
 40
2.0
  1
電圧
100
AcDbText
  0
TEXT
  5
181F
330
1807
100
AcDbEntity
  8
0
100
AcDbText
 10
86.35319943225727
 20
17.49409999999994
 30
0.0
 40
2.0
  1
4
100
AcDbText
  0
TEXT
  5
1820
330
1807
100
AcDbEntity
  8
0
100
AcDbText
 10
86.35319943225727
 20
31.6361
 30
0.0
 40
2.0
  1
全閉外扇形（ｺﾝﾃﾞﾝｻﾗﾝ）DS-90
100
AcDbText
  0
LINE
  5
1821
330
1807
100
AcDbEntity
  8
0
100
AcDbLine
 10
74.0
 20
38.0
 30
0.0
 11
126.0
 21
37.99999999999997
 31
0.0
  0
LINE
  5
1822
330
1807
100
AcDbEntity
  8
0
100
AcDbLine
 10
74.0
 20
30.929
 30
0.0
 11
126.0
 21
30.92899999999994
 31
0.0
  0
LINE
  5
1823
330
1807
100
AcDbEntity
  8
0
100
AcDbLine
 10
74.0
 20
34.46450000000001
 30
0.0
 11
126.0
 21
34.46449999999998
 31
0.0
  0
TEXT
  5
1824
330
1807
100
AcDbEntity
  8
0
100
AcDbText
 10
86.35319943225727
 20
35.17159999999998
 30
0.0
 40
2.0
  1
単相誘導電動機
100
AcDbText
  0
TEXT
  5
1825
330
1807
100
AcDbEntity
  8
0
100
AcDbText
 10
74.67809444174623
 20
31.6361
 30
0.0
 40
2.0
  1
型式
100
AcDbText
  0
TEXT
  5
1826
330
1807
100
AcDbEntity
  8
0
100
AcDbText
 10
74.67809444174623
 20
35.17159999999998
 30
0.0
 40
2.0
  1
名称
100
AcDbText
  0
LINE
  5
1827
330
1807
100
AcDbEntity
  8
0
100
AcDbLine
 10
93.80123573807338
 20
40.12129999999999
 30
0.0
 11
106.1987642619266
 21
40.12129999999999
 31
0.0
  0
LINE
  5
1828
330
1807
100
AcDbEntity
  8
0
100
AcDbLine
 10
93.80123573807338
 20
39.41419999999999
 30
0.0
 11
106.1987642619266
 21
39.41419999999999
 31
0.0
  0
TEXT
  5
1829
330
1807
100
AcDbEntity
  8
0
100
AcDbText
 10
93.99902987649658
 20
40.47485
 30
0.0
 40
2.0
  1
モータ仕様
100
AcDbText
  0
ENDBLK
  5
182B
330
1807
100
AcDbEntity
  8
0
100
AcDbBlockEnd
  0
BLOCK
  5
184D
330
1836
100
AcDbEntity
  8
0
100
AcDbBlockBegin
  2
BSPEC_90-90-0038
 70
     0
 10
0.0
 20
0.0
 30
0.0
  3
BSPEC_90-90-0038
  1

  0
TEXT
  5
1837
330
1836
100
AcDbEntity
  8
0
100
AcDbText
 10
35.94757247309064
 20
40.47485
 30
0.0
 40
2.0
  1
ブレーキ仕様
100
AcDbText
  0
LINE
  5
1838
330
1836
100
AcDbEntity
  8
0
100
AcDbLine
 10
35.94757247309064
 20
40.12129999999999
 30
0.0
 11
50.05242752690936
 21
40.12129999999999
 31
0.0
  0
LINE
  5
1839
330
1836
100
AcDbEntity
  8
0
100
AcDbLine
 10
35.94757247309064
 20
39.41419999999999
 30
0.0
 11
50.05242752690936
 21
39.41419999999999
 31
0.0
  0
TEXT
  5
183A
330
1836
100
AcDbEntity
  8
0
100
AcDbText
 10
29.35319943225727
 20
21.29776682820352
 30
0.0
 40
2.0
  1
0.37N・m（0.038kgf・m）
100
AcDbText
  0
TEXT
  5
183B
330
1836
100
AcDbEntity
  8
0
100
AcDbText
 10
29.35319943225727
 20
24.56510000000003
 30
0.0
 40
2.0
  1
12 W （於75℃）
100
AcDbText
  0
TEXT
  5
183C
330
1836
100
AcDbEntity
  8
0
100
AcDbText
 10
29.35319943225727
 20
31.6361
 30
0.0
 40
2.0
  1
無励磁作動形（スプリングクローズ）
100
AcDbText
  0
LINE
  5
183D
330
1836
100
AcDbEntity
  8
0
100
AcDbLine
 10
17.0
 20
20.32249999999996
 30
0.0
 11
69.0
 21
20.32249999999996
 31
0.0
  0
LINE
  5
183E
330
1836
100
AcDbEntity
  8
0
100
AcDbLine
 10
17.0
 20
23.85799999999994
 30
0.0
 11
69.0
 21
23.85799999999994
 31
0.0
  0
LINE
  5
183F
330
1836
100
AcDbEntity
  8
0
100
AcDbLine
 10
17.0
 20
27.39349999999999
 30
0.0
 11
69.0
 21
27.39349999999999
 31
0.0
  0
LINE
  5
1840
330
1836
100
AcDbEntity
  8
0
100
AcDbLine
 10
17.0
 20
30.929
 30
0.0
 11
69.0
 21
30.92899999999997
 31
0.0
  0
LINE
  5
1841
330
1836
100
AcDbEntity
  8
0
100
AcDbLine
 10
17.0
 20
34.46450000000001
 30
0.0
 11
69.0
 21
34.46450000000001
 31
0.0
  0
LINE
  5
1842
330
1836
100
AcDbEntity
  8
0
100
AcDbLine
 10
17.0
 20
38.0
 30
0.0
 11
69.0
 21
38.0
 31
0.0
  0
TEXT
  5
1843
330
1836
100
AcDbEntity
  8
0
100
AcDbText
 10
29.35319943225727
 20
28.10060000000001
 30
0.0
 40
2.0
  1
DC 90V
100
AcDbText
  0
TEXT
  5
1844
330
1836
100
AcDbEntity
  8
0
100
AcDbText
 10
17.67809444174622
 20
28.10059999999998
 30
0.0
 40
2.0
  1
入力電圧
100
AcDbText
  0
LINE
  5
1845
330
1836
100
AcDbEntity
  8
0
100
AcDbLine
 10
28.5
 20
20.32249999999996
 30
0.0
 11
28.5
 21
38.0
 31
0.0
  0
LINE
  5
1846
330
1836
100
AcDbEntity
  8
0
100
AcDbLine
 10
17.0
 20
20.32249999999996
 30
0.0
 11
17.0
 21
38.0
 31
0.0
  0
TEXT
  5
1847
330
1836
100
AcDbEntity
  8
0
100
AcDbText
 10
17.67809444174622
 20
20.93604220928048
 30
0.0
 40
2.0
  1
定格トルク
 41
0.85
100
AcDbText
  0
TEXT
  5
1848
330
1836
100
AcDbEntity
  8
0
100
AcDbText
 10
17.67809444174622
 20
24.56509999999994
 30
0.0
 40
2.0
  1
容量
100
AcDbText
  0
TEXT
  5
1849
330
1836
100
AcDbEntity
  8
0
100
AcDbText
 10
17.67809444174622
 20
35.17159999999998
 30
0.0
 40
2.0
  1
型式
100
AcDbText
  0
TEXT
  5
184A
330
1836
100
AcDbEntity
  8
0
100
AcDbText
 10
17.67809444174622
 20
31.6361
 30
0.0
 40
2.0
  1
方式
100
AcDbText
  0
TEXT
  5
184B
330
1836
100
AcDbEntity
  8
0
100
AcDbText
 10
29.35319943225727
 20
35.17159999999998
 30
0.0
 40
2.0
  1
BS-90
100
AcDbText
  0
LINE
  5
184C
330
1836
100
AcDbEntity
  8
0
100
AcDbLine
 10
69.0
 20
20.32249999999996
 30
0.0
 11
69.0
 21
38.0
 31
0.0
  0
ENDBLK
  5
184E
330
1836
100
AcDbEntity
  8
0
100
AcDbBlockEnd
  0
BLOCK
  5
18C1
330
18AA
100
AcDbEntity
  8
0
100
AcDbBlockBegin
  2
BSPEC_90-90-0055
 70
     0
 10
0.0
 20
0.0
 30
0.0
  3
BSPEC_90-90-0055
  1

  0
TEXT
  5
18AB
330
18AA
100
AcDbEntity
  8
0
100
AcDbText
 10
35.94757247309064
 20
40.47485
 30
0.0
 40
2.0
  1
ブレーキ仕様
100
AcDbText
  0
LINE
  5
18AC
330
18AA
100
AcDbEntity
  8
0
100
AcDbLine
 10
35.94757247309064
 20
40.12129999999999
 30
0.0
 11
50.05242752690936
 21
40.12129999999999
 31
0.0
  0
LINE
  5
18AD
330
18AA
100
AcDbEntity
  8
0
100
AcDbLine
 10
35.94757247309064
 20
39.41419999999999
 30
0.0
 11
50.05242752690936
 21
39.41419999999999
 31
0.0
  0
TEXT
  5
18AE
330
18AA
100
AcDbEntity
  8
0
100
AcDbText
 10
29.35319943225727
 20
21.29776682820352
 30
0.0
 40
2.0
  1
0.54N・m（0.055kgf・m）
100
AcDbText
  0
TEXT
  5
18AF
330
18AA
100
AcDbEntity
  8
0
100
AcDbText
 10
29.35319943225727
 20
24.56510000000003
 30
0.0
 40
2.0
  1
12 W （於75℃）
100
AcDbText
  0
TEXT
  5
18B0
330
18AA
100
AcDbEntity
  8
0
100
AcDbText
 10
29.35319943225727
 20
31.6361
 30
0.0
 40
2.0
  1
無励磁作動形（スプリングクローズ）
100
AcDbText
  0
LINE
  5
18B1
330
18AA
100
AcDbEntity
  8
0
100
AcDbLine
 10
17.0
 20
20.32249999999996
 30
0.0
 11
69.0
 21
20.32249999999996
 31
0.0
  0
LINE
  5
18B2
330
18AA
100
AcDbEntity
  8
0
100
AcDbLine
 10
17.0
 20
23.85799999999994
 30
0.0
 11
69.0
 21
23.85799999999994
 31
0.0
  0
LINE
  5
18B3
330
18AA
100
AcDbEntity
  8
0
100
AcDbLine
 10
17.0
 20
27.39349999999999
 30
0.0
 11
69.0
 21
27.39349999999999
 31
0.0
  0
LINE
  5
18B4
330
18AA
100
AcDbEntity
  8
0
100
AcDbLine
 10
17.0
 20
30.929
 30
0.0
 11
69.0
 21
30.92899999999997
 31
0.0
  0
LINE
  5
18B5
330
18AA
100
AcDbEntity
  8
0
100
AcDbLine
 10
17.0
 20
34.46450000000001
 30
0.0
 11
69.0
 21
34.46450000000001
 31
0.0
  0
LINE
  5
18B6
330
18AA
100
AcDbEntity
  8
0
100
AcDbLine
 10
17.0
 20
38.0
 30
0.0
 11
69.0
 21
38.0
 31
0.0
  0
TEXT
  5
18B7
330
18AA
100
AcDbEntity
  8
0
100
AcDbText
 10
29.35319943225727
 20
28.10060000000001
 30
0.0
 40
2.0
  1
DC 90V
100
AcDbText
  0
TEXT
  5
18B8
330
18AA
100
AcDbEntity
  8
0
100
AcDbText
 10
17.67809444174622
 20
28.10059999999998
 30
0.0
 40
2.0
  1
入力電圧
100
AcDbText
  0
LINE
  5
18B9
330
18AA
100
AcDbEntity
  8
0
100
AcDbLine
 10
28.5
 20
20.32249999999996
 30
0.0
 11
28.5
 21
38.0
 31
0.0
  0
LINE
  5
18BA
330
18AA
100
AcDbEntity
  8
0
100
AcDbLine
 10
17.0
 20
20.32249999999996
 30
0.0
 11
17.0
 21
38.0
 31
0.0
  0
TEXT
  5
18BB
330
18AA
100
AcDbEntity
  8
0
100
AcDbText
 10
17.67809444174622
 20
20.93604220928048
 30
0.0
 40
2.0
  1
定格トルク
 41
0.85
100
AcDbText
  0
TEXT
  5
18BC
330
18AA
100
AcDbEntity
  8
0
100
AcDbText
 10
17.67809444174622
 20
24.56509999999994
 30
0.0
 40
2.0
  1
容量
100
AcDbText
  0
TEXT
  5
18BD
330
18AA
100
AcDbEntity
  8
0
100
AcDbText
 10
17.67809444174622
 20
35.17159999999998
 30
0.0
 40
2.0
  1
型式
100
AcDbText
  0
TEXT
  5
18BE
330
18AA
100
AcDbEntity
  8
0
100
AcDbText
 10
17.67809444174622
 20
31.6361
 30
0.0
 40
2.0
  1
方式
100
AcDbText
  0
TEXT
  5
18BF
330
18AA
100
AcDbEntity
  8
0
100
AcDbText
 10
29.35319943225727
 20
35.17159999999998
 30
0.0
 40
2.0
  1
BS-90
100
AcDbText
  0
LINE
  5
18C0
330
18AA
100
AcDbEntity
  8
0
100
AcDbLine
 10
69.0
 20
20.32249999999996
 30
0.0
 11
69.0
 21
38.0
 31
0.0
  0
ENDBLK
  5
18C2
330
18AA
100
AcDbEntity
  8
0
100
AcDbBlockEnd
  0
BLOCK
  5
1931
330
191A
100
AcDbEntity
  8
0
100
AcDbBlockBegin
  2
BSPEC_90-45-0055
 70
     0
 10
0.0
 20
0.0
 30
0.0
  3
BSPEC_90-45-0055
  1

  0
TEXT
  5
191B
330
191A
100
AcDbEntity
  8
0
100
AcDbText
 10
35.94757247309064
 20
40.47485
 30
0.0
 40
2.0
  1
ブレーキ仕様
100
AcDbText
  0
LINE
  5
191C
330
191A
100
AcDbEntity
  8
0
100
AcDbLine
 10
35.94757247309064
 20
40.12129999999999
 30
0.0
 11
50.05242752690936
 21
40.12129999999999
 31
0.0
  0
LINE
  5
191D
330
191A
100
AcDbEntity
  8
0
100
AcDbLine
 10
35.94757247309064
 20
39.41419999999999
 30
0.0
 11
50.05242752690936
 21
39.41419999999999
 31
0.0
  0
TEXT
  5
191E
330
191A
100
AcDbEntity
  8
0
100
AcDbText
 10
29.35319943225727
 20
21.29776682820352
 30
0.0
 40
2.0
  1
0.54N・m（0.055kgf・m）
100
AcDbText
  0
TEXT
  5
191F
330
191A
100
AcDbEntity
  8
0
100
AcDbText
 10
29.35319943225727
 20
24.56510000000003
 30
0.0
 40
2.0
  1
10 W （於75℃）
100
AcDbText
  0
TEXT
  5
1920
330
191A
100
AcDbEntity
  8
0
100
AcDbText
 10
29.35319943225727
 20
31.6361
 30
0.0
 40
2.0
  1
無励磁作動形（スプリングクローズ）
100
AcDbText
  0
LINE
  5
1921
330
191A
100
AcDbEntity
  8
0
100
AcDbLine
 10
17.0
 20
20.32249999999996
 30
0.0
 11
69.0
 21
20.32249999999996
 31
0.0
  0
LINE
  5
1922
330
191A
100
AcDbEntity
  8
0
100
AcDbLine
 10
17.0
 20
23.85799999999994
 30
0.0
 11
69.0
 21
23.85799999999994
 31
0.0
  0
LINE
  5
1923
330
191A
100
AcDbEntity
  8
0
100
AcDbLine
 10
17.0
 20
27.39349999999999
 30
0.0
 11
69.0
 21
27.39349999999999
 31
0.0
  0
LINE
  5
1924
330
191A
100
AcDbEntity
  8
0
100
AcDbLine
 10
17.0
 20
30.929
 30
0.0
 11
69.0
 21
30.92899999999997
 31
0.0
  0
LINE
  5
1925
330
191A
100
AcDbEntity
  8
0
100
AcDbLine
 10
17.0
 20
34.46450000000001
 30
0.0
 11
69.0
 21
34.46450000000001
 31
0.0
  0
LINE
  5
1926
330
191A
100
AcDbEntity
  8
0
100
AcDbLine
 10
17.0
 20
38.0
 30
0.0
 11
69.0
 21
38.0
 31
0.0
  0
TEXT
  5
1927
330
191A
100
AcDbEntity
  8
0
100
AcDbText
 10
29.35319943225727
 20
28.10060000000001
 30
0.0
 40
2.0
  1
DC 45V
100
AcDbText
  0
TEXT
  5
1928
330
191A
100
AcDbEntity
  8
0
100
AcDbText
 10
17.67809444174622
 20
28.10059999999998
 30
0.0
 40
2.0
  1
入力電圧
100
AcDbText
  0
LINE
  5
1929
330
191A
100
AcDbEntity
  8
0
100
AcDbLine
 10
28.5
 20
20.32249999999996
 30
0.0
 11
28.5
 21
38.0
 31
0.0
  0
LINE
  5
192A
330
191A
100
AcDbEntity
  8
0
100
AcDbLine
 10
17.0
 20
20.32249999999996
 30
0.0
 11
17.0
 21
38.0
 31
0.0
  0
TEXT
  5
192B
330
191A
100
AcDbEntity
  8
0
100
AcDbText
 10
17.67809444174622
 20
20.93604220928048
 30
0.0
 40
2.0
  1
定格トルク
 41
0.85
100
AcDbText
  0
TEXT
  5
192C
330
191A
100
AcDbEntity
  8
0
100
AcDbText
 10
17.67809444174622
 20
24.56509999999994
 30
0.0
 40
2.0
  1
容量
100
AcDbText
  0
TEXT
  5
192D
330
191A
100
AcDbEntity
  8
0
100
AcDbText
 10
17.67809444174622
 20
35.17159999999998
 30
0.0
 40
2.0
  1
型式
100
AcDbText
  0
TEXT
  5
192E
330
191A
100
AcDbEntity
  8
0
100
AcDbText
 10
17.67809444174622
 20
31.6361
 30
0.0
 40
2.0
  1
方式
100
AcDbText
  0
TEXT
  5
192F
330
191A
100
AcDbEntity
  8
0
100
AcDbText
 10
29.35319943225727
 20
35.17159999999998
 30
0.0
 40
2.0
  1
BS-90
100
AcDbText
  0
LINE
  5
1930
330
191A
100
AcDbEntity
  8
0
100
AcDbLine
 10
69.0
 20
20.32249999999996
 30
0.0
 11
69.0
 21
38.0
 31
0.0
  0
ENDBLK
  5
1932
330
191A
100
AcDbEntity
  8
0
100
AcDbBlockEnd
  0
ENDSEC
  0
SECTION
  2
ENTITIES
  0
LINE
  5
6A1
330
2
100
AcDbEntity
  8
0
100
AcDbLine
 10
365.3641365662179
 20
97.5216868103619
 30
0.0
 11
402.4803475662179
 21
97.5216868103619
 31
0.0
  0
LINE
  5
6A2
330
2
100
AcDbEntity
  8
0
100
AcDbLine
 10
368.9222425662178
 20
399.3205897975059
 30
0.0
 11
398.9222425662178
 21
399.3205897975059
 31
0.0
  0
LINE
  5
6A3
330
2
100
AcDbEntity
  8
0
100
AcDbLine
 10
400.9222425662178
 20
354.320589797506
 30
0.0
 11
369.9222425662178
 21
354.320589797506
 31
0.0
  0
LINE
  5
6A4
330
2
100
AcDbEntity
  8
0
100
AcDbLine
 10
334.9371345662178
 20
517.320589797506
 30
0.0
 11
432.9073795662179
 21
517.320589797506
 31
0.0
  0
LINE
  5
6A5
330
2
100
AcDbEntity
  8
0
100
AcDbLine
 10
413.6344915662179
 20
401.3205897975059
 30
0.0
 11
354.2099925662179
 21
401.3205897975059
 31
0.0
  0
LINE
  5
6A6
330
2
100
AcDbEntity
  8
0
100
AcDbLine
 10
413.6344915662179
 20
507.320589797506
 30
0.0
 11
354.2099925662179
 21
507.320589797506
 31
0.0
  0
LINE
  5
6A7
330
2
100
AcDbEntity
  8
0
100
AcDbLine
 10
323.7588505662179
 20
417.3205897975059
 30
0.0
 11
442.8283085662179
 21
417.3205897975059
 31
0.0
  0
LINE
  5
6A8
330
2
100
AcDbEntity
  8
0
100
AcDbLine
 10
323.6856245662179
 20
491.3205897975059
 30
0.0
 11
442.8283085662179
 21
491.3205897975059
 31
0.0
  0
LINE
  5
6A9
330
2
100
AcDbEntity
  8
CENTER
100
AcDbLine
 10
60.92223956622342
 20
454.320589797506
 30
0.0
 11
456.4222425662179
 21
454.3205897975059
 31
0.0
  0
LINE
  5
6AA
330
2
100
AcDbEntity
  8
0
100
AcDbLine
 10
323.6856245662179
 20
491.3205897975059
 30
0.0
 11
442.8283085662179
 21
491.3205897975059
 31
0.0
  0
ARC
  5
6AB
330
2
100
AcDbEntity
  8
0
100
AcDbCircle
 10
383.9222425662178
 20
197.5216898103619
 30
0.0
 40
14.0
100
AcDbArc
 50
16.60149999999973
 51
343.3984989999996
  0
LINE
  5
6AC
330
2
100
AcDbEntity
  8
0
100
AcDbLine
 10
382.5472425662178
 20
133.5216868103618
 30
0.0
 11
385.1410535662178
 21
133.5216868103618
 31
0.0
  0
LINE
  5
6AD
330
2
100
AcDbEntity
  8
0
100
AcDbLine
 10
379.9222425662178
 20
145.5216898103619
 30
0.0
 11
387.9222425662178
 21
145.5216898103619
 31
0.0
  0
ARC
  5
6AE
330
2
100
AcDbEntity
  8
0
100
AcDbCircle
 10
383.9222425662178
 20
197.5216898103619
 30
0.0
 40
35.5
100
AcDbArc
 50
170.5292050000001
 51
9.47102199999972
  0
ARC
  5
6AF
330
2
100
AcDbEntity
  8
0
100
AcDbCircle
 10
383.9222425662178
 20
197.5216898103619
 30
0.0
 40
38.0
100
AcDbArc
 50
9.470963000000468
 51
170.5290070000004
  0
ARC
  5
6B0
330
2
100
AcDbEntity
  8
0
100
AcDbCircle
 10
383.9222425662178
 20
197.5216898103619
 30
0.0
 40
38.0
100
AcDbArc
 50
9.470961000000125
 51
170.5290989999998
  0
CIRCLE
  5
6B1
330
2
100
AcDbEntity
  8
0
100
AcDbCircle
 10
383.9222425662178
 20
197.5216898103619
 30
0.0
 40
33.5
  0
LINE
  5
6B2
330
2
100
AcDbEntity
  8
0
100
AcDbLine
 10
363.9222425662178
 20
123.5216868103619
 30
0.0
 11
403.9222425662178
 21
123.5216868103619
 31
0.0
  0
LINE
  5
6B3
330
2
100
AcDbEntity
  8
0
100
AcDbLine
 10
363.9222425662178
 20
121.0216868103618
 30
0.0
 11
403.9222425662178
 21
121.0216868103618
 31
0.0
  0
LINE
  5
6B4
330
2
100
AcDbEntity
  8
0
100
AcDbLine
 10
324.4222425662178
 20
92.5216868103619
 30
0.0
 11
443.4222425662178
 21
92.5216868103619
 31
0.0
  0
LINE
  5
6B5
330
2
100
AcDbEntity
  8
0
100
AcDbLine
 10
361.4766545662179
 20
252.0216518103619
 30
0.0
 11
406.3678595662179
 21
252.0216518103619
 31
0.0
  0
LINE
  5
6B6
330
2
100
AcDbEntity
  8
CENTER
100
AcDbLine
 10
335.3971363206067
 20
197.5216898103619
 30
0.0
 11
432.4473485554704
 21
197.5216898103618
 31
0.0
  0
LINE
  5
6B7
330
2
100
AcDbEntity
  8
0
100
AcDbLine
 10
321.4222425662178
 20
77.5216868103619
 30
0.0
 11
446.4222425662178
 21
77.5216868103619
 31
0.0
  0
LINE
  5
6B8
330
2
100
AcDbEntity
  8
CENTER
100
AcDbLine
 10
60.92223956622058
 20
148.5216898103619
 30
0.0
 11
345.1722425662178
 21
148.5216898103619
 31
0.0
  0
LINE
  5
6B9
330
2
100
AcDbEntity
  8
0
100
AcDbLine
 10
127.9222455662179
 20
114.1123888103618
 30
0.0
 11
236.8845685662179
 21
114.1123888103618
 31
0.0
  0
LINE
  5
6BA
330
2
100
AcDbEntity
  8
0
100
AcDbLine
 10
127.9222455662179
 20
182.9309848103619
 30
0.0
 11
236.8845685662179
 21
182.9309848103619
 31
0.0
  0
LINE
  5
6BB
330
2
100
AcDbEntity
  8
0
100
AcDbLine
 10
127.9222455662179
 20
103.5216868103618
 30
0.0
 11
246.9222425662178
 21
103.5216868103618
 31
0.0
  0
LINE
  5
6BC
330
2
100
AcDbEntity
  8
0
100
AcDbLine
 10
127.9222455662179
 20
193.5216898103619
 30
0.0
 11
246.9222425662178
 21
193.5216898103619
 31
0.0
  0
LINE
  5
6BD
330
2
100
AcDbEntity
  8
0
100
AcDbLine
 10
127.9222455662179
 20
103.5216868103618
 30
0.0
 11
127.9222455662179
 21
193.5216898103619
 31
0.0
  0
LINE
  5
6BE
330
2
100
AcDbEntity
  8
0
100
AcDbLine
 10
70.92225456621793
 20
190.5216898103619
 30
0.0
 11
70.92222456621789
 21
106.5216748103618
 31
0.0
  0
LINE
  5
6BF
330
2
100
AcDbEntity
  8
0
100
AcDbLine
 10
118.4222455662179
 20
195.5216898103619
 30
0.0
 11
118.4222455662179
 21
101.5216868103619
 31
0.0
  0
LINE
  5
6C1
330
2
100
AcDbEntity
  8
0
100
AcDbLine
 10
75.92222456621789
 20
101.5216868103619
 30
0.0
 11
118.4222455662179
 21
101.5216868103619
 31
0.0
  0
LINE
  5
6C2
330
2
100
AcDbEntity
  8
0
100
AcDbLine
 10
118.4222455662179
 20
119.5216868103619
 30
0.0
 11
74.44721456621789
 21
119.5216868103619
 31
0.0
  0
ARC
  5
6C3
330
2
100
AcDbEntity
  8
0
100
AcDbCircle
 10
75.92222456621789
 20
106.5216868103618
 30
0.0
 40
5.0
100
AcDbArc
 50
180.0
 51
270.0
  0
LINE
  5
6C4
330
2
100
AcDbEntity
  8
0
100
AcDbLine
 10
118.4222455662179
 20
103.5216868103618
 30
0.0
 11
127.9222455662179
 21
103.5216868103618
 31
0.0
  0
LINE
  5
6C5
330
2
100
AcDbEntity
  8
0
100
AcDbLine
 10
127.9222455662179
 20
114.1123958103618
 30
0.0
 11
118.4222455662179
 21
114.1123958103618
 31
0.0
  0
LINE
  5
6C6
330
2
100
AcDbEntity
  8
0
100
AcDbLine
 10
75.92222456621789
 20
195.5216898103619
 30
0.0
 11
118.4222455662179
 21
195.5216898103619
 31
0.0
  0
LINE
  5
6C7
330
2
100
AcDbEntity
  8
0
100
AcDbLine
 10
118.4222455662179
 20
177.5216898103619
 30
0.0
 11
74.44721456621789
 21
177.5216898103619
 31
0.0
  0
ARC
  5
6C8
330
2
100
AcDbEntity
  8
0
100
AcDbCircle
 10
75.92225456621793
 20
190.5216898103619
 30
0.0
 40
5.0
100
AcDbArc
 50
90.0
 51
180.0
  0
ARC
  5
6CA
330
2
100
AcDbEntity
  8
0
100
AcDbCircle
 10
118.4222455662179
 20
177.0510868103618
 30
0.0
 40
4.5
100
AcDbArc
 50
0.0
 51
90.0
  0
LINE
  5
6CB
330
2
100
AcDbEntity
  8
0
100
AcDbLine
 10
122.9222455662179
 20
177.0510868103618
 30
0.0
 11
122.9222455662179
 21
172.5510868103618
 31
0.0
  0
LINE
  5
6CC
330
2
100
AcDbEntity
  8
0
100
AcDbLine
 10
121.4222455662179
 20
177.0510868103618
 30
0.0
 11
121.4222455662179
 21
172.5510868103618
 31
0.0
  0
LINE
  5
6CD
330
2
100
AcDbEntity
  8
0
100
AcDbLine
 10
119.9222455662179
 20
177.0510868103618
 30
0.0
 11
119.9222455662179
 21
172.0354838103618
 31
0.0
  0
LINE
  5
6CE
330
2
100
AcDbEntity
  8
HOJO
100
AcDbLine
 10
121.4222455662179
 20
173.0510868103618
 30
0.0
 11
122.9222455662179
 21
172.5510868103618
 31
0.0
  0
LINE
  5
6CF
330
2
100
AcDbEntity
  8
HOJO
100
AcDbLine
 10
119.9222455662179
 20
172.0510868103618
 30
0.0
 11
121.4222455662179
 21
172.5510868103618
 31
0.0
  0
ARC
  5
6D0
330
2
100
AcDbEntity
  8
0
100
AcDbCircle
 10
118.4222455662179
 20
177.0510868103618
 30
0.0
 40
3.0
100
AcDbArc
 50
0.0
 51
90.0
  0
ARC
  5
6D1
330
2
100
AcDbEntity
  8
0
100
AcDbCircle
 10
118.4222455662179
 20
177.0510868103618
 30
0.0
 40
1.5
100
AcDbArc
 50
0.0
 51
90.0
  0
LINE
  5
6D6
330
2
100
AcDbEntity
  8
0
100
AcDbLine
 10
127.9222455662179
 20
182.9309848103619
 30
0.0
 11
118.4222455662179
 21
182.9309848103619
 31
0.0
  0
LINE
  5
6D7
330
2
100
AcDbEntity
  8
0
100
AcDbLine
 10
118.4222455662179
 20
193.5216898103619
 30
0.0
 11
127.9222455662179
 21
193.5216898103619
 31
0.0
  0
LINE
  5
6DD
330
2
100
AcDbEntity
  8
0
100
AcDbLine
 10
292.9222425662178
 20
122.1694218103618
 30
0.0
 11
292.9222425662178
 21
223.5218048103619
 31
0.0
  0
ARC
  5
6DE
330
2
100
AcDbEntity
  8
0
100
AcDbCircle
 10
503.8754585662178
 20
161.5216898103619
 30
0.0
 40
191.053177
100
AcDbArc
 50
164.3309020000002
 51
195.6690979999997
  0
LINE
  5
6DF
330
2
100
AcDbEntity
  8
0
100
AcDbLine
 10
246.9222425662178
 20
193.5216898103619
 30
0.0
 11
246.9222425662178
 21
103.5216868103618
 31
0.0
  0
LINE
  5
6E0
330
2
100
AcDbEntity
  8
0
100
AcDbLine
 10
301.4222425662178
 20
225.5217898103619
 30
0.0
 11
301.4222425662178
 21
97.52158881036189
 31
0.0
  0
ARC
  5
6E1
330
2
100
AcDbEntity
  8
0
100
AcDbCircle
 10
363.9222425662178
 20
147.5216898103619
 30
0.0
 40
24.0
100
AcDbArc
 50
169.5762940000003
 51
270.0
  0
LINE
  5
6E2
330
2
100
AcDbEntity
  8
0
100
AcDbLine
 10
321.4222425662178
 20
77.5216868103619
 30
0.0
 11
321.4222425662178
 21
222.8932648103618
 31
0.0
  0
ARC
  5
6E3
330
2
100
AcDbEntity
  8
0
100
AcDbCircle
 10
363.9222425662178
 20
147.5216898103619
 30
0.0
 40
26.5
100
AcDbArc
 50
170.5290989999998
 51
270.0
  0
LINE
  5
6E4
330
2
100
AcDbEntity
  8
0
100
AcDbLine
 10
237.9222425662178
 20
191.5216898103619
 30
0.0
 11
237.9222425662178
 21
105.5216678103618
 31
0.0
  0
LINE
  5
6E5
330
2
100
AcDbEntity
  8
0
100
AcDbLine
 10
246.9222425662178
 20
113.0026858103619
 30
0.0
 11
301.4222425662178
 21
113.0026888103618
 31
0.0
  0
LINE
  5
6E6
330
2
100
AcDbEntity
  8
0
100
AcDbLine
 10
246.9222425662178
 20
128.0156858103619
 30
0.0
 11
290.9222425662178
 21
128.0156858103619
 31
0.0
  0
LINE
  5
6E7
330
2
100
AcDbEntity
  8
0
100
AcDbLine
 10
301.4222425662178
 20
101.6185058103619
 30
0.0
 11
246.9222425662178
 21
103.5216868103618
 31
0.0
  0
ARC
  5
6E8
330
2
100
AcDbEntity
  8
0
100
AcDbCircle
 10
239.9222425662178
 20
105.5216868103618
 30
0.0
 40
2.0
100
AcDbArc
 50
180.0
 51
270.0
  0
LINE
  5
6E9
330
2
100
AcDbEntity
  8
CENTER
100
AcDbLine
 10
343.9222425662178
 20
97.5216868103619
 30
0.0
 11
343.9222425662178
 21
72.5216868103619
 31
0.0
  0
LINE
  5
6EA
330
2
100
AcDbEntity
  8
0
100
AcDbLine
 10
301.4222425662178
 20
97.52158881036189
 30
0.0
 11
316.4222425662178
 21
97.52158881036189
 31
0.0
  0
ARC
  5
6EB
330
2
100
AcDbEntity
  8
0
100
AcDbCircle
 10
294.9222425662178
 20
99.5215888103619
 30
0.0
 40
2.0
100
AcDbArc
 50
180.2607730000002
 51
270.0
  0
ARC
  5
6EC
330
2
100
AcDbEntity
  8
0
100
AcDbCircle
 10
290.4222875662178
 20
99.5011078103619
 30
0.0
 40
2.5
100
AcDbArc
 50
0.2607730000002915
 51
88.00000000000043
  0
LINE
  5
6ED
330
2
100
AcDbEntity
  8
0
100
AcDbLine
 10
294.9222425662178
 20
97.52158881036189
 30
0.0
 11
301.4222425662178
 21
97.52158881036189
 31
0.0
  0
ARC
  5
6EE
330
2
100
AcDbEntity
  8
0
100
AcDbCircle
 10
324.4222425662178
 20
89.52170781036187
 30
0.0
 40
3.0
100
AcDbArc
 50
90.0
 51
180.0
  0
ARC
  5
6EF
330
2
100
AcDbEntity
  8
0
100
AcDbCircle
 10
316.4222575662179
 20
92.52156981036188
 30
0.0
 40
5.0
100
AcDbArc
 50
0.0
 51
90.0
  0
LINE
  5
6F0
330
2
100
AcDbEntity
  8
0
100
AcDbLine
 10
319.9222425662178
 20
109.9217068103618
 30
0.0
 11
321.4222425662178
 21
109.9217068103618
 31
0.0
  0
LINE
  5
6F1
330
2
100
AcDbEntity
  8
0
100
AcDbLine
 10
293.4902195662179
 20
120.9546848103618
 30
0.0
 11
301.4222425662178
 21
120.9546848103618
 31
0.0
  0
LINE
  5
6F2
330
2
100
AcDbEntity
  8
HIDS
100
AcDbLine
 10
338.4222425662178
 20
92.5216868103619
 30
0.0
 11
338.4222425662178
 21
77.5216868103619
 31
0.0
  0
LINE
  5
6F3
330
2
100
AcDbEntity
  8
HIDS
100
AcDbLine
 10
349.4222425662178
 20
92.5216868103619
 30
0.0
 11
349.4222425662178
 21
77.5216868103619
 31
0.0
  0
LINE
  5
6F4
330
2
100
AcDbEntity
  8
0
100
AcDbLine
 10
332.4222425662178
 20
90.9841858103619
 30
0.0
 11
332.4222425662178
 21
77.5216868103619
 31
0.0
  0
ARC
  5
6F5
330
2
100
AcDbEntity
  8
0
100
AcDbCircle
 10
358.4804085662178
 20
95.5216868103619
 30
0.0
 40
3.0
100
AcDbArc
 50
270.0
 51
321.3404540000003
  0
ARC
  5
6F6
330
2
100
AcDbEntity
  8
0
100
AcDbCircle
 10
365.3641365662179
 20
94.52168681036189
 30
0.0
 40
3.0
100
AcDbArc
 50
90.0
 51
141.3404540000003
  0
LINE
  5
6F7
330
2
100
AcDbEntity
  8
0
100
AcDbLine
 10
363.0215155662178
 20
96.39576181036188
 30
0.0
 11
360.8230295662179
 21
93.64761381036188
 31
0.0
  0
LINE
  5
6F8
330
2
100
AcDbEntity
  8
0
100
AcDbLine
 10
363.9222425662178
 20
97.1524598103619
 30
0.0
 11
363.9222425662178
 21
92.5216868103619
 31
0.0
  0
LINE
  5
6F9
330
2
100
AcDbEntity
  8
0
100
AcDbLine
 10
372.2660535662178
 20
134.9279248103619
 30
0.0
 11
370.1836555662179
 21
134.9279248103619
 31
0.0
  0
LINE
  5
6FA
330
2
100
AcDbEntity
  8
0
100
AcDbLine
 10
369.3746345662178
 20
145.5216898103619
 30
0.0
 11
374.7540595662178
 21
145.5216898103619
 31
0.0
  0
LINE
  5
6FB
330
2
100
AcDbEntity
  8
0
100
AcDbLine
 10
374.0242315662178
 20
143.9279398103619
 30
0.0
 11
370.1692515662179
 21
143.9279398103619
 31
0.0
  0
LINE
  5
6FC
330
2
100
AcDbEntity
  8
0
100
AcDbLine
 10
373.6258555662178
 20
133.5216868103618
 30
0.0
 11
369.4654545662178
 21
133.5216868103618
 31
0.0
  0
LINE
  5
6FD
330
2
100
AcDbEntity
  8
0
100
AcDbLine
 10
369.2660535662178
 20
142.8079378103618
 30
0.0
 11
369.2660535662178
 21
135.8946078103618
 31
0.0
  0
LINE
  5
6FE
330
2
100
AcDbEntity
  8
0
100
AcDbLine
 10
367.9222425662178
 20
143.6619258103618
 30
0.0
 11
367.9222425662178
 21
135.0788498103619
 31
0.0
  0
LINE
  5
6FF
330
2
100
AcDbEntity
  8
0
100
AcDbLine
 10
367.9222425662178
 20
135.0788498103619
 30
0.0
 11
369.4654545662178
 21
133.5216868103618
 31
0.0
  0
LINE
  5
700
330
2
100
AcDbEntity
  8
0
100
AcDbLine
 10
369.2660535662178
 20
135.8946078103618
 30
0.0
 11
370.1836555662179
 21
134.9279248103619
 31
0.0
  0
LINE
  5
701
330
2
100
AcDbEntity
  8
0
100
AcDbLine
 10
369.3746345662178
 20
145.5216898103619
 30
0.0
 11
367.9222425662178
 21
143.6619258103618
 31
0.0
  0
LINE
  5
702
330
2
100
AcDbEntity
  8
0
100
AcDbLine
 10
370.1692515662179
 20
143.9279398103619
 30
0.0
 11
369.2660535662178
 21
142.8079378103618
 31
0.0
  0
ARC
  5
703
330
2
100
AcDbEntity
  8
0
100
AcDbCircle
 10
372.2660535662178
 20
137.4279248103619
 30
0.0
 40
2.5
100
AcDbArc
 50
270.0002139999998
 51
0.0001089999998967
  0
LINE
  5
704
330
2
100
AcDbEntity
  8
0
100
AcDbLine
 10
383.1410535662178
 20
144.0529398103619
 30
0.0
 11
383.1410535662178
 21
134.8341898103619
 31
0.0
  0
LINE
  5
705
330
2
100
AcDbEntity
  8
0
100
AcDbLine
 10
375.9222425662178
 20
140.4904248103619
 30
0.0
 11
375.9222425662178
 21
133.5216868103618
 31
0.0
  0
LINE
  5
706
330
2
100
AcDbEntity
  8
0
100
AcDbLine
 10
374.7660535662177
 20
134.4782488103619
 30
0.0
 11
373.6258555662178
 21
133.5216868103618
 31
0.0
  0
LINE
  5
707
330
2
100
AcDbEntity
  8
0
100
AcDbLine
 10
374.7660535662177
 20
133.5216868103618
 30
0.0
 11
375.9222425662178
 21
133.5216868103618
 31
0.0
  0
LINE
  5
708
330
2
100
AcDbEntity
  8
0
100
AcDbLine
 10
374.7660535662177
 20
134.4782488103619
 30
0.0
 11
374.7660535662177
 21
133.5216868103618
 31
0.0
  0
LINE
  5
709
330
2
100
AcDbEntity
  8
0
100
AcDbLine
 10
382.5472425662178
 20
134.8341898103619
 30
0.0
 11
383.1410535662178
 21
134.8341898103619
 31
0.0
  0
LINE
  5
70A
330
2
100
AcDbEntity
  8
0
100
AcDbLine
 10
382.5472425662178
 20
134.8341898103619
 30
0.0
 11
382.5472425662178
 21
133.5216868103618
 31
0.0
  0
LINE
  5
70B
330
2
100
AcDbEntity
  8
0
100
AcDbLine
 10
374.7660535662177
 20
143.2108308103618
 30
0.0
 11
374.7660535662177
 21
143.0216898103619
 31
0.0
  0
LINE
  5
70C
330
2
100
AcDbEntity
  8
0
100
AcDbLine
 10
372.6722425662178
 20
140.4904248103619
 30
0.0
 11
372.6722425662178
 21
139.1779248103619
 31
0.0
  0
LINE
  5
70D
330
2
100
AcDbEntity
  8
0
100
AcDbLine
 10
374.7660535662177
 20
139.1779248103619
 30
0.0
 11
374.7660535662177
 21
137.4279248103619
 31
0.0
  0
LINE
  5
70E
330
2
100
AcDbEntity
  8
0
100
AcDbLine
 10
375.9222425662178
 20
144.2251968103619
 30
0.0
 11
375.9222425662178
 21
143.0216898103619
 31
0.0
  0
LINE
  5
70F
330
2
100
AcDbEntity
  8
0
100
AcDbLine
 10
374.7660535662177
 20
137.9279248103619
 30
0.0
 11
374.7660535662177
 21
138.9279248103619
 31
0.0
  0
LINE
  5
710
330
2
100
AcDbEntity
  8
0
100
AcDbLine
 10
374.7660535662177
 20
139.1779248103619
 30
0.0
 11
372.6722425662178
 21
139.1779248103619
 31
0.0
  0
LINE
  5
711
330
2
100
AcDbEntity
  8
0
100
AcDbLine
 10
372.6722425662178
 20
140.4904248103619
 30
0.0
 11
375.9222425662178
 21
140.4904248103619
 31
0.0
  0
LINE
  5
712
330
2
100
AcDbEntity
  8
0
100
AcDbLine
 10
374.7660535662177
 20
143.0216898103619
 30
0.0
 11
375.9222425662178
 21
143.0216898103619
 31
0.0
  0
LINE
  5
713
330
2
100
AcDbEntity
  8
0
100
AcDbLine
 10
374.7540595662178
 20
145.5216898103619
 30
0.0
 11
375.9222425662178
 21
144.2251968103619
 31
0.0
  0
LINE
  5
714
330
2
100
AcDbEntity
  8
0
100
AcDbLine
 10
374.7660535662177
 20
143.2108308103618
 30
0.0
 11
374.0090345662179
 21
143.9279398103619
 31
0.0
  0
LINE
  5
715
330
2
100
AcDbEntity
  8
0
100
AcDbLine
 10
383.1410535662178
 20
144.0529398103619
 30
0.0
 11
381.2400525662178
 21
144.0529398103619
 31
0.0
  0
LINE
  5
716
330
2
100
AcDbEntity
  8
0
100
AcDbLine
 10
381.2400525662178
 20
144.0529398103619
 30
0.0
 11
380.8102425662178
 21
143.0216898103619
 31
0.0
  0
LINE
  5
717
330
2
100
AcDbEntity
  8
0
100
AcDbLine
 10
379.9222425662178
 20
143.0216898103619
 30
0.0
 11
380.8102425662178
 21
143.0216898103619
 31
0.0
  0
LINE
  5
718
330
2
100
AcDbEntity
  8
0
100
AcDbLine
 10
379.9222425662178
 20
143.0216898103619
 30
0.0
 11
379.9222425662178
 21
145.5216898103619
 31
0.0
  0
LINE
  5
719
330
2
100
AcDbEntity
  8
0
100
AcDbLine
 10
246.9222425662178
 20
193.5216898103619
 30
0.0
 11
292.9222425662178
 21
195.1280438103618
 31
0.0
  0
ARC
  5
71B
330
2
100
AcDbEntity
  8
0
100
AcDbCircle
 10
239.9222425662178
 20
191.5217058103618
 30
0.0
 40
2.0
100
AcDbArc
 50
90.0
 51
180.0
  0
ARC
  5
71D
330
2
100
AcDbEntity
  8
0
100
AcDbCircle
 10
315.9222425662178
 20
164.0216898103619
 30
0.0
 40
2.5
100
AcDbArc
 50
0.0
 51
90.0
  0
ARC
  5
71E
330
2
100
AcDbEntity
  8
0
100
AcDbCircle
 10
503.8754585662178
 20
161.5216898103619
 30
0.0
 40
190.053177
100
AcDbArc
 50
178.548599
 51
181.4784999999996
  0
ARC
  5
71F
330
2
100
AcDbEntity
  8
0
100
AcDbCircle
 10
315.9222425662178
 20
159.0216898103619
 30
0.0
 40
2.5
100
AcDbArc
 50
270.0
 51
0.0
  0
ARC
  5
720
330
2
100
AcDbEntity
  8
0
100
AcDbCircle
 10
314.9174505662179
 20
155.5232848103619
 30
0.0
 40
1.0
100
AcDbArc
 50
90.0
 51
181.8179019999997
  0
LINE
  5
721
330
2
100
AcDbEntity
  8
0
100
AcDbLine
 10
315.9222425662178
 20
156.5216898103619
 30
0.0
 11
314.9174505662179
 21
156.5216898103619
 31
0.0
  0
LINE
  5
722
330
2
100
AcDbEntity
  8
0
100
AcDbLine
 10
318.4222425662178
 20
164.0216898103619
 30
0.0
 11
318.4222425662178
 21
159.0216898103619
 31
0.0
  0
ARC
  5
723
330
2
100
AcDbEntity
  8
0
100
AcDbCircle
 10
314.9174505662179
 20
167.5200878103618
 30
0.0
 40
1.0
100
AcDbArc
 50
178.1820980000002
 51
270.0
  0
LINE
  5
724
330
2
100
AcDbEntity
  8
0
100
AcDbLine
 10
315.9222425662178
 20
166.5216898103619
 30
0.0
 11
314.9174505662179
 21
166.5216898103619
 31
0.0
  0
LINE
  5
725
330
2
100
AcDbEntity
  8
0
100
AcDbLine
 10
292.1900185662179
 20
201.2894588103619
 30
0.0
 11
286.4754955662178
 21
195.5749438103619
 31
0.0
  0
ARC
  5
726
330
2
100
AcDbEntity
  8
0
100
AcDbCircle
 10
284.7077345662178
 20
197.3427128103618
 30
0.0
 40
2.5
100
AcDbArc
 50
271.9999999999995
 51
315.0
  0
ARC
  5
727
330
2
100
AcDbEntity
  8
0
100
AcDbCircle
 10
290.4222425662178
 20
203.0572208103619
 30
0.0
 40
2.5
100
AcDbArc
 50
315.0
 51
0.0
  0
LINE
  5
728
330
2
100
AcDbEntity
  8
0
100
AcDbLine
 10
319.9222425662178
 20
213.1216888103618
 30
0.0
 11
321.4222425662178
 21
213.1216888103618
 31
0.0
  0
LINE
  5
729
330
2
100
AcDbEntity
  8
0
100
AcDbLine
 10
340.2494515662179
 20
151.4707798103618
 30
0.0
 11
348.9060375662179
 21
203.3630218103618
 31
0.0
  0
LINE
  5
72A
330
2
100
AcDbEntity
  8
0
100
AcDbLine
 10
337.7834485662178
 20
151.8821638103618
 30
0.0
 11
346.4402475662178
 21
203.7745208103618
 31
0.0
  0
LINE
  5
72B
330
2
100
AcDbEntity
  8
0
100
AcDbLine
 10
323.5872505662179
 20
227.0119018103619
 30
0.0
 11
358.6418465662179
 21
251.1403048103618
 31
0.0
  0
LINE
  5
72C
330
2
100
AcDbEntity
  8
0
100
AcDbLine
 10
319.8678905662178
 20
225.5217898103619
 30
0.0
 11
301.4222425662178
 21
225.5217898103619
 31
0.0
  0
ARC
  5
72D
330
2
100
AcDbEntity
  8
0
100
AcDbCircle
 10
294.9222575662179
 20
223.5218048103619
 30
0.0
 40
2.0
100
AcDbArc
 50
90.0
 51
180.0
  0
LINE
  5
72E
330
2
100
AcDbEntity
  8
0
100
AcDbLine
 10
294.9222425662178
 20
225.5217898103619
 30
0.0
 11
301.4222425662178
 21
225.5217898103619
 31
0.0
  0
ARC
  5
72F
330
2
100
AcDbEntity
  8
0
100
AcDbCircle
 10
326.4222425662178
 20
222.8932798103619
 30
0.0
 40
5.0
100
AcDbArc
 50
124.5403979999998
 51
180.0
  0
ARC
  5
730
330
2
100
AcDbEntity
  8
0
100
AcDbCircle
 10
319.8678905662178
 20
230.5217898103618
 30
0.0
 40
5.0
100
AcDbArc
 50
270.0
 51
304.5399780000001
  0
ARC
  5
731
330
2
100
AcDbEntity
  8
0
100
AcDbCircle
 10
361.4766545662179
 20
247.0216518103618
 30
0.0
 40
5.0
100
AcDbArc
 50
90.0
 51
124.5402980000002
  0
ARC
  5
732
330
2
100
AcDbEntity
  8
0
100
AcDbCircle
 10
361.5106515662178
 20
247.0216518103618
 30
0.0
 40
5.0
100
AcDbArc
 50
90.0
 51
91.03887200000015
  0
LINE
  5
733
330
2
100
AcDbEntity
  8
0
100
AcDbLine
 10
127.9222455662179
 20
425.3205897975059
 30
0.0
 11
237.9222425662178
 21
425.3205897975059
 31
0.0
  0
LINE
  5
734
330
2
100
AcDbEntity
  8
0
100
AcDbLine
 10
127.9222455662179
 20
483.3205897975059
 30
0.0
 11
237.9222425662178
 21
483.3205897975059
 31
0.0
  0
LINE
  5
735
330
2
100
AcDbEntity
  8
0
100
AcDbLine
 10
127.9222455662179
 20
409.3205897975059
 30
0.0
 11
246.9222425662178
 21
409.3205897975059
 31
0.0
  0
LINE
  5
736
330
2
100
AcDbEntity
  8
0
100
AcDbLine
 10
127.9222455662179
 20
499.3205897975059
 30
0.0
 11
246.9222425662178
 21
499.3205897975059
 31
0.0
  0
LINE
  5
737
330
2
100
AcDbEntity
  8
0
100
AcDbLine
 10
70.92225456621793
 20
496.3205897975059
 30
0.0
 11
70.92222456621789
 21
412.320558797506
 31
0.0
  0
LINE
  5
738
330
2
100
AcDbEntity
  8
0
100
AcDbLine
 10
118.4222455662179
 20
501.320589797506
 30
0.0
 11
118.4222455662179
 21
461.8205897975061
 31
0.0
  0
LINE
  5
739
330
2
100
AcDbEntity
  8
0
100
AcDbLine
 10
127.9222455662179
 20
409.3205897975059
 30
0.0
 11
127.9222455662179
 21
429.320589797506
 31
0.0
  0
LINE
  5
73A
330
2
100
AcDbEntity
  8
0
100
AcDbLine
 10
75.92222456621789
 20
407.320589797506
 30
0.0
 11
118.4222455662179
 21
407.320589797506
 31
0.0
  0
LINE
  5
73B
330
2
100
AcDbEntity
  8
0
100
AcDbLine
 10
118.4222455662179
 20
425.3205897975059
 30
0.0
 11
74.44721456621789
 21
425.3205897975059
 31
0.0
  0
ARC
  5
73C
330
2
100
AcDbEntity
  8
0
100
AcDbCircle
 10
75.92222456621789
 20
412.320589797506
 30
0.0
 40
5.0
100
AcDbArc
 50
180.0
 51
270.0
  0
ARC
  5
73D
330
2
100
AcDbEntity
  8
0
100
AcDbCircle
 10
118.4222455662179
 20
415.050722797506
 30
0.0
 40
3.0
100
AcDbArc
 50
0.0
 51
90.0
  0
ARC
  5
73E
330
2
100
AcDbEntity
  8
0
100
AcDbCircle
 10
118.4222455662179
 20
415.050722797506
 30
0.0
 40
4.5
100
AcDbArc
 50
0.0
 51
90.0
  0
LINE
  5
73F
330
2
100
AcDbEntity
  8
HOJO
100
AcDbLine
 10
121.4222455662179
 20
411.050722797506
 30
0.0
 11
122.9222455662179
 21
410.550722797506
 31
0.0
  0
LINE
  5
740
330
2
100
AcDbEntity
  8
0
100
AcDbLine
 10
118.4222455662179
 20
409.3205897975059
 30
0.0
 11
127.9222455662179
 21
409.3205897975059
 31
0.0
  0
LINE
  5
741
330
2
100
AcDbEntity
  8
HOJO
100
AcDbLine
 10
119.9222455662179
 20
410.050722797506
 30
0.0
 11
121.4222455662179
 21
410.550722797506
 31
0.0
  0
LINE
  5
742
330
2
100
AcDbEntity
  8
0
100
AcDbLine
 10
121.4222455662179
 20
415.050722797506
 30
0.0
 11
121.4222455662179
 21
410.550722797506
 31
0.0
  0
LINE
  5
743
330
2
100
AcDbEntity
  8
0
100
AcDbLine
 10
119.9222455662179
 20
415.050722797506
 30
0.0
 11
119.9222455662179
 21
410.0351277975059
 31
0.0
  0
ARC
  5
744
330
2
100
AcDbEntity
  8
0
100
AcDbCircle
 10
118.4222455662179
 20
415.050722797506
 30
0.0
 40
1.5
100
AcDbArc
 50
0.0
 51
90.0
  0
LINE
  5
745
330
2
100
AcDbEntity
  8
0
100
AcDbLine
 10
122.9222455662179
 20
415.050722797506
 30
0.0
 11
122.9222455662179
 21
410.550722797506
 31
0.0
  0
LINE
  5
746
330
2
100
AcDbEntity
  8
0
100
AcDbLine
 10
127.9222455662179
 20
425.3205897975059
 30
0.0
 11
118.4222455662179
 21
425.3205897975059
 31
0.0
  0
LINE
  5
747
330
2
100
AcDbEntity
  8
0
100
AcDbLine
 10
75.92222456621789
 20
501.320589797506
 30
0.0
 11
118.4222455662179
 21
501.320589797506
 31
0.0
  0
LINE
  5
748
330
2
100
AcDbEntity
  8
0
100
AcDbLine
 10
118.4222455662179
 20
483.3205897975059
 30
0.0
 11
74.44721456621789
 21
483.3205897975059
 31
0.0
  0
ARC
  5
749
330
2
100
AcDbEntity
  8
0
100
AcDbCircle
 10
75.92225456621793
 20
496.3205897975059
 30
0.0
 40
5.0
100
AcDbArc
 50
90.0
 51
180.0
  0
LINE
  5
74C
330
2
100
AcDbEntity
  8
0
100
AcDbLine
 10
127.9222455662179
 20
479.320589797506
 30
0.0
 11
127.9222455662179
 21
499.3205897975059
 31
0.0
  0
LINE
  5
758
330
2
100
AcDbEntity
  8
0
100
AcDbLine
 10
127.9222455662179
 20
483.3205897975059
 30
0.0
 11
118.4222455662179
 21
483.3205897975059
 31
0.0
  0
LINE
  5
759
330
2
100
AcDbEntity
  8
0
100
AcDbLine
 10
118.4222455662179
 20
499.3205897975059
 30
0.0
 11
127.9222455662179
 21
499.3205897975059
 31
0.0
  0
LINE
  5
75C
330
2
100
AcDbEntity
  8
0
100
AcDbLine
 10
285.7792515662179
 20
476.116060797506
 30
0.0
 11
285.7792515662179
 21
432.4035057975059
 31
0.0
  0
LINE
  5
75D
330
2
100
AcDbEntity
  8
0
100
AcDbLine
 10
246.9222425662178
 20
503.332582797506
 30
0.0
 11
246.9222425662178
 21
405.308565797506
 31
0.0
  0
LINE
  5
75E
330
2
100
AcDbEntity
  8
0
100
AcDbLine
 10
292.9222425662178
 20
392.3205897975059
 30
0.0
 11
292.9222425662178
 21
516.320589797506
 31
0.0
  0
LINE
  5
75F
330
2
100
AcDbEntity
  8
0
100
AcDbLine
 10
301.4222425662178
 20
518.320589797506
 30
0.0
 11
301.4222425662178
 21
390.3205897975059
 31
0.0
  0
LINE
  5
760
330
2
100
AcDbEntity
  8
0
100
AcDbLine
 10
321.4222425662178
 20
454.3205897975059
 30
0.0
 11
322.0166325662178
 21
420.268221797506
 31
0.0
  0
LINE
  5
761
330
2
100
AcDbEntity
  8
0
100
AcDbLine
 10
359.9222425662178
 20
420.320589797506
 30
0.0
 11
359.9222425662178
 21
488.3205897975058
 31
0.0
  0
LINE
  5
762
330
2
100
AcDbEntity
  8
0
100
AcDbLine
 10
247.4219365662179
 20
404.791139797506
 30
0.0
 11
292.9222425662178
 21
403.202211797506
 31
0.0
  0
LINE
  5
763
330
2
100
AcDbEntity
  8
0
100
AcDbLine
 10
246.9222425662178
 20
409.3205897975059
 30
0.0
 11
290.4858555662178
 21
407.7992877975059
 31
0.0
  0
LINE
  5
764
330
2
100
AcDbEntity
  8
0
100
AcDbLine
 10
246.9222425662178
 20
405.308565797506
 30
0.0
 11
247.4219365662179
 21
404.791139797506
 31
0.0
  0
LINE
  5
765
330
2
100
AcDbEntity
  8
0
100
AcDbLine
 10
237.9222425662178
 20
425.3205897975059
 30
0.0
 11
237.9222425662178
 21
411.320558797506
 31
0.0
  0
ARC
  5
766
330
2
100
AcDbEntity
  8
0
100
AcDbCircle
 10
239.9222425662178
 20
411.320589797506
 30
0.0
 40
2.0
100
AcDbArc
 50
180.0
 51
270.0
  0
LINE
  5
767
330
2
100
AcDbEntity
  8
0
100
AcDbLine
 10
369.9222425662178
 20
399.3205897975059
 30
0.0
 11
369.9222425662178
 21
354.320589797506
 31
0.0
  0
ARC
  5
768
330
2
100
AcDbEntity
  8
0
100
AcDbCircle
 10
334.9371345662178
 20
396.3205897975059
 30
0.0
 40
5.0
100
AcDbArc
 50
199.7874909999998
 51
270.0
  0
LINE
  5
769
330
2
100
AcDbEntity
  8
0
100
AcDbLine
 10
318.4988415662179
 20
399.468538797506
 30
0.0
 11
318.8548435662179
 21
413.063326797506
 31
0.0
  0
LINE
  5
76A
330
2
100
AcDbEntity
  8
0
100
AcDbLine
 10
319.0025335662179
 20
413.6146567975059
 30
0.0
 11
313.7539075662179
 21
394.026491797506
 31
0.0
  0
LINE
  5
76B
330
2
100
AcDbEntity
  8
0
100
AcDbLine
 10
330.2323615662178
 20
394.627901797506
 30
0.0
 11
322.1703495662178
 21
417.036317797506
 31
0.0
  0
LINE
  5
76C
330
2
100
AcDbEntity
  8
0
100
AcDbLine
 10
301.4222425662178
 20
390.3205897975059
 30
0.0
 11
308.9242865662179
 21
390.3205897975059
 31
0.0
  0
ARC
  5
76D
330
2
100
AcDbEntity
  8
0
100
AcDbCircle
 10
294.9222425662178
 20
392.3205897975059
 30
0.0
 40
2.0
100
AcDbArc
 50
180.0
 51
270.0
  0
LINE
  5
76E
330
2
100
AcDbEntity
  8
0
100
AcDbLine
 10
294.9222425662178
 20
390.3205897975059
 30
0.0
 11
301.4222425662178
 21
390.3205897975059
 31
0.0
  0
ARC
  5
76F
330
2
100
AcDbEntity
  8
0
100
AcDbCircle
 10
290.3986065662179
 20
405.3008137975059
 30
0.0
 40
2.5
100
AcDbArc
 50
0.1042919999999583
 51
88.00000000000043
  0
ARC
  5
770
330
2
100
AcDbEntity
  8
0
100
AcDbCircle
 10
308.9242865662179
 20
395.320589797506
 30
0.0
 40
5.0
100
AcDbArc
 50
270.0
 51
345.0000309999997
  0
ARC
  5
771
330
2
100
AcDbEntity
  8
0
100
AcDbCircle
 10
316.7676405662179
 20
393.682527797506
 30
0.0
 40
3.0
100
AcDbArc
 50
102.1987990000001
 51
165.0000309999997
  0
ARC
  5
772
330
2
100
AcDbEntity
  8
0
100
AcDbCircle
 10
315.4998485662179
 20
399.547151797506
 30
0.0
 40
3.0
100
AcDbArc
 50
282.198792
 51
358.4997859999995
  0
LINE
  5
773
330
2
100
AcDbEntity
  8
0
100
AcDbLine
 10
286.3843855662179
 20
430.3205897975059
 30
0.0
 11
292.8942265662178
 21
430.3205897975059
 31
0.0
  0
ARC
  5
774
330
2
100
AcDbEntity
  8
0
100
AcDbCircle
 10
323.8321695662178
 20
412.320589797506
 30
0.0
 40
5.0
100
AcDbArc
 50
90.0
 51
165.0000309999997
  0
ARC
  5
775
330
2
100
AcDbEntity
  8
0
100
AcDbCircle
 10
325.0161755662179
 20
420.320589797506
 30
0.0
 40
3.0
100
AcDbArc
 50
181.0000000000001
 51
270.0
  0
ARC
  5
777
330
2
100
AcDbEntity
  8
0
100
AcDbCircle
 10
343.9222425662178
 20
404.320589797506
 30
0.0
 40
5.5
100
AcDbArc
 50
120.5343170000002
 51
7.598607999999619
  0
ARC
  5
778
330
2
100
AcDbEntity
  8
0
100
AcDbCircle
 10
343.7412425662179
 20
413.3205897975059
 30
0.0
 40
5.0
100
AcDbArc
 50
195.7086329999996
 51
270.0
  0
LINE
  5
779
330
2
100
AcDbEntity
  8
0
100
AcDbLine
 10
334.9371345662178
 20
391.320589797506
 30
0.0
 11
369.9222425662178
 21
391.320589797506
 31
0.0
  0
LINE
  5
77B
330
2
100
AcDbEntity
  8
0
100
AcDbLine
 10
348.4534925662178
 20
408.320589797506
 30
0.0
 11
343.7412425662179
 21
408.320589797506
 31
0.0
  0
ARC
  5
77C
330
2
100
AcDbEntity
  8
0
100
AcDbCircle
 10
354.2099925662179
 20
406.3205897975059
 30
0.0
 40
5.0
100
AcDbArc
 50
195.7086329999996
 51
270.0
  0
LINE
  5
77D
330
2
100
AcDbEntity
  8
0
100
AcDbLine
 10
349.3967295662179
 20
404.966859797506
 30
0.0
 11
348.4534925662178
 21
408.320589797506
 31
0.0
  0
LINE
  5
77E
330
2
100
AcDbEntity
  8
0
100
AcDbLine
 10
368.9222425662178
 20
401.3205897975059
 30
0.0
 11
368.9222425662178
 21
399.3205897975059
 31
0.0
  0
ARC
  5
77F
330
2
100
AcDbEntity
  8
0
100
AcDbCircle
 10
335.1495985662179
 20
414.3205897975059
 30
0.0
 40
3.0
100
AcDbArc
 50
15.70863800000017
 51
90.0
  0
LINE
  5
780
330
2
100
AcDbEntity
  8
0
100
AcDbLine
 10
338.9279795662179
 20
411.966859797506
 30
0.0
 11
338.0375375662179
 21
415.132814797506
 31
0.0
  0
LINE
  5
781
330
2
100
AcDbEntity
  8
0
100
AcDbLine
 10
247.4219365662179
 20
503.850038797506
 30
0.0
 11
292.9222425662178
 21
505.438936797506
 31
0.0
  0
LINE
  5
782
330
2
100
AcDbEntity
  8
0
100
AcDbLine
 10
246.9222425662178
 20
499.3205897975059
 30
0.0
 11
290.4858555662178
 21
500.841859797506
 31
0.0
  0
ARC
  5
783
330
2
100
AcDbEntity
  8
0
100
AcDbCircle
 10
239.9222425662178
 20
497.3205897975059
 30
0.0
 40
2.0
100
AcDbArc
 50
90.0
 51
180.0
  0
LINE
  5
784
330
2
100
AcDbEntity
  8
0
100
AcDbLine
 10
237.9222425662178
 20
497.3205897975059
 30
0.0
 11
237.9222425662178
 21
483.3205897975059
 31
0.0
  0
LINE
  5
785
330
2
100
AcDbEntity
  8
0
100
AcDbLine
 10
246.9222425662178
 20
503.332582797506
 30
0.0
 11
247.4219365662179
 21
503.850038797506
 31
0.0
  0
ARC
  5
786
330
2
100
AcDbEntity
  8
0
100
AcDbCircle
 10
308.7777715662178
 20
513.320589797506
 30
0.0
 40
5.0
100
AcDbArc
 50
14.99984600000018
 51
90.0
  0
ARC
  5
787
330
2
100
AcDbEntity
  8
0
100
AcDbCircle
 10
334.9371345662178
 20
512.320589797506
 30
0.0
 40
5.0
100
AcDbArc
 50
90.0
 51
160.2125090000002
  0
LINE
  5
788
330
2
100
AcDbEntity
  8
0
100
AcDbLine
 10
321.4222425662178
 20
454.3205897975059
 30
0.0
 11
322.0166325662178
 21
488.372926797506
 31
0.0
  0
LINE
  5
789
330
2
100
AcDbEntity
  8
0
100
AcDbLine
 10
285.7792515662179
 20
478.3205897975059
 30
0.0
 11
292.8942265662178
 21
478.3205897975059
 31
0.0
  0
LINE
  5
78A
330
2
100
AcDbEntity
  8
0
100
AcDbLine
 10
292.9222425662178
 20
500.926942797506
 30
0.0
 11
292.8942265662178
 21
500.925966797506
 31
0.0
  0
ARC
  5
78B
330
2
100
AcDbEntity
  8
0
100
AcDbCircle
 10
290.3986065662179
 20
503.340334797506
 30
0.0
 40
2.5
100
AcDbArc
 50
271.9999999999995
 51
359.8957209999999
  0
LINE
  5
78C
330
2
100
AcDbEntity
  8
0
100
AcDbLine
 10
313.6074075662179
 20
514.6146567975059
 30
0.0
 11
318.9292455662179
 21
494.7530847975059
 31
0.0
  0
LINE
  5
78D
330
2
100
AcDbEntity
  8
0
100
AcDbLine
 10
318.4988415662179
 20
508.6257037975059
 30
0.0
 11
318.8548435662179
 21
495.0309167975059
 31
0.0
  0
LINE
  5
78E
330
2
100
AcDbEntity
  8
0
100
AcDbLine
 10
330.2323615662178
 20
514.0132467975059
 30
0.0
 11
322.1544965662178
 21
491.560762797506
 31
0.0
  0
LINE
  5
78F
330
2
100
AcDbEntity
  8
0
100
AcDbLine
 10
318.4988415662179
 20
508.6257037975059
 30
0.0
 11
318.8548435662179
 21
495.0309167975059
 31
0.0
  0
ARC
  5
790
330
2
100
AcDbEntity
  8
0
100
AcDbCircle
 10
323.6856245662179
 20
496.3205897975059
 30
0.0
 40
5.0
100
AcDbArc
 50
194.9998469999997
 51
270.0
  0
ARC
  5
791
330
2
100
AcDbEntity
  8
0
100
AcDbCircle
 10
325.0161755662179
 20
488.3205897975058
 30
0.0
 40
3.0
100
AcDbArc
 50
90.0
 51
178.9999999999998
  0
ARC
  5
792
330
2
100
AcDbEntity
  8
0
100
AcDbCircle
 10
316.7676405662179
 20
514.4116847975059
 30
0.0
 40
3.0
100
AcDbArc
 50
195.0001069999999
 51
257.8012009999998
  0
ARC
  5
793
330
2
100
AcDbEntity
  8
0
100
AcDbCircle
 10
315.4998485662179
 20
508.547151797506
 30
0.0
 40
3.0
100
AcDbArc
 50
1.500199999999734
 51
77.8012009999999
  0
ARC
  5
794
330
2
100
AcDbEntity
  8
0
100
AcDbCircle
 10
316.7676405662179
 20
514.4116847975059
 30
0.0
 40
3.0
100
AcDbArc
 50
195.0001069999999
 51
257.8012009999998
  0
ARC
  5
795
330
2
100
AcDbEntity
  8
0
100
AcDbCircle
 10
315.4998485662179
 20
508.547151797506
 30
0.0
 40
3.0
100
AcDbArc
 50
1.500199999999734
 51
77.8012009999999
  0
ARC
  5
797
330
2
100
AcDbEntity
  8
0
100
AcDbCircle
 10
343.7412425662179
 20
495.3205897975059
 30
0.0
 40
5.0
100
AcDbArc
 50
90.0
 51
164.2913670000003
  0
LINE
  5
798
330
2
100
AcDbEntity
  8
0
100
AcDbLine
 10
338.9279795662179
 20
496.674287797506
 30
0.0
 11
338.0375375662179
 21
493.508333797506
 31
0.0
  0
ARC
  5
799
330
2
100
AcDbEntity
  8
0
100
AcDbCircle
 10
335.1495985662179
 20
494.3205897975059
 30
0.0
 40
3.0
100
AcDbArc
 50
270.0
 51
344.2913619999998
  0
ARC
  5
79B
330
2
100
AcDbEntity
  8
0
100
AcDbCircle
 10
343.9222425662178
 20
504.320589797506
 30
0.0
 40
5.5
100
AcDbArc
 50
352.4013920000003
 51
239.4656829999997
  0
LINE
  5
79C
330
2
100
AcDbEntity
  8
0
100
AcDbLine
 10
348.4534925662178
 20
500.3205897975059
 30
0.0
 11
343.7412425662179
 21
500.3205897975059
 31
0.0
  0
ARC
  5
79D
330
2
100
AcDbEntity
  8
0
100
AcDbCircle
 10
354.2099925662179
 20
502.320589797506
 30
0.0
 40
5.0
100
AcDbArc
 50
90.0
 51
164.2913670000003
  0
LINE
  5
79E
330
2
100
AcDbEntity
  8
0
100
AcDbLine
 10
349.3967295662179
 20
503.674287797506
 30
0.0
 11
348.4534925662178
 21
500.3205897975059
 31
0.0
  0
LINE
  5
79F
330
2
100
AcDbEntity
  8
0
100
AcDbLine
 10
308.8510445662178
 20
518.320589797506
 30
0.0
 11
301.4222425662178
 21
518.320589797506
 31
0.0
  0
ARC
  5
7A0
330
2
100
AcDbEntity
  8
0
100
AcDbCircle
 10
294.9222425662178
 20
516.320589797506
 30
0.0
 40
2.0
100
AcDbArc
 50
90.0
 51
180.0
  0
LINE
  5
7A1
330
2
100
AcDbEntity
  8
0
100
AcDbLine
 10
294.9222425662178
 20
518.320589797506
 30
0.0
 11
301.4222425662178
 21
518.320589797506
 31
0.0
  0
LINE
  5
7A3
330
2
100
AcDbEntity
  8
0
100
AcDbLine
 10
616.1989213703752
 20
93.14566181036189
 30
0.0
 11
635.7097243703752
 21
96.8977238103619
 31
0.0
  0
LINE
  5
7A4
330
2
100
AcDbEntity
  8
CENTER
100
AcDbLine
 10
601.9541933703756
 20
161.5216828103618
 30
0.0
 11
749.9543913703749
 21
161.5216828103618
 31
0.0
  0
ARC
  5
7A5
330
2
100
AcDbEntity
  8
0
100
AcDbCircle
 10
634.9542923703752
 20
127.3221468103618
 30
0.0
 40
5.0
100
AcDbArc
 50
180.0
 51
254.4761960000002
  0
LINE
  5
7A6
330
2
100
AcDbEntity
  8
0
100
AcDbLine
 10
626.6005323703752
 20
232.0472108103619
 30
0.0
 11
635.3079303703752
 21
234.4961698103618
 31
0.0
  0
LINE
  5
7A7
330
2
100
AcDbEntity
  8
0
100
AcDbLine
 10
616.9543233703753
 20
92.5216868103619
 30
0.0
 11
634.9542923703752
 21
92.5216868103619
 31
0.0
  0
LINE
  5
7A8
330
2
100
AcDbEntity
  8
0
100
AcDbLine
 10
612.9543233703753
 20
77.5216868103619
 30
0.0
 11
648.4542923703752
 21
77.5216868103619
 31
0.0
  0
LINE
  5
7A9
330
2
100
AcDbEntity
  8
CENTER
100
AcDbLine
 10
565.9543233703752
 20
197.5216898103619
 30
0.0
 11
738.9542923703752
 21
197.5216898103619
 31
0.0
  0
ARC
  5
7AA
330
2
100
AcDbEntity
  8
0
100
AcDbCircle
 10
635.9542923703752
 20
108.5216868103618
 30
0.0
 40
5.0
100
AcDbArc
 50
180.0
 51
270.0
  0
LINE
  5
7AB
330
2
100
AcDbEntity
  8
0
100
AcDbLine
 10
629.9542923703752
 20
127.3221058103618
 30
0.0
 11
629.9542923703752
 21
200.0216828103619
 31
0.0
  0
ARC
  5
7AC
330
2
100
AcDbEntity
  8
0
100
AcDbCircle
 10
403.9222425662178
 20
147.5216898103619
 30
0.0
 40
24.0
100
AcDbArc
 50
270.0
 51
9.471372999999747
  0
ARC
  5
7AD
330
2
100
AcDbEntity
  8
0
100
AcDbCircle
 10
403.9222425662178
 20
147.5216898103619
 30
0.0
 40
26.5
100
AcDbArc
 50
270.0
 51
9.470949999999715
  0
LINE
  5
7AE
330
2
100
AcDbEntity
  8
CENTER
100
AcDbLine
 10
383.9222425662179
 20
262.0216518103619
 30
0.0
 11
383.9222425662179
 21
67.52168681036192
 31
0.0
  0
LINE
  5
7AF
330
2
100
AcDbEntity
  8
0
100
AcDbLine
 10
446.4222425662178
 20
222.8933108103618
 30
0.0
 11
446.4222425662178
 21
77.5216868103619
 31
0.0
  0
LINE
  5
7B0
330
2
100
AcDbEntity
  8
CENTER
100
AcDbLine
 10
423.9222425662178
 20
97.5216868103619
 30
0.0
 11
423.9222425662178
 21
72.5216868103619
 31
0.0
  0
ARC
  5
7B1
330
2
100
AcDbEntity
  8
0
100
AcDbCircle
 10
409.3640755662179
 20
95.5216868103619
 30
0.0
 40
3.0
100
AcDbArc
 50
218.6595459999996
 51
270.0
  0
ARC
  5
7B2
330
2
100
AcDbEntity
  8
0
100
AcDbCircle
 10
402.4803475662179
 20
94.52168681036189
 30
0.0
 40
3.0
100
AcDbArc
 50
38.65954599999965
 51
90.0
  0
LINE
  5
7B3
330
2
100
AcDbEntity
  8
0
100
AcDbLine
 10
404.8229685662179
 20
96.39576181036188
 30
0.0
 11
407.0214855662179
 21
93.64761381036188
 31
0.0
  0
LINE
  5
7B4
330
2
100
AcDbEntity
  8
0
100
AcDbLine
 10
403.9222425662178
 20
97.1524598103619
 30
0.0
 11
403.9222425662178
 21
92.5216868103619
 31
0.0
  0
LINE
  5
7B5
330
2
100
AcDbEntity
  8
HIDS
100
AcDbLine
 10
418.4222425662178
 20
92.5216868103619
 30
0.0
 11
418.4222425662178
 21
77.5216868103619
 31
0.0
  0
LINE
  5
7B6
330
2
100
AcDbEntity
  8
HIDS
100
AcDbLine
 10
429.4222425662178
 20
92.5216868103619
 30
0.0
 11
429.4222425662178
 21
77.5216868103619
 31
0.0
  0
LINE
  5
7B7
330
2
100
AcDbEntity
  8
0
100
AcDbLine
 10
393.8910535662177
 20
144.0529398103619
 30
0.0
 11
397.6240545662178
 21
144.0505068103618
 31
0.0
  0
LINE
  5
7B8
330
2
100
AcDbEntity
  8
0
100
AcDbLine
 10
393.8910535662177
 20
139.1310648103619
 30
0.0
 11
396.4514475662178
 21
139.1310648103619
 31
0.0
  0
LINE
  5
7B9
330
2
100
AcDbEntity
  8
0
100
AcDbLine
 10
396.9712535662179
 20
140.3807678103618
 30
0.0
 11
393.8910535662177
 21
140.3807678103618
 31
0.0
  0
LINE
  5
7BA
330
2
100
AcDbEntity
  8
0
100
AcDbLine
 10
391.9222425662178
 20
145.5216898103619
 30
0.0
 11
396.7190565662178
 21
145.5216898103619
 31
0.0
  0
LINE
  5
7BB
330
2
100
AcDbEntity
  8
0
100
AcDbLine
 10
393.8910535662177
 20
139.1310648103619
 30
0.0
 11
393.8910535662177
 21
134.7716868103619
 31
0.0
  0
LINE
  5
7BC
330
2
100
AcDbEntity
  8
0
100
AcDbLine
 10
392.5160535662178
 20
144.0529398103619
 30
0.0
 11
392.5160535662178
 21
134.7716868103619
 31
0.0
  0
LINE
  5
7BD
330
2
100
AcDbEntity
  8
0
100
AcDbLine
 10
384.6410535662178
 20
144.0529398103619
 30
0.0
 11
384.6410535662178
 21
134.8341898103619
 31
0.0
  0
LINE
  5
7BE
330
2
100
AcDbEntity
  8
0
100
AcDbLine
 10
385.1410535662178
 20
134.8341898103619
 30
0.0
 11
385.1410535662178
 21
133.5216868103618
 31
0.0
  0
LINE
  5
7BF
330
2
100
AcDbEntity
  8
0
100
AcDbLine
 10
384.6410535662178
 20
134.8341898103619
 30
0.0
 11
385.1410535662178
 21
134.8341898103619
 31
0.0
  0
LINE
  5
7C0
330
2
100
AcDbEntity
  8
0
100
AcDbLine
 10
391.9222425662178
 20
134.7716868103619
 30
0.0
 11
391.9222425662178
 21
133.5216868103618
 31
0.0
  0
LINE
  5
7C1
330
2
100
AcDbEntity
  8
0
100
AcDbLine
 10
394.4378365662178
 20
134.7716868103619
 30
0.0
 11
394.4378365662178
 21
133.5216868103618
 31
0.0
  0
LINE
  5
7C2
330
2
100
AcDbEntity
  8
0
100
AcDbLine
 10
394.4378365662178
 20
133.5216868103618
 30
0.0
 11
391.9222425662178
 21
133.5216868103618
 31
0.0
  0
LINE
  5
7C3
330
2
100
AcDbEntity
  8
0
100
AcDbLine
 10
393.8910535662177
 20
134.7716868103619
 30
0.0
 11
394.4378365662178
 21
134.7716868103619
 31
0.0
  0
LINE
  5
7C4
330
2
100
AcDbEntity
  8
0
100
AcDbLine
 10
391.9222425662178
 20
134.7716868103619
 30
0.0
 11
392.5160535662178
 21
134.7716868103619
 31
0.0
  0
LINE
  5
7C5
330
2
100
AcDbEntity
  8
0
100
AcDbLine
 10
384.6410535662178
 20
144.0529398103619
 30
0.0
 11
386.7254345662179
 21
144.0529398103619
 31
0.0
  0
LINE
  5
7C6
330
2
100
AcDbEntity
  8
0
100
AcDbLine
 10
386.7254345662179
 20
144.0529398103619
 30
0.0
 11
387.0878305662179
 21
143.0216898103619
 31
0.0
  0
LINE
  5
7C7
330
2
100
AcDbEntity
  8
0
100
AcDbLine
 10
387.0878305662179
 20
143.0216898103619
 30
0.0
 11
387.9222425662178
 21
143.0216898103619
 31
0.0
  0
LINE
  5
7C8
330
2
100
AcDbEntity
  8
0
100
AcDbLine
 10
387.9222425662178
 20
143.0216898103619
 30
0.0
 11
387.9222425662178
 21
145.5216898103619
 31
0.0
  0
LINE
  5
7C9
330
2
100
AcDbEntity
  8
0
100
AcDbLine
 10
391.9222425662178
 20
144.0529398103619
 30
0.0
 11
392.5160535662178
 21
144.0529398103619
 31
0.0
  0
LINE
  5
7CA
330
2
100
AcDbEntity
  8
0
100
AcDbLine
 10
393.8910535662177
 20
144.0529398103619
 30
0.0
 11
393.8910535662177
 21
140.3807678103618
 31
0.0
  0
LINE
  5
7CB
330
2
100
AcDbEntity
  8
0
100
AcDbLine
 10
391.9222425662178
 20
145.5216898103619
 30
0.0
 11
391.9222425662178
 21
144.0529398103619
 31
0.0
  0
LINE
  5
7CC
330
2
100
AcDbEntity
  8
0
100
AcDbLine
 10
396.4514475662178
 20
139.1310648103619
 30
0.0
 11
398.3276375662178
 21
134.7716868103619
 31
0.0
  0
LINE
  5
7CD
330
2
100
AcDbEntity
  8
0
100
AcDbLine
 10
397.6030585662178
 20
139.2398068103618
 30
0.0
 11
399.5854505662179
 21
134.7716868103619
 31
0.0
  0
LINE
  5
7CE
330
2
100
AcDbEntity
  8
0
100
AcDbLine
 10
398.0784315662178
 20
134.7716868103619
 30
0.0
 11
398.0784315662178
 21
133.5216868103618
 31
0.0
  0
LINE
  5
7CF
330
2
100
AcDbEntity
  8
0
100
AcDbLine
 10
399.9222425662178
 20
134.7716868103619
 30
0.0
 11
399.9222425662178
 21
133.5216868103618
 31
0.0
  0
LINE
  5
7D0
330
2
100
AcDbEntity
  8
0
100
AcDbLine
 10
398.0784315662178
 20
133.5216868103618
 30
0.0
 11
399.9222425662178
 21
133.5216868103618
 31
0.0
  0
LINE
  5
7D1
330
2
100
AcDbEntity
  8
0
100
AcDbLine
 10
399.5854505662179
 20
134.7716868103619
 30
0.0
 11
399.9222425662178
 21
134.7716868103619
 31
0.0
  0
LINE
  5
7D2
330
2
100
AcDbEntity
  8
0
100
AcDbLine
 10
398.0784315662178
 20
134.7716868103619
 30
0.0
 11
398.3276375662178
 21
134.7716868103619
 31
0.0
  0
ARC
  5
7D3
330
2
100
AcDbEntity
  8
0
100
AcDbCircle
 10
396.7190565662178
 20
142.3185578103618
 30
0.0
 40
1.954124
100
AcDbArc
 50
277.4147259999995
 51
62.41184999999949
  0
ARC
  5
7D4
330
2
100
AcDbEntity
  8
0
100
AcDbCircle
 10
396.7190565662178
 20
142.3185578103618
 30
0.0
 40
3.203125999999999
100
AcDbArc
 50
286.0181269999995
 51
90.00350999999964
  0
ARC
  5
7D5
330
2
100
AcDbEntity
  8
0
100
AcDbCircle
 10
443.4222425662178
 20
89.52168681036189
 30
0.0
 40
3.0
100
AcDbArc
 50
0.0
 51
90.0
  0
LINE
  5
7D6
330
2
100
AcDbEntity
  8
0
100
AcDbLine
 10
436.4222425662178
 20
90.9841858103619
 30
0.0
 11
436.4222425662178
 21
77.5216868103619
 31
0.0
  0
LINE
  5
7D7
330
2
100
AcDbEntity
  8
CENTER
100
AcDbLine
 10
625.9543233703753
 20
97.5216868103619
 30
0.0
 11
625.9543233703753
 21
72.5216868103619
 31
0.0
  0
LINE
  5
7D8
330
2
100
AcDbEntity
  8
0
100
AcDbLine
 10
630.9542923703752
 20
108.5216868103618
 30
0.0
 11
630.9542923703752
 21
112.5003468103618
 31
0.0
  0
ARC
  5
7D9
330
2
100
AcDbEntity
  8
0
100
AcDbCircle
 10
616.9543233703753
 20
89.21762481036187
 30
0.0
 40
4.0
100
AcDbArc
 50
100.8855289999996
 51
180.0
  0
ARC
  5
7DA
330
2
100
AcDbEntity
  8
0
100
AcDbCircle
 10
616.9543233703753
 20
88.52168681036189
 30
0.0
 40
4.0
100
AcDbArc
 50
90.0
 51
180.0
  0
LINE
  5
7DB
330
2
100
AcDbEntity
  8
HIDS
100
AcDbLine
 10
631.4542923703752
 20
92.5216868103619
 30
0.0
 11
631.4542923703752
 21
77.5216868103619
 31
0.0
  0
LINE
  5
7DC
330
2
100
AcDbEntity
  8
HIDS
100
AcDbLine
 10
620.4543233703752
 20
92.5216868103619
 30
0.0
 11
620.4543233703752
 21
77.5216868103619
 31
0.0
  0
LINE
  5
7DD
330
2
100
AcDbEntity
  8
0
100
AcDbLine
 10
612.9543233703753
 20
89.21762481036187
 30
0.0
 11
612.9543233703753
 21
77.5216868103619
 31
0.0
  0
ARC
  5
7DE
330
2
100
AcDbEntity
  8
0
100
AcDbCircle
 10
634.9420853703752
 20
120.5094678103619
 30
0.0
 40
8.0
100
AcDbArc
 50
175.6276890259185
 51
233.2169950000002
  0
ARC
  5
7DF
330
2
100
AcDbEntity
  8
0
100
AcDbCircle
 10
628.9542923703752
 20
112.5003468103618
 30
0.0
 40
2.0
100
AcDbArc
 50
0.0
 51
53.21712100000005
  0
LINE
  5
7E0
330
2
100
AcDbEntity
  8
0
100
AcDbLine
 10
418.9382335662178
 20
203.3631438103618
 30
0.0
 11
427.5950325662178
 21
151.4710008103618
 31
0.0
  0
LINE
  5
7E1
330
2
100
AcDbEntity
  8
0
100
AcDbLine
 10
421.4042365662178
 20
203.7745208103618
 30
0.0
 11
430.0610365662178
 21
151.8821948103619
 31
0.0
  0
LINE
  5
7E2
330
2
100
AcDbEntity
  8
0
100
AcDbLine
 10
400.9222425662178
 20
193.5217438103619
 30
0.0
 11
400.9222425662178
 21
201.5217438103618
 31
0.0
  0
LINE
  5
7E3
330
2
100
AcDbEntity
  8
0
100
AcDbLine
 10
393.9222425662178
 20
193.5217288103618
 30
0.0
 11
393.9222425662178
 21
201.5217288103618
 31
0.0
  0
LINE
  5
7E4
330
2
100
AcDbEntity
  8
0
100
AcDbLine
 10
400.9222425662178
 20
193.5217438103619
 30
0.0
 11
393.9222425662178
 21
193.5217288103618
 31
0.0
  0
LINE
  5
7E5
330
2
100
AcDbEntity
  8
0
100
AcDbLine
 10
400.9222425662178
 20
201.5217438103618
 30
0.0
 11
393.9222425662178
 21
201.5217288103618
 31
0.0
  0
LINE
  5
7E6
330
2
100
AcDbEntity
  8
0
100
AcDbLine
 10
409.2026375662178
 20
251.1403498103618
 30
0.0
 11
444.2570505662179
 21
227.0119318103618
 31
0.0
  0
ARC
  5
7E7
330
2
100
AcDbEntity
  8
0
100
AcDbCircle
 10
406.3678595662179
 20
247.0216518103618
 30
0.0
 40
5.0
100
AcDbArc
 50
55.46007900000002
 51
90.0
  0
ARC
  5
7E8
330
2
100
AcDbEntity
  8
0
100
AcDbCircle
 10
441.4222425662178
 20
222.8932498103619
 30
0.0
 40
5.0
100
AcDbArc
 50
0.0
 51
55.46011000000049
  0
LINE
  5
7E9
330
2
100
AcDbEntity
  8
0
100
AcDbLine
 10
622.9543233703752
 20
167.8094178103618
 30
0.0
 11
622.9543233703752
 21
227.2339328103619
 31
0.0
  0
LINE
  5
7EA
330
2
100
AcDbEntity
  8
0
100
AcDbLine
 10
611.9543233703752
 20
193.5216898103619
 30
0.0
 11
575.9543233703753
 21
193.5216898103619
 31
0.0
  0
LINE
  5
7EB
330
2
100
AcDbEntity
  8
0
100
AcDbLine
 10
611.9543233703752
 20
201.5216828103618
 30
0.0
 11
575.9543233703753
 21
201.5216828103618
 31
0.0
  0
LINE
  5
7EC
330
2
100
AcDbEntity
  8
0
100
AcDbLine
 10
620.9543233703753
 20
183.5216898103619
 30
0.0
 11
575.9543233703753
 21
183.5216898103619
 31
0.0
  0
LINE
  5
7ED
330
2
100
AcDbEntity
  8
0
100
AcDbLine
 10
620.9543233703753
 20
211.5216828103618
 30
0.0
 11
575.9543233703753
 21
211.5216828103618
 31
0.0
  0
LINE
  5
7EE
330
2
100
AcDbEntity
  8
0
100
AcDbLine
 10
575.9543233703753
 20
183.5216898103619
 30
0.0
 11
575.9543233703753
 21
211.5216828103618
 31
0.0
  0
ARC
  5
7EF
330
2
100
AcDbEntity
  8
0
100
AcDbCircle
 10
627.9542923703752
 20
167.8094558103619
 30
0.0
 40
5.0
100
AcDbArc
 50
180.0
 51
254.2917020000004
  0
LINE
  5
7F0
330
2
100
AcDbEntity
  8
0
100
AcDbLine
 10
626.6005323703752
 20
162.9961698103618
 30
0.0
 11
627.7664873703753
 21
162.6682358103618
 31
0.0
  0
ARC
  5
7F1
330
2
100
AcDbEntity
  8
0
100
AcDbCircle
 10
626.9542923703752
 20
159.7802738103619
 30
0.0
 40
3.0
100
AcDbArc
 50
0.0
 51
74.29139700000042
  0
ARC
  5
7F2
330
2
100
AcDbEntity
  8
0
100
AcDbCircle
 10
611.9543233703752
 20
197.5216898103619
 30
0.0
 40
4.0
100
AcDbArc
 50
270.0
 51
90.0
  0
LINE
  5
7F3
330
2
100
AcDbEntity
  8
0
100
AcDbLine
 10
620.9543233703753
 20
212.5216828103619
 30
0.0
 11
620.9543233703753
 21
182.5216898103619
 31
0.0
  0
LINE
  5
7F4
330
2
100
AcDbEntity
  8
0
100
AcDbLine
 10
622.9543233703752
 20
182.5216898103619
 30
0.0
 11
620.9543233703753
 21
182.5216898103619
 31
0.0
  0
LINE
  5
7F5
330
2
100
AcDbEntity
  8
0
100
AcDbLine
 10
622.9543233703752
 20
212.5216828103619
 30
0.0
 11
620.9543233703753
 21
212.5216828103619
 31
0.0
  0
ARC
  5
7F6
330
2
100
AcDbEntity
  8
0
100
AcDbCircle
 10
627.9542923703752
 20
227.2339628103619
 30
0.0
 40
5.0
100
AcDbArc
 50
105.7089999999996
 51
180.0
  0
LINE
  5
7F8
330
2
100
AcDbEntity
  8
0
100
AcDbLine
 10
721.9542923703752
 20
127.3221058103618
 30
0.0
 11
721.9542923703752
 21
200.0216828103619
 31
0.0
  0
LINE
  5
7F9
330
2
100
AcDbEntity
  8
0
100
AcDbLine
 10
638.9542923703752
 20
248.4276278103618
 30
0.0
 11
638.9542923703752
 21
77.5216868103619
 31
0.0
  0
LINE
  5
7FA
330
2
100
AcDbEntity
  8
0
100
AcDbLine
 10
712.9542923703752
 20
248.4280238103618
 30
0.0
 11
712.9542923703752
 21
77.52166681036189
 31
0.0
  0
LINE
  5
7FB
330
2
100
AcDbEntity
  8
CENTER
100
AcDbLine
 10
675.9542923703752
 20
67.5216868103619
 30
0.0
 11
675.9542923703752
 21
262.0216828103619
 31
0.0
  0
ARC
  5
7FC
330
2
100
AcDbEntity
  8
0
100
AcDbCircle
 10
734.9542923703752
 20
88.52168681036189
 30
0.0
 40
4.0
100
AcDbArc
 50
0.0
 51
90.0
  0
LINE
  5
7FD
330
2
100
AcDbEntity
  8
0
100
AcDbLine
 10
735.7097243703752
 20
93.14566181036189
 30
0.0
 11
716.1989213703752
 21
96.8977238103619
 31
0.0
  0
LINE
  5
7FE
330
2
100
AcDbEntity
  8
0
100
AcDbLine
 10
703.4542923703752
 20
77.5216868103619
 30
0.0
 11
738.9542923703752
 21
77.5216868103619
 31
0.0
  0
LINE
  5
7FF
330
2
100
AcDbEntity
  8
CENTER
100
AcDbLine
 10
725.9542923703752
 20
97.5216868103619
 30
0.0
 11
725.9542923703752
 21
72.5216868103619
 31
0.0
  0
LINE
  5
800
330
2
100
AcDbEntity
  8
0
100
AcDbLine
 10
649.4542923703752
 20
78.52168681036189
 30
0.0
 11
702.4542923703752
 21
78.52168681036189
 31
0.0
  0
ARC
  5
801
330
2
100
AcDbEntity
  8
0
100
AcDbCircle
 10
634.9542923703752
 20
96.5216868103619
 30
0.0
 40
4.0
100
AcDbArc
 50
270.0
 51
0.0
  0
LINE
  5
802
330
2
100
AcDbEntity
  8
0
100
AcDbLine
 10
648.4542923703752
 20
77.5216868103619
 30
0.0
 11
649.4542923703752
 21
78.52168681036189
 31
0.0
  0
ARC
  5
803
330
2
100
AcDbEntity
  8
0
100
AcDbCircle
 10
634.9542923703752
 20
100.8257498103618
 30
0.0
 40
4.0
100
AcDbArc
 50
280.8854979999996
 51
0.0
  0
LINE
  5
804
330
2
100
AcDbEntity
  8
0
100
AcDbLine
 10
635.9542923703752
 20
103.5216868103618
 30
0.0
 11
638.9542923703752
 21
103.5216868103618
 31
0.0
  0
ARC
  5
805
330
2
100
AcDbEntity
  8
0
100
AcDbCircle
 10
633.9542923703752
 20
117.2212488103618
 30
0.0
 40
5.0
100
AcDbArc
 50
0.0
 51
74.47595200000005
  0
LINE
  5
806
330
2
100
AcDbEntity
  8
0
100
AcDbLine
 10
633.6160963703753
 20
122.5045278103618
 30
0.0
 11
635.2924883703752
 21
122.0388448103618
 31
0.0
  0
LINE
  5
807
330
2
100
AcDbEntity
  8
0
100
AcDbLine
 10
720.9542923703752
 20
108.5216868103618
 30
0.0
 11
720.9542923703752
 21
112.5004078103618
 31
0.0
  0
LINE
  5
808
330
2
100
AcDbEntity
  8
0
100
AcDbLine
 10
703.4542923703752
 20
77.5216868103619
 30
0.0
 11
702.4542923703752
 21
78.52168681036189
 31
0.0
  0
ARC
  5
809
330
2
100
AcDbEntity
  8
0
100
AcDbCircle
 10
716.9542923703752
 20
96.5216868103619
 30
0.0
 40
4.0
100
AcDbArc
 50
180.0
 51
270.0
  0
LINE
  5
80A
330
2
100
AcDbEntity
  8
HIDS
100
AcDbLine
 10
731.4542923703752
 20
92.5216868103619
 30
0.0
 11
731.4542923703752
 21
77.5216868103619
 31
0.0
  0
LINE
  5
80B
330
2
100
AcDbEntity
  8
HIDS
100
AcDbLine
 10
720.4542923703752
 20
92.5216868103619
 30
0.0
 11
720.4542923703752
 21
77.5216868103619
 31
0.0
  0
LINE
  5
80C
330
2
100
AcDbEntity
  8
0
100
AcDbLine
 10
734.9542923703752
 20
92.5216868103619
 30
0.0
 11
716.9542923703752
 21
92.5216868103619
 31
0.0
  0
ARC
  5
80D
330
2
100
AcDbEntity
  8
0
100
AcDbCircle
 10
716.9542923703752
 20
100.8257498103618
 30
0.0
 40
4.0
100
AcDbArc
 50
180.0
 51
259.1145019999995
  0
LINE
  5
80E
330
2
100
AcDbEntity
  8
0
100
AcDbLine
 10
715.9542923703752
 20
103.5216868103618
 30
0.0
 11
712.9542923703752
 21
103.5216868103618
 31
0.0
  0
ARC
  5
80F
330
2
100
AcDbEntity
  8
0
100
AcDbCircle
 10
715.9542923703752
 20
108.5216868103618
 30
0.0
 40
5.0
100
AcDbArc
 50
270.0
 51
0.0
  0
ARC
  5
810
330
2
100
AcDbEntity
  8
0
100
AcDbCircle
 10
716.9542923703752
 20
127.3221058103618
 30
0.0
 40
5.0
100
AcDbArc
 50
285.5242920000001
 51
0.0
  0
ARC
  5
811
330
2
100
AcDbEntity
  8
0
100
AcDbCircle
 10
716.9667433703753
 20
120.5097278103618
 30
0.0
 40
8.0
100
AcDbArc
 50
306.7809750000002
 51
4.372546687575213
  0
ARC
  5
812
330
2
100
AcDbEntity
  8
0
100
AcDbCircle
 10
717.9542923703752
 20
117.2212868103619
 30
0.0
 40
5.0
100
AcDbArc
 50
105.5243990000002
 51
180.0
  0
ARC
  5
813
330
2
100
AcDbEntity
  8
0
100
AcDbCircle
 10
722.9542923703752
 20
112.5004268103618
 30
0.0
 40
2.0
100
AcDbArc
 50
126.7811969999998
 51
180.0
  0
LINE
  5
814
330
2
100
AcDbEntity
  8
0
100
AcDbLine
 10
718.2924883703752
 20
122.5045278103618
 30
0.0
 11
716.6160963703752
 21
122.0388448103618
 31
0.0
  0
ARC
  5
815
330
2
100
AcDbEntity
  8
0
100
AcDbCircle
 10
734.9542923703752
 20
89.21762481036187
 30
0.0
 40
4.0
100
AcDbArc
 50
0.0
 51
79.11447100000036
  0
LINE
  5
816
330
2
100
AcDbEntity
  8
0
100
AcDbLine
 10
738.9542923703752
 20
89.21762481036187
 30
0.0
 11
738.9542923703752
 21
77.5216868103619
 31
0.0
  0
LINE
  5
817
330
2
100
AcDbEntity
  8
0
100
AcDbLine
 10
728.9542923703752
 20
227.2339478103619
 30
0.0
 11
728.9542923703752
 21
167.8094248103619
 31
0.0
  0
ARC
  5
818
330
2
100
AcDbEntity
  8
0
100
AcDbCircle
 10
723.9542923703752
 20
167.8094178103618
 30
0.0
 40
5.0
100
AcDbArc
 50
285.708801
 51
0.0
  0
ARC
  5
819
330
2
100
AcDbEntity
  8
0
100
AcDbCircle
 10
724.9542923703752
 20
159.7803038103618
 30
0.0
 40
3.0
100
AcDbArc
 50
105.7089999999996
 51
180.0
  0
LINE
  5
81A
330
2
100
AcDbEntity
  8
0
100
AcDbLine
 10
725.3079303703753
 20
162.9961698103618
 30
0.0
 11
724.1420973703752
 21
162.6682438103619
 31
0.0
  0
LINE
  5
81B
330
2
100
AcDbEntity
  8
0
100
AcDbLine
 10
710.0067213703753
 20
251.4275668103619
 30
0.0
 11
675.9542923703752
 21
252.0216828103619
 31
0.0
  0
LINE
  5
81C
330
2
100
AcDbEntity
  8
0
100
AcDbLine
 10
640.4542923703752
 20
225.5216828103618
 30
0.0
 11
711.2042923703752
 21
225.5216828103618
 31
0.0
  0
LINE
  5
81D
330
2
100
AcDbEntity
  8
0
100
AcDbLine
 10
641.9019243703753
 20
251.4271698103618
 30
0.0
 11
675.9542923703752
 21
252.0216828103619
 31
0.0
  0
ARC
  5
81E
330
2
100
AcDbEntity
  8
0
100
AcDbCircle
 10
633.9542923703752
 20
239.3094328103618
 30
0.0
 40
5.0
100
AcDbArc
 50
285.708801
 51
0.0
  0
ARC
  5
81F
330
2
100
AcDbEntity
  8
0
100
AcDbCircle
 10
641.9542923703752
 20
248.4276428103619
 30
0.0
 40
3.0
100
AcDbArc
 50
91.00052599999987
 51
180.0
  0
ARC
  5
820
330
2
100
AcDbEntity
  8
0
100
AcDbCircle
 10
717.9542923703752
 20
239.3094478103619
 30
0.0
 40
5.0
100
AcDbArc
 50
180.0
 51
254.2917020000004
  0
LINE
  5
821
330
2
100
AcDbEntity
  8
0
100
AcDbLine
 10
725.3079303703753
 20
232.0472108103619
 30
0.0
 11
716.6007153703752
 21
234.4961698103618
 31
0.0
  0
ARC
  5
822
330
2
100
AcDbEntity
  8
0
100
AcDbCircle
 10
723.9542923703752
 20
227.2339328103619
 30
0.0
 40
5.0
100
AcDbArc
 50
0.0
 51
74.2915270000003
  0
ARC
  5
823
330
2
100
AcDbEntity
  8
0
100
AcDbCircle
 10
709.9542923703752
 20
248.4280088103619
 30
0.0
 40
3.0
100
AcDbArc
 50
0.0
 51
89.00057999999992
  0
LINE
  5
825
330
2
100
AcDbEntity
  8
0
100
AcDbLine
 10
407.9222425662178
 20
420.320589797506
 30
0.0
 11
407.9222425662178
 21
488.3205897975058
 31
0.0
  0
LINE
  5
826
330
2
100
AcDbEntity
  8
CENTER
100
AcDbLine
 10
383.9222425662178
 20
344.3205897975059
 30
0.0
 11
383.9222425662178
 21
527.320589797506
 31
0.0
  0
LINE
  5
827
330
2
100
AcDbEntity
  8
0
100
AcDbLine
 10
446.4222425662178
 20
454.3205897975059
 30
0.0
 11
445.7763985662179
 21
417.3205897975059
 31
0.0
  0
LINE
  5
828
330
2
100
AcDbEntity
  8
0
100
AcDbLine
 10
400.9222425662178
 20
354.320589797506
 30
0.0
 11
400.9222425662178
 21
394.320589797506
 31
0.0
  0
LINE
  5
829
330
2
100
AcDbEntity
  8
0
100
AcDbLine
 10
397.3386545662179
 20
394.320589797506
 30
0.0
 11
397.3386545662179
 21
354.320589797506
 31
0.0
  0
ARC
  5
82A
330
2
100
AcDbEntity
  8
0
100
AcDbCircle
 10
432.9073795662179
 20
396.3205897975059
 30
0.0
 40
5.0
100
AcDbArc
 50
270.0
 51
340.2125109999998
  0
ARC
  5
82B
330
2
100
AcDbEntity
  8
0
100
AcDbCircle
 10
423.9222425662178
 20
404.320589797506
 30
0.0
 40
5.5
100
AcDbArc
 50
172.4013979999997
 51
59.46568299999974
  0
ARC
  5
82D
330
2
100
AcDbEntity
  8
0
100
AcDbCircle
 10
424.1032415662179
 20
413.3205897975059
 30
0.0
 40
5.0
100
AcDbArc
 50
270.0
 51
344.2913619999998
  0
LINE
  5
82E
330
2
100
AcDbEntity
  8
0
100
AcDbLine
 10
400.9222425662178
 20
391.320589797506
 30
0.0
 11
432.9073795662179
 21
391.320589797506
 31
0.0
  0
LINE
  5
82F
330
2
100
AcDbEntity
  8
0
100
AcDbLine
 10
398.9222425662178
 20
401.3205897975059
 30
0.0
 11
398.9222425662178
 21
399.3205897975059
 31
0.0
  0
LINE
  5
830
330
2
100
AcDbEntity
  8
0
100
AcDbLine
 10
397.3386545662179
 20
394.320589797506
 30
0.0
 11
400.9222425662178
 21
394.320589797506
 31
0.0
  0
LINE
  5
831
330
2
100
AcDbEntity
  8
0
100
AcDbLine
 10
397.9222425662178
 20
399.3205897975059
 30
0.0
 11
397.9222425662178
 21
394.320589797506
 31
0.0
  0
LINE
  5
833
330
2
100
AcDbEntity
  8
0
100
AcDbLine
 10
419.3909925662178
 20
408.320589797506
 30
0.0
 11
424.1032415662179
 21
408.320589797506
 31
0.0
  0
ARC
  5
834
330
2
100
AcDbEntity
  8
0
100
AcDbCircle
 10
413.6344915662179
 20
406.3205897975059
 30
0.0
 40
5.0
100
AcDbArc
 50
270.0
 51
344.2913619999998
  0
LINE
  5
835
330
2
100
AcDbEntity
  8
0
100
AcDbLine
 10
418.4477545662178
 20
404.966859797506
 30
0.0
 11
419.3909925662178
 21
408.320589797506
 31
0.0
  0
ARC
  5
836
330
2
100
AcDbEntity
  8
0
100
AcDbCircle
 10
432.6948865662179
 20
414.3205897975059
 30
0.0
 40
3.0
100
AcDbArc
 50
90.0
 51
164.2913669999995
  0
LINE
  5
837
330
2
100
AcDbEntity
  8
0
100
AcDbLine
 10
428.9165045662179
 20
411.966859797506
 30
0.0
 11
429.8069465662178
 21
415.132814797506
 31
0.0
  0
LINE
  5
838
330
2
100
AcDbEntity
  8
0
100
AcDbLine
 10
437.6121525662179
 20
394.627901797506
 30
0.0
 11
445.7763985662179
 21
417.3205897975059
 31
0.0
  0
ARC
  5
839
330
2
100
AcDbEntity
  8
0
100
AcDbCircle
 10
442.8283085662179
 20
420.320589797506
 30
0.0
 40
3.0
100
AcDbArc
 50
270.0
 51
358.9999999999998
  0
ARC
  5
83A
330
2
100
AcDbEntity
  8
0
100
AcDbCircle
 10
432.9073795662179
 20
512.320589797506
 30
0.0
 40
5.0
100
AcDbArc
 50
19.78748900000013
 51
90.0
  0
LINE
  5
83B
330
2
100
AcDbEntity
  8
CENTER
100
AcDbLine
 10
423.9222425662178
 20
514.231478797506
 30
0.0
 11
423.9222425662178
 21
494.409700797506
 31
0.0
  0
ARC
  5
83C
330
2
100
AcDbEntity
  8
0
100
AcDbCircle
 10
424.1032415662179
 20
495.3205897975059
 30
0.0
 40
5.0
100
AcDbArc
 50
15.70863800000017
 51
90.0
  0
ARC
  5
83D
330
2
100
AcDbEntity
  8
0
100
AcDbCircle
 10
432.6948865662179
 20
494.3205897975059
 30
0.0
 40
3.0
100
AcDbArc
 50
195.708649
 51
270.0
  0
LINE
  5
83E
330
2
100
AcDbEntity
  8
0
100
AcDbLine
 10
428.9165045662179
 20
496.6743187975061
 30
0.0
 11
429.8069465662178
 21
493.508333797506
 31
0.0
  0
ARC
  5
83F
330
2
100
AcDbEntity
  8
0
100
AcDbCircle
 10
423.9222425662178
 20
504.320589797506
 30
0.0
 40
5.5
100
AcDbArc
 50
300.5343170000002
 51
187.5984949999999
  0
LINE
  5
840
330
2
100
AcDbEntity
  8
CENTER
100
AcDbLine
 10
414.0113535662178
 20
504.320589797506
 30
0.0
 11
433.8331315662178
 21
504.320589797506
 31
0.0
  0
LINE
  5
841
330
2
100
AcDbEntity
  8
0
100
AcDbLine
 10
419.3909925662178
 20
500.3205897975059
 30
0.0
 11
424.1032415662179
 21
500.3205897975059
 31
0.0
  0
ARC
  5
842
330
2
100
AcDbEntity
  8
0
100
AcDbCircle
 10
413.6344915662179
 20
502.320589797506
 30
0.0
 40
5.0
100
AcDbArc
 50
15.70863800000017
 51
90.0
  0
LINE
  5
843
330
2
100
AcDbEntity
  8
0
100
AcDbLine
 10
418.4477545662178
 20
503.674287797506
 30
0.0
 11
419.3909925662178
 21
500.3205897975059
 31
0.0
  0
LINE
  5
844
330
2
100
AcDbEntity
  8
0
100
AcDbLine
 10
446.4222425662178
 20
454.3205897975059
 30
0.0
 11
445.7763985662179
 21
491.3205897975059
 31
0.0
  0
LINE
  5
845
330
2
100
AcDbEntity
  8
0
100
AcDbLine
 10
437.6121525662179
 20
514.0132467975059
 30
0.0
 11
445.7763985662179
 21
491.3205897975059
 31
0.0
  0
ARC
  5
846
330
2
100
AcDbEntity
  8
0
100
AcDbCircle
 10
442.8283085662179
 20
488.3205897975058
 30
0.0
 40
3.0
100
AcDbArc
 50
1.000000000000147
 51
90.0
  0
ARC
  5
847
330
2
100
AcDbEntity
  8
0
100
AcDbCircle
 10
442.8283085662179
 20
488.3205897975058
 30
0.0
 40
3.0
100
AcDbArc
 50
1.000000000000147
 51
90.0
  0
LINE
  5
855
330
2
100
AcDbEntity
  8
CENTER
100
AcDbLine
 10
343.9222425662178
 20
514.231478797506
 30
0.0
 11
343.9222425662178
 21
494.409700797506
 31
0.0
  0
LINE
  5
856
330
2
100
AcDbEntity
  8
CENTER
100
AcDbLine
 10
334.0113535662178
 20
504.320589797506
 30
0.0
 11
353.8331315662178
 21
504.320589797506
 31
0.0
  0
LINE
  5
857
330
2
100
AcDbEntity
  8
CENTER
100
AcDbLine
 10
343.9222425662178
 20
414.231478797506
 30
0.0
 11
343.9222425662178
 21
394.4097007975059
 31
0.0
  0
LINE
  5
858
330
2
100
AcDbEntity
  8
CENTER
100
AcDbLine
 10
334.0113535662178
 20
404.320589797506
 30
0.0
 11
353.8331315662178
 21
404.320589797506
 31
0.0
  0
LINE
  5
859
330
2
100
AcDbEntity
  8
CENTER
100
AcDbLine
 10
423.9222425662178
 20
414.231478797506
 30
0.0
 11
423.9222425662178
 21
394.4097007975059
 31
0.0
  0
LINE
  5
85A
330
2
100
AcDbEntity
  8
CENTER
100
AcDbLine
 10
414.0113535662178
 20
404.320589797506
 30
0.0
 11
433.8331315662178
 21
404.320589797506
 31
0.0
  0
TEXT
  5
875
330
2
100
AcDbEntity
  8
TITLE
100
AcDbText
 10
472.9523363827324
 20
492.7033178053618
 30
0.0
 40
7.5
  1
HLMN-28R-1200~1800-T25T
 41
0.8
100
AcDbText
  0
TEXT
  5
876
330
2
100
AcDbEntity
  8
TITLE
100
AcDbText
 10
472.9523363827324
 20
480.7033178053618
 30
0.0
 40
7.5
  1
HLMN-28R-1200~1800-T25WT
 41
0.8
100
AcDbText
  0
TEXT
  5
877
330
2
100
AcDbEntity
  8
TITLE
100
AcDbText
 10
472.9523363827324
 20
468.7033178053618
 30
0.0
 40
7.5
  1
HLMN-28R-600~900-T40T
 41
0.8
100
AcDbText
  0
TEXT
  5
878
330
2
100
AcDbEntity
  8
TITLE
100
AcDbText
 10
472.9523363827324
 20
456.7033178053618
 30
0.0
 40
7.5
  1
HLMN-28R-600~900-T40WT
 41
0.8
100
AcDbText
  0
TEXT
  5
879
330
2
100
AcDbEntity
  8
TITLE
100
AcDbText
 10
472.9523363827324
 20
444.7033178053618
 30
0.0
 40
7.5
  1
HLMN-28R-600~900-T60T
 41
0.8
100
AcDbText
  0
TEXT
  5
87A
330
2
100
AcDbEntity
  8
TITLE
100
AcDbText
 10
472.9523363827324
 20
432.7033178053618
 30
0.0
 40
7.5
  1
HLMN-28R-600~900-T60WT
 41
0.8
100
AcDbText
  0
TEXT
  5
87B
330
2
100
AcDbEntity
  8
TITLE
100
AcDbText
 10
472.9523363827324
 20
420.7033178053618
 30
0.0
 40
7.5
  1
HLMN-28R-300~450-T90T
 41
0.8
100
AcDbText
  0
TEXT
  5
87C
330
2
100
AcDbEntity
  8
TITLE
100
AcDbText
 10
472.9523363827324
 20
408.7033178053618
 30
0.0
 40
7.5
  1
HLMN-28R-300~450-T90WT
 41
0.8
100
AcDbText
  0
TEXT
  5
87D
330
2
100
AcDbEntity
  8
TITLE
100
AcDbText
 10
625.5932130811774
 20
420.7033178053618
 30
0.0
 40
7.5
  1
HLMN-28R-300~450-S90T
 41
0.8
100
AcDbText
  0
TEXT
  5
87E
330
2
100
AcDbEntity
  8
TITLE
100
AcDbText
 10
625.5932130811774
 20
408.7033178053618
 30
0.0
 40
7.5
  1
HLMN-28R-300~450-S90WT
 41
0.8
100
AcDbText
  0
TEXT
  5
87F
330
2
100
AcDbEntity
  8
TITLE
100
AcDbText
 10
625.5932130811774
 20
432.7033178053618
 30
0.0
 40
7.5
  1
HLMN-28R-600~900-S60WT
 41
0.8
100
AcDbText
  0
TEXT
  5
880
330
2
100
AcDbEntity
  8
TITLE
100
AcDbText
 10
625.5932130811774
 20
444.7033178053618
 30
0.0
 40
7.5
  1
HLMN-28R-600~900-S60T
 41
0.8
100
AcDbText
  0
TEXT
  5
881
330
2
100
AcDbEntity
  8
TITLE
100
AcDbText
 10
625.5932130811774
 20
456.7033178053618
 30
0.0
 40
7.5
  1
HLMN-28R-600~900-S40WT
 41
0.8
100
AcDbText
  0
TEXT
  5
882
330
2
100
AcDbEntity
  8
TITLE
100
AcDbText
 10
625.5932130811774
 20
468.7033178053618
 30
0.0
 40
7.5
  1
HLMN-28R-600~900-S40T
 41
0.8
100
AcDbText
  0
TEXT
  5
883
330
2
100
AcDbEntity
  8
TITLE
100
AcDbText
 10
625.5932130811774
 20
480.7033178053618
 30
0.0
 40
7.5
  1
HLMN-28R-1200~1800-S25WT
 41
0.8
100
AcDbText
  0
TEXT
  5
884
330
2
100
AcDbEntity
  8
TITLE
100
AcDbText
 10
625.5932130811774
 20
492.7033178053618
 30
0.0
 40
7.5
  1
HLMN-28R-1200~1800-S25T
 41
0.8
100
AcDbText
  0
LINE
  5
F08
330
2
100
AcDbEntity
  8
CENTER
100
AcDbLine
 10
230.3168078961006
 20
161.5216898103619
 30
0.0
 11
328.4649313989424
 21
161.5216898103619
 31
0.0
  0
ARC
  5
1310
330
2
100
AcDbEntity
  8
0
100
AcDbCircle
 10
675.9542923703752
 20
161.5216898103619
 30
0.0
 40
63.500099
100
AcDbArc
 50
305.6389972884995
 51
33.42117449473274
  0
ARC
  5
1311
330
2
100
AcDbEntity
  8
0
100
AcDbCircle
 10
675.9542923703752
 20
161.5216898103619
 30
0.0
 40
63.500099
100
AcDbArc
 50
159.729289887728
 51
234.3610027115004
  0
LINE
  5
1E9F
330
2
100
AcDbEntity
  8
CENTER
100
AcDbLine
 10
105.9784895662179
 20
216.5216878103619
 30
0.0
 11
177.8745485299562
 21
216.5216878103619
 31
0.0
  0
LINE
  5
1EC5
330
2
100
AcDbEntity
  8
0
100
AcDbLine
 10
168.9223375662179
 20
431.320589797506
 30
0.0
 11
166.9221385662178
 21
429.320589797506
 31
0.0
  0
LINE
  5
1EC6
330
2
100
AcDbEntity
  8
0
100
AcDbLine
 10
168.9221385662178
 20
431.320589797506
 30
0.0
 11
166.9221385662178
 21
429.320589797506
 31
0.0
  0
LINE
  5
1EC7
330
2
100
AcDbEntity
  8
0
100
AcDbLine
 10
168.9221385662178
 20
431.320589797506
 30
0.0
 11
166.9221385662178
 21
429.320589797506
 31
0.0
  0
LINE
  5
1EC8
330
2
100
AcDbEntity
  8
0
100
AcDbLine
 10
126.4222385662179
 20
432.820589797506
 30
0.0
 11
126.4222385662179
 21
429.320788797506
 31
0.0
  0
LINE
  5
1EC9
330
2
100
AcDbEntity
  8
0
100
AcDbLine
 10
118.9222385662179
 20
431.320589797506
 30
0.0
 11
120.9222385662179
 21
429.320589797506
 31
0.0
  0
LINE
  5
1ECA
330
2
100
AcDbEntity
  8
0
100
AcDbLine
 10
118.9222385662179
 20
431.320589797506
 30
0.0
 11
120.9222385662179
 21
429.320589797506
 31
0.0
  0
CIRCLE
  5
1ECB
330
2
100
AcDbEntity
  8
0
100
AcDbCircle
 10
122.4222685662178
 20
432.820589797506
 30
0.0
 40
3.500000000000028
  0
LINE
  5
1ECC
330
2
100
AcDbEntity
  8
CENTER
100
AcDbLine
 10
143.9222455662179
 20
489.7098157416137
 30
0.0
 11
143.9222455662179
 21
418.570589797506
 31
0.0
  0
LINE
  5
1ECE
330
2
100
AcDbEntity
  8
0
100
AcDbLine
 10
168.9222455662179
 20
225.0216878103619
 30
0.0
 11
168.9222455662179
 21
197.0216898103619
 31
0.0
  0
LINE
  5
1ECF
330
2
100
AcDbEntity
  8
0
100
AcDbLine
 10
118.9222385662179
 20
225.0216878103619
 30
0.0
 11
118.9222385662179
 21
197.0216898103619
 31
0.0
  0
LINE
  5
1ED0
330
2
100
AcDbEntity
  8
CENTER
100
AcDbLine
 10
143.9222455662179
 20
185.3279888103619
 30
0.0
 11
143.9222455662179
 21
236.4091878103619
 31
0.0
  0
LINE
  5
1ED5
330
2
100
AcDbEntity
  8
0
100
AcDbLine
 10
120.4222385662179
 20
195.0216898103619
 30
0.0
 11
166.9222455662179
 21
195.0216898103619
 31
0.0
  0
LINE
  5
1ED6
330
2
100
AcDbEntity
  8
0
100
AcDbLine
 10
118.9222385662179
 20
197.0216898103619
 30
0.0
 11
168.9222455662179
 21
197.0216898103619
 31
0.0
  0
LINE
  5
1ED8
330
2
100
AcDbEntity
  8
0
100
AcDbLine
 10
118.9222385662179
 20
197.0216898103619
 30
0.0
 11
120.9222385662179
 21
195.0216898103619
 31
0.0
  0
LINE
  5
1ED9
330
2
100
AcDbEntity
  8
0
100
AcDbLine
 10
120.4222385662179
 20
195.0216898103619
 30
0.0
 11
120.4222385662179
 21
193.5216898103619
 31
0.0
  0
LINE
  5
1EDA
330
2
100
AcDbEntity
  8
0
100
AcDbLine
 10
166.9222455662179
 20
195.0216898103619
 30
0.0
 11
168.9222455662179
 21
197.0216898103619
 31
0.0
  0
LINE
  5
1EDB
330
2
100
AcDbEntity
  8
0
100
AcDbLine
 10
166.4222455662179
 20
195.0216898103619
 30
0.0
 11
166.4222455662179
 21
193.5216898103619
 31
0.0
  0
LINE
  5
1EE4
330
2
100
AcDbEntity
  8
0
100
AcDbLine
 10
123.7601543822435
 20
226.0216878103619
 30
0.0
 11
167.9222455662179
 21
226.0216878103619
 31
0.0
  0
LINE
  5
1EE5
330
2
100
AcDbEntity
  8
0
100
AcDbLine
 10
116.9222385662179
 20
207.0216898103619
 30
0.0
 11
168.9222455662179
 21
207.0216898103619
 31
0.0
  0
LINE
  5
1EE6
330
2
100
AcDbEntity
  8
0
100
AcDbLine
 10
126.4222389947889
 20
225.0216878103619
 30
0.0
 11
168.922252566218
 21
225.0216878103619
 31
0.0
  0
LINE
  5
1EE7
330
2
100
AcDbEntity
  8
0
100
AcDbLine
 10
116.9222535662179
 20
223.0216878103619
 30
0.0
 11
116.9222385662179
 21
207.0216898103619
 31
0.0
  0
LINE
  5
1EE8
330
2
100
AcDbEntity
  8
0
100
AcDbLine
 10
113.4222385662179
 20
212.5216878103619
 30
0.0
 11
116.9222385662179
 21
211.0216878103619
 31
0.0
  0
LINE
  5
1EE9
330
2
100
AcDbEntity
  8
0
100
AcDbLine
 10
113.4222535662179
 20
220.5216878103619
 30
0.0
 11
116.9222535662179
 21
222.0216878103619
 31
0.0
  0
LINE
  5
1EEA
330
2
100
AcDbEntity
  8
0
100
AcDbLine
 10
113.4222535662179
 20
220.5216878103619
 30
0.0
 11
113.4222535662179
 21
212.5216878103619
 31
0.0
  0
SPLINE
  5
1EEB
330
2
100
AcDbEntity
  8
0
100
AcDbSpline
210
0.0
220
0.0
230
1.0
 70
     8
 71
     3
 72
    11
 73
     7
 74
     0
 42
0.0000000001
 43
0.0000000001
 40
0.0
 40
0.0
 40
0.0
 40
0.0
 40
0.4601364636755307
 40
1.04988694485363
 40
1.713742833862792
 40
2.320347933405154
 40
2.320347933405154
 40
2.320347933405154
 40
2.320347933405179
 10
122.709745566673
 20
224.6046878103618
 30
0.0
 10
122.7321632237809
 20
224.7597112500417
 30
0.0
 10
122.7833132790142
 20
225.1134260679592
 30
0.0
 10
123.2191984405478
 20
225.5381537395609
 30
0.0
 10
123.8242491555552
 20
225.7573409195267
 30
0.0
 10
124.2494337797311
 20
225.6883496199161
 30
0.0
 10
124.4519853893821
 20
225.6741293477394
 30
0.0
  0
LINE
  5
1EEC
330
2
100
AcDbEntity
  8
0
100
AcDbLine
 10
126.4222389947889
 20
223.5216878103618
 30
0.0
 11
118.9222389947889
 21
223.5216878103618
 31
0.0
  0
ARC
  5
1EED
330
2
100
AcDbEntity
  8
0
100
AcDbCircle
 10
122.422245566218
 20
217.1216878103618
 30
0.0
 40
9.0
100
AcDbArc
 50
74.11914999172198
 51
105.880850008278
  0
LINE
  5
1EEE
330
2
100
AcDbEntity
  8
0
100
AcDbLine
 10
117.9222385662179
 20
224.0216878103619
 30
0.0
 11
118.9222385662179
 21
224.0216878103619
 31
0.0
  0
ARC
  5
1EEF
330
2
100
AcDbEntity
  8
0
100
AcDbCircle
 10
117.9222535662179
 20
223.0216878103619
 30
0.0
 40
1.0
100
AcDbArc
 50
90.0
 51
180.0
  0
LINE
  5
1EF0
330
2
100
AcDbEntity
  8
0
100
AcDbLine
 10
120.392505743054
 20
225.6741293477394
 30
0.0
 11
120.3722455662179
 21
225.885106093201
 31
0.0
  0
LINE
  5
1EF1
330
2
100
AcDbEntity
  8
0
100
AcDbLine
 10
119.9222385662179
 20
226.0216878103619
 30
0.0
 11
121.0843367501926
 21
226.0216878103619
 31
0.0
  0
LINE
  5
1EF2
330
2
100
AcDbEntity
  8
0
100
AcDbLine
 10
118.922245566218
 20
223.5216878103618
 30
0.0
 11
119.0201817051058
 21
224.6411030001801
 31
0.0
  0
SPLINE
  5
1EF3
330
2
100
AcDbEntity
  8
0
100
AcDbSpline
210
0.0
220
0.0
230
1.0
 70
     8
 71
     3
 72
    11
 73
     7
 74
     0
 42
0.0000000001
 43
0.0000000001
 40
0.0
 40
0.0
 40
0.0
 40
0.0
 40
0.4601364636755307
 40
1.04988694485363
 40
1.713742833862792
 40
2.320347933405154
 40
2.320347933405154
 40
2.320347933405154
 40
2.320347933405179
 10
122.134745565763
 20
224.6046878103618
 30
0.0
 10
122.1123279086551
 20
224.7597112500417
 30
0.0
 10
122.0611778534218
 20
225.1134260679592
 30
0.0
 10
121.6252926918882
 20
225.5381537395609
 30
0.0
 10
121.0202419768809
 20
225.7573409195267
 30
0.0
 10
120.5950573527049
 20
225.6883496199161
 30
0.0
 10
120.392505743054
 20
225.6741293477394
 30
0.0
  0
ARC
  5
1EF4
330
2
100
AcDbEntity
  8
0
100
AcDbCircle
 10
120.315234812625
 20
224.5278005346081
 30
0.0
 40
1.3
100
AcDbArc
 50
105.880850008278
 51
174.9999999999999
  0
LINE
  5
1EF5
330
2
100
AcDbEntity
  8
0
100
AcDbLine
 10
119.9222389947889
 20
226.0216878103618
 30
0.0
 11
118.9222385662179
 21
225.0216878103619
 31
0.0
  0
LINE
  5
1EF6
330
2
100
AcDbEntity
  8
0
100
AcDbLine
 10
118.9222385662179
 20
225.0216878103619
 30
0.0
 11
119.9222385662179
 21
226.0216878103619
 31
0.0
  0
LINE
  5
1EF7
330
2
100
AcDbEntity
  8
0
100
AcDbLine
 10
122.709745566673
 20
224.6046878103618
 30
0.0
 11
122.134745565763
 21
224.6046878103618
 31
0.0
  0
LINE
  5
1EF8
330
2
100
AcDbEntity
  8
0
100
AcDbLine
 10
126.4222389947889
 20
225.5216878103618
 30
0.0
 11
125.3672229558381
 21
225.5216878103618
 31
0.0
  0
ARC
  5
1EF9
330
2
100
AcDbEntity
  8
0
100
AcDbCircle
 10
124.5292563198108
 20
224.5278005346081
 30
0.0
 40
1.3
100
AcDbArc
 50
5.000000000000026
 51
74.11914999172198
  0
LINE
  5
1EFA
330
2
100
AcDbEntity
  8
0
100
AcDbLine
 10
124.4519853893821
 20
225.6741293477394
 30
0.0
 11
124.4722455662181
 21
225.885106093201
 31
0.0
  0
LINE
  5
1EFB
330
2
100
AcDbEntity
  8
0
100
AcDbLine
 10
125.9222455662179
 20
223.5216878103618
 30
0.0
 11
125.8243094273301
 21
224.6411030001801
 31
0.0
  0
LINE
  5
1EFC
330
2
100
AcDbEntity
  8
0
100
AcDbLine
 10
126.4222389947889
 20
223.5216878103618
 30
0.0
 11
126.4222389947889
 21
225.5216878103618
 31
0.0
  0
LINE
  5
1EFD
330
2
100
AcDbEntity
  8
0
100
AcDbLine
 10
126.9222389947889
 20
226.0216878103618
 30
0.0
 11
126.4222389947889
 21
225.5216878103618
 31
0.0
  0
LINE
  5
1EFE
330
2
100
AcDbEntity
  8
0
100
AcDbLine
 10
167.922252566218
 20
226.0216878103619
 30
0.0
 11
168.922252566218
 21
225.0216878103619
 31
0.0
  0
LINE
  5
1EFF
330
2
100
AcDbEntity
  8
0
100
AcDbLine
 10
120.9222385662179
 20
429.320589797506
 30
0.0
 11
166.9221385662178
 21
429.320589797506
 31
0.0
  0
CIRCLE
  5
1F3B
330
2
100
AcDbEntity
  8
0
100
AcDbCircle
 10
165.4223375662179
 20
475.820589797506
 30
0.0
 40
3.500000000000028
  0
LINE
  5
1F3C
330
2
100
AcDbEntity
  8
0
100
AcDbLine
 10
118.9222385662179
 20
477.320589797506
 30
0.0
 11
118.9222385662179
 21
431.320589797506
 31
0.0
  0
LINE
  5
1F3D
330
2
100
AcDbEntity
  8
0
100
AcDbLine
 10
120.3222325662179
 20
476.920580797506
 30
0.0
 11
120.3222395662179
 21
436.820589797506
 31
0.0
  0
LINE
  5
1F3E
330
2
100
AcDbEntity
  8
0
100
AcDbLine
 10
168.922138566218
 20
477.3205897975059
 30
0.0
 11
168.9221385662178
 21
431.320589797506
 31
0.0
  0
ARC
  5
1F3F
330
2
100
AcDbEntity
  8
0
100
AcDbCircle
 10
165.4223375662179
 20
475.820589797506
 30
0.0
 40
4.0
100
AcDbArc
 50
180.0
 51
270.0
  0
LINE
  5
1F40
330
2
100
AcDbEntity
  8
0
100
AcDbLine
 10
166.5223435662179
 20
430.720583797506
 30
0.0
 11
126.4222385662179
 21
430.720583797506
 31
0.0
  0
LINE
  5
1F41
330
2
100
AcDbEntity
  8
0
100
AcDbLine
 10
116.9222385662179
 20
447.820589797506
 30
0.0
 11
116.9222385662179
 21
460.820589797506
 31
0.0
  0
LINE
  5
1F42
330
2
100
AcDbEntity
  8
0
100
AcDbLine
 10
116.9222385662179
 20
448.820589797506
 30
0.0
 11
113.4222385662179
 21
452.320589797506
 31
0.0
  0
ARC
  5
1F43
330
2
100
AcDbEntity
  8
0
100
AcDbCircle
 10
124.451968566218
 20
434.8502897975059
 30
0.0
 40
1.742199999999999
100
AcDbArc
 50
179.9986903345002
 51
270.0013096654932
  0
ARC
  5
1F44
330
2
100
AcDbEntity
  8
0
100
AcDbCircle
 10
124.451968566218
 20
430.790889797506
 30
0.0
 40
1.742199999999999
100
AcDbArc
 50
89.99869033450025
 51
180.0013096654997
  0
ARC
  5
1F45
330
2
100
AcDbEntity
  8
0
100
AcDbCircle
 10
122.4222685662178
 20
432.820589797506
 30
0.0
 40
4.0
100
AcDbArc
 50
0.0
 51
90.0
  0
ARC
  5
1F46
330
2
100
AcDbEntity
  8
0
100
AcDbCircle
 10
122.4222685662178
 20
432.820589797506
 30
0.0
 40
2.049999999999998
100
AcDbArc
 50
81.93803991601789
 51
90.0
  0
ARC
  5
1F47
330
2
100
AcDbEntity
  8
0
100
AcDbCircle
 10
122.4222685662178
 20
432.820589797506
 30
0.0
 40
2.049999999999998
100
AcDbArc
 50
270.0
 51
278.061960083982
  0
ARC
  5
1F48
330
2
100
AcDbEntity
  8
0
100
AcDbCircle
 10
122.4222685662178
 20
432.820589797506
 30
0.0
 40
2.049999999999998
100
AcDbArc
 50
180.0
 51
188.0619600839816
  0
ARC
  5
1F49
330
2
100
AcDbEntity
  8
0
100
AcDbCircle
 10
122.4222685662178
 20
432.820589797506
 30
0.0
 40
2.049999999999998
100
AcDbArc
 50
171.9380399160183
 51
180.0
  0
ARC
  5
1F4A
330
2
100
AcDbEntity
  8
0
100
AcDbCircle
 10
120.3925685662179
 20
434.8502897975059
 30
0.0
 40
1.742199999999999
100
AcDbArc
 50
269.9986903345002
 51
0.0013096654997424
  0
LINE
  5
1F4B
330
2
100
AcDbEntity
  8
0
100
AcDbLine
 10
122.422268566218
 20
436.820589797506
 30
0.0
 11
118.922268566218
 21
436.820589797506
 31
0.0
  0
ARC
  5
1F4C
330
2
100
AcDbEntity
  8
0
100
AcDbCircle
 10
122.4222685662178
 20
432.820589797506
 30
0.0
 40
2.049999999999998
100
AcDbArc
 50
90.0
 51
98.06196008398211
  0
ARC
  5
1F4D
330
2
100
AcDbEntity
  8
0
100
AcDbCircle
 10
122.4222685662178
 20
432.820589797506
 30
0.0
 40
2.049999999999998
100
AcDbArc
 50
261.9380399160178
 51
270.0
  0
ARC
  5
1F4E
330
2
100
AcDbEntity
  8
0
100
AcDbCircle
 10
120.3925685662179
 20
430.790889797506
 30
0.0
 40
1.742199999999999
100
AcDbArc
 50
359.9986903345002
 51
90.00130966549322
  0
ARC
  5
1F4F
330
2
100
AcDbEntity
  8
0
100
AcDbCircle
 10
122.4222685662178
 20
432.820589797506
 30
0.0
 40
2.049999999999998
100
AcDbArc
 50
351.9380399160183
 51
0.0
  0
ARC
  5
1F50
330
2
100
AcDbEntity
  8
0
100
AcDbCircle
 10
122.4222685662178
 20
432.820589797506
 30
0.0
 40
2.049999999999998
100
AcDbArc
 50
0.0
 51
8.061960083981649
  0
ARC
  5
1F51
330
2
100
AcDbEntity
  8
0
100
AcDbCircle
 10
117.9222385662178
 20
447.820589797506
 30
0.0
 40
1.0
100
AcDbArc
 50
180.0
 51
270.0
  0
LINE
  5
1F52
330
2
100
AcDbEntity
  8
0
100
AcDbLine
 10
117.9222385662179
 20
446.820589797506
 30
0.0
 11
118.9222385662179
 21
446.820589797506
 31
0.0
  0
ARC
  5
1F53
330
2
100
AcDbEntity
  8
0
100
AcDbCircle
 10
117.9222535662179
 20
460.820589797506
 30
0.0
 40
1.0
100
AcDbArc
 50
90.0
 51
180.0
  0
LINE
  5
1F54
330
2
100
AcDbEntity
  8
0
100
AcDbLine
 10
117.9222385662179
 20
461.820589797506
 30
0.0
 11
118.9222385662179
 21
461.820589797506
 31
0.0
  0
LINE
  5
1F55
330
2
100
AcDbEntity
  8
0
100
AcDbLine
 10
113.4222385662179
 20
456.320589797506
 30
0.0
 11
113.4222385662179
 21
452.320589797506
 31
0.0
  0
LINE
  5
1F56
330
2
100
AcDbEntity
  8
0
100
AcDbLine
 10
113.4222385662179
 20
456.320589797506
 30
0.0
 11
116.9222385662179
 21
459.820589797506
 31
0.0
  0
LINE
  5
1F57
330
2
100
AcDbEntity
  8
0
100
AcDbLine
 10
167.5223435662179
 20
431.720583797506
 30
0.0
 11
167.5223435662179
 21
471.8205897975059
 31
0.0
  0
LINE
  5
1F58
330
2
100
AcDbEntity
  8
0
100
AcDbLine
 10
166.5223435662179
 20
430.720583797506
 30
0.0
 11
167.5223435662179
 21
431.720583797506
 31
0.0
  0
LINE
  5
1F59
330
2
100
AcDbEntity
  8
0
100
AcDbLine
 10
165.4221385662179
 20
471.8205897975059
 30
0.0
 11
168.922138566218
 21
471.8205897975059
 31
0.0
  0
LINE
  5
1F5A
330
2
100
AcDbEntity
  8
0
100
AcDbLine
 10
121.3222395662179
 20
477.920580797506
 30
0.0
 11
161.422138566218
 21
477.9205807975059
 31
0.0
  0
LINE
  5
1F5B
330
2
100
AcDbEntity
  8
0
100
AcDbLine
 10
120.9222385662179
 20
479.320589797506
 30
0.0
 11
166.9221385662179
 21
479.320589797506
 31
0.0
  0
LINE
  5
1F5C
330
2
100
AcDbEntity
  8
0
100
AcDbLine
 10
118.9222385662179
 20
477.320589797506
 30
0.0
 11
120.9222385662179
 21
479.320589797506
 31
0.0
  0
LINE
  5
1F5D
330
2
100
AcDbEntity
  8
0
100
AcDbLine
 10
120.3222325662179
 20
476.920580797506
 30
0.0
 11
121.3222395662179
 21
477.920580797506
 31
0.0
  0
LINE
  5
1F5E
330
2
100
AcDbEntity
  8
0
100
AcDbLine
 10
166.9221385662179
 20
479.320589797506
 30
0.0
 11
168.922138566218
 21
477.3205897975059
 31
0.0
  0
LINE
  5
1F5F
330
2
100
AcDbEntity
  8
0
100
AcDbLine
 10
168.922138566218
 20
477.3205897975059
 30
0.0
 11
166.9221385662179
 21
479.320589797506
 31
0.0
  0
LINE
  5
1F60
330
2
100
AcDbEntity
  8
0
100
AcDbLine
 10
161.422138566218
 20
475.8205897975059
 30
0.0
 11
161.422138566218
 21
479.320589797506
 31
0.0
  0
ARC
  5
1F61
330
2
100
AcDbEntity
  8
0
100
AcDbCircle
 10
165.4223375662179
 20
475.820589797506
 30
0.0
 40
2.049999999999998
100
AcDbArc
 50
171.9380399160183
 51
180.0
  0
ARC
  5
1F62
330
2
100
AcDbEntity
  8
0
100
AcDbCircle
 10
167.4520375662181
 20
477.850289797506
 30
0.0
 40
1.742199999999999
100
AcDbArc
 50
179.9986903345002
 51
270.0013096654932
  0
ARC
  5
1F63
330
2
100
AcDbEntity
  8
0
100
AcDbCircle
 10
165.4223375662179
 20
475.820589797506
 30
0.0
 40
2.049999999999998
100
AcDbArc
 50
351.9380399160183
 51
0.0
  0
ARC
  5
1F64
330
2
100
AcDbEntity
  8
0
100
AcDbCircle
 10
165.4223375662179
 20
475.820589797506
 30
0.0
 40
2.049999999999998
100
AcDbArc
 50
0.0
 51
8.061960083981649
  0
ARC
  5
1F65
330
2
100
AcDbEntity
  8
0
100
AcDbCircle
 10
165.4223375662179
 20
475.820589797506
 30
0.0
 40
2.049999999999998
100
AcDbArc
 50
81.93803991601789
 51
90.0
  0
ARC
  5
1F66
330
2
100
AcDbEntity
  8
0
100
AcDbCircle
 10
165.4223375662179
 20
475.820589797506
 30
0.0
 40
2.049999999999998
100
AcDbArc
 50
90.0
 51
98.06196008398211
  0
ARC
  5
1F67
330
2
100
AcDbEntity
  8
0
100
AcDbCircle
 10
163.392637566218
 20
477.850289797506
 30
0.0
 40
1.742199999999999
100
AcDbArc
 50
269.9986903345002
 51
0.0013096654997424
  0
ARC
  5
1F68
330
2
100
AcDbEntity
  8
0
100
AcDbCircle
 10
165.4223375662179
 20
475.820589797506
 30
0.0
 40
2.049999999999998
100
AcDbArc
 50
180.0
 51
188.0619600839816
  0
ARC
  5
1F69
330
2
100
AcDbEntity
  8
0
100
AcDbCircle
 10
165.4223375662179
 20
475.820589797506
 30
0.0
 40
2.049999999999998
100
AcDbArc
 50
270.0
 51
278.061960083982
  0
ARC
  5
1F6A
330
2
100
AcDbEntity
  8
0
100
AcDbCircle
 10
165.4223375662179
 20
475.820589797506
 30
0.0
 40
2.049999999999998
100
AcDbArc
 50
261.9380399160178
 51
270.0
  0
ARC
  5
1F6B
330
2
100
AcDbEntity
  8
0
100
AcDbCircle
 10
163.392637566218
 20
473.7908897975059
 30
0.0
 40
1.742199999999999
100
AcDbArc
 50
359.9986903345002
 51
90.00130966549322
  0
ARC
  5
1F6C
330
2
100
AcDbEntity
  8
0
100
AcDbCircle
 10
167.4520375662181
 20
473.7908897975059
 30
0.0
 40
1.742199999999999
100
AcDbArc
 50
89.99869033450025
 51
180.0013096654997
  0
LINE
  5
1FC8
330
2
100
AcDbEntity
  8
0
100
AcDbLine
 10
118.4222455662179
 20
446.8205897975059
 30
0.0
 11
118.4222455662179
 21
407.320589797506
 31
0.0
  0
VIEWPORT
  5
142A
330
1429
100
AcDbEntity
 67
     1
  8
0
100
AcDbViewport
 10
144.0899370663404
 20
97.62400254554398
 30
0.0
 40
337.078216887144
 41
215.1146462956131
 68
     1
 69
     1
1001
ACAD
1000
MVIEW
1002
{
1070
    16
1010
0.0
1020
0.0
1030
0.0
1010
0.0
1020
0.0
1030
1.0
1040
0.0
1040
215.1146462956131
1040
144.0899370663404
1040
97.62400254554398
1040
50.0
1040
0.0
1040
0.0
1070
     0
1070
   100
1070
     1
1070
     1
1070
     0
1070
     0
1070
     0
1070
     0
1040
0.0
1040
0.0
1040
0.0
1040
10.0
1040
10.0
1040
10.0
1040
10.0
1070
     0
1002
{
1002
}
1002
}
  0
TEXT
  5
142B
330
1429
100
AcDbEntity
 67
     1
  8
TEXT
100
AcDbText
 10
266.4665517915716
 20
9.492177985111482
 30
0.0
 40
2.0
  1
2006.03.09
 41
0.7
100
AcDbText
  0
TEXT
  5
142C
330
1429
100
AcDbEntity
 67
     1
  8
TEXT
100
AcDbText
 10
221.2876186247744
 20
25.81289445791026
 30
0.0
 40
2.0
  1
HLMN28R-S60WT
100
AcDbText
  0
INSERT
  5
142D
330
1429
100
AcDbEntity
 67
     1
  8
0
100
AcDbBlockReference
 66
     1
  2
外寸枠A4テンプレート
 10
0.0
 20
0.0
 30
0.0
  0
ATTRIB
  5
142E
330
142D
100
AcDbEntity
 67
     1
  8
TEXT
100
AcDbText
 10
213.959457142857
 20
34.33735183158626
 30
0.0
 40
2.500000000000001
  1
HLMN-28R-600~900-S60WT
 72
     4
 11
241.8165999999999
 21
35.58735183158626
 31
0.0
100
AcDbAttribute
  2
T　I　T　L　E
 70
     0
  0
ATTRIB
  5
142F
330
142D
100
AcDbEntity
 67
     1
  8
TEXT
100
AcDbText
 10
231.4275923057046
 20
7.13444951887557
 30
0.0
 40
2.0
  1
1：3
 72
     4
 11
234.056163734276
 21
8.13444951887557
 31
0.0
100
AcDbAttribute
  2
FREE
 70
     0
  0
ATTRIB
  5
1430
330
142D
100
AcDbEntity
 67
     1
  8
TEXT
100
AcDbText
 10
205.1985180173093
 20
6.884449518875568
 30
0.0
 40
2.500000000000004
  1
海野
 72
     4
 11
207.865184683976
 21
8.13444951887557
 31
0.0
100
AcDbAttribute
  2
海野
 70
     0
  0
ATTRIB
  5
1431
330
142D
100
AcDbEntity
 67
     1
  8
TEXT
100
AcDbText
 10
222.7519560922427
 20
6.884449518875568
 30
0.0
 40
2.500000000000004
  1
吉田
 72
     4
 11
225.3352894255761
 21
8.13444951887557
 31
0.0
100
AcDbAttribute
  2
鳥居
 70
     0
  0
ATTRIB
  5
1432
330
142D
100
AcDbEntity
 67
     1
  8
TEXT
100
AcDbText
 10
213.9476826899094
 20
6.884449518875567
 30
0.0
 40
2.500000000000004
  1
永坂
 72
     4
 11
216.6143493565761
 21
8.13444951887557
 31
0.0
100
AcDbAttribute
  2
永坂
 70
     0
  0
SEQEND
  5
1433
330
142D
100
AcDbEntity
 67
     1
  8
0
  0
INSERT
  5
1434
330
1429
100
AcDbEntity
 67
     1
  8
TEXT
100
AcDbBlockReference
  2
1
 10
202.0
 20
40.0
 30
0.0
  0
VIEWPORT
  5
1435
330
1429
100
AcDbEntity
 67
     1
  8
DEFPOINTS
100
AcDbViewport
 10
141.5
 20
119.4148369158685
 30
0.0
 40
277.0
 41
109.2335415423008
 68
    -1
 69
     2
1001
ACAD
1000
MVIEW
1002
{
1070
    16
1010
0.0
1020
0.0
1030
0.0
1010
0.0
1020
0.0
1030
1.0
1040
0.0
1040
327.7006245052435
1040
406.7006771604841
1040
172.579710957768
1040
50.0
1040
0.0
1040
0.0
1070
     0
1070
   100
1070
     1
1070
     3
1070
     0
1070
     0
1070
     0
1070
     0
1040
0.0
1040
0.0
1040
0.0
1040
10.0
1040
10.0
1040
10.0
1040
10.0
1070
     0
1002
{
1003
TITLE
1002
}
1002
}
  0
INSERT
  5
155E
330
1429
100
AcDbEntity
 67
     1
  8
TEXT
100
AcDbBlockReference
  2
GSPEC_H-28R-600-900
 10
3.0
 20
3.999999999999998
 30
0.0
  0
INSERT
  5
17DC
330
1429
100
AcDbEntity
 67
     1
  8
TEXT
100
AcDbBlockReference
  2
MSPEC_S60WF-90
 10
3.0
 20
4.0
 30
0.0
  0
INSERT
  5
18A5
330
1429
100
AcDbEntity
 67
     1
  8
TEXT
100
AcDbBlockReference
  2
BSPEC_90-90-0038
 10
3.0
 20
4.0
 30
0.0
  0
ENDSEC
  0
SECTION
  2
OBJECTS
  0
DICTIONARY
  5
7
330
0
100
AcDbDictionary
  3
ACAD_GROUP
350
75
  3
ACAD_LAYOUT
350
61
  3
ACAD_MLINESTYLE
350
76
  3
ACAD_PLOTSETTINGS
350
77
  3
ACAD_PLOTSTYLENAME
350
6
  3
ACADDIM
350
480
  3
ACDBHEADERROUNDTRIPXREC
350
2043
  3
ACDBVARIABLEDICTIONARY
350
102
  3
DWGPROPS
350
3D2
  0
DICTIONARY
  5
2064
330
2
100
AcDbDictionary
280
     1
  3
ACAD_LAYOUTSELFREF
360
2065
  0
DICTIONARY
  5
2067
330
1429
100
AcDbDictionary
280
     1
  3
ACAD_LAYOUTSELFREF
360
2068
  0
DICTIONARY
  5
75
102
{ACAD_REACTORS
330
7
102
}
330
7
100
AcDbDictionary
  0
DICTIONARY
  5
61
102
{ACAD_REACTORS
330
7
102
}
330
7
100
AcDbDictionary
  0
DICTIONARY
  5
76
102
{ACAD_REACTORS
330
7
102
}
330
7
100
AcDbDictionary
  3
STANDARD
350
78
  0
DICTIONARY
  5
77
102
{ACAD_REACTORS
330
7
102
}
330
7
100
AcDbDictionary
  0
ACDBDICTIONARYWDFLT
  5
6
102
{ACAD_REACTORS
330
7
102
}
330
7
100
AcDbDictionary
281
     1
  3
Normal
350
5
100
AcDbDictionaryWithDefault
340
5
  0
XRECORD
  5
480
102
{ACAD_REACTORS
330
7
102
}
330
7
100
AcDbXrecord
 90
   990106
  3

 60
     0
 61
     0
 62
     1
 63
     3
 64
     1
 65
     0
 66
     0
 67
     3
 68
     1
 69
     0
 70
     0
 71
     0
 72
     0
 40
0.0
170
     2
340
0
  0
DICTIONARY
  5
2043
102
{ACAD_REACTORS
330
7
102
}
330
7
100
AcDbDictionary
  3
CEPSNTYPE
350
204D
  3
DIMSTYLEDATA
350
2051
  3
FINGERPRINTGUID
350
204E
  3
HYPERLINKBASE
350
2046
  3
INSUNITS
350
204C
  3
LAYOUTDICT
350
2048
  3
LWETCUNION
350
204B
  3
PLOTSETDICT
350
2049
  3
PLOTSTYLNAMDICT
350
204A
  3
PSVPSCALE
350
2050
  3
PUCSBASE
350
2054
  3
PUCSORGBACK
350
205A
  3
PUCSORGBOTTOM
350
2056
  3
PUCSORGFRONT
350
2059
  3
PUCSORGLEFT
350
2057
  3
PUCSORGRIGHT
350
2058
  3
PUCSORGTOP
350
2055
  3
PUCSORTHOREF
350
2052
  3
PUCSORTHOVIEW
350
2053
  3
STYLESHEET
350
2047
  3
TSTACKALIGN
350
2044
  3
TSTACKSIZE
350
2045
  3
UCSBASE
350
205D
  3
UCSORGBACK
350
2063
  3
UCSORGBOTTOM
350
205F
  3
UCSORGFRONT
350
2062
  3
UCSORGLEFT
350
2060
  3
UCSORGRIGHT
350
2061
  3
UCSORGTOP
350
205E
  3
UCSORTHOREF
350
205B
  3
UCSORTHOVIEW
350
205C
  3
VERSIONGUID
350
204F
  0
DICTIONARY
  5
102
102
{ACAD_REACTORS
330
7
102
}
330
7
100
AcDbDictionary
  3
DIMASSOC
350
103
  0
XRECORD
  5
3D2
102
{ACAD_REACTORS
330
7
102
}
330
7
100
AcDbXrecord
  1
DWGPROPS COOKIE
  2

  3

  4

  6

  7

  8

  9

300
=
301
=
302
=
303
=
304
=
305
=
306
=
307
=
308
=
309
=
 40
0.5353330671296296
 41
2452052.431989363
 42
2453406.550756377
  1

 90
        0
  0
XRECORD
  5
2065
102
{ACAD_REACTORS
330
2064
102
}
330
2064
100
AcDbXrecord
340
2
  0
XRECORD
  5
2068
102
{ACAD_REACTORS
330
2067
102
}
330
2067
100
AcDbXrecord
340
1429
  0
MLINESTYLE
  5
78
102
{ACAD_REACTORS
330
76
102
}
330
76
100
AcDbMlineStyle
  2
STANDARD
 70
     0
  3

 62
     0
 51
90.0
 52
90.0
 71
     2
 49
0.5
 62
   256
  6
BYLAYER
 49
-0.5
 62
   256
  6
BYLAYER
  0
ACDBPLACEHOLDER
  5
5
102
{ACAD_REACTORS
330
6
102
}
330
6
100
AcDbPlaceHolder
280
     0
  0
XRECORD
  5
204D
102
{ACAD_REACTORS
330
2043
102
}
330
2043
100
AcDbXrecord
 90
        0
  0
XRECORD
  5
2051
102
{ACAD_REACTORS
330
2043
102
}
330
2043
100
AcDbXrecord
1000
DSTYLE
1002
{
1070
   179
 70
     2
1070
   277
 70
     6
1002
}
  0
XRECORD
  5
204E
102
{ACAD_REACTORS
330
2043
102
}
330
2043
100
AcDbXrecord
  1
{6385560B-F4B1-4644-A7C2-A3E32AC3D232}
  0
XRECORD
  5
2046
102
{ACAD_REACTORS
330
2043
102
}
330
2043
100
AcDbXrecord
  1

  0
XRECORD
  5
204C
102
{ACAD_REACTORS
330
2043
102
}
330
2043
100
AcDbXrecord
 90
        0
  0
XRECORD
  5
2048
102
{ACAD_REACTORS
330
2043
102
}
330
2043
100
AcDbXrecord
340
61
  0
XRECORD
  5
204B
102
{ACAD_REACTORS
330
2043
102
}
330
2043
100
AcDbXrecord
 90
    10781
  0
XRECORD
  5
2049
102
{ACAD_REACTORS
330
2043
102
}
330
2043
100
AcDbXrecord
340
77
  0
XRECORD
  5
204A
102
{ACAD_REACTORS
330
2043
102
}
330
2043
100
AcDbXrecord
340
6
  0
XRECORD
  5
2050
102
{ACAD_REACTORS
330
2043
102
}
330
2043
100
AcDbXrecord
 40
0.0
  0
XRECORD
  5
2054
102
{ACAD_REACTORS
330
2043
102
}
330
2043
100
AcDbXrecord
340
0
  0
XRECORD
  5
205A
102
{ACAD_REACTORS
330
2043
102
}
330
2043
100
AcDbXrecord
 10
0.0
 20
0.0
 30
0.0
  0
XRECORD
  5
2056
102
{ACAD_REACTORS
330
2043
102
}
330
2043
100
AcDbXrecord
 10
0.0
 20
0.0
 30
0.0
  0
XRECORD
  5
2059
102
{ACAD_REACTORS
330
2043
102
}
330
2043
100
AcDbXrecord
 10
0.0
 20
0.0
 30
0.0
  0
XRECORD
  5
2057
102
{ACAD_REACTORS
330
2043
102
}
330
2043
100
AcDbXrecord
 10
0.0
 20
0.0
 30
0.0
  0
XRECORD
  5
2058
102
{ACAD_REACTORS
330
2043
102
}
330
2043
100
AcDbXrecord
 10
0.0
 20
0.0
 30
0.0
  0
XRECORD
  5
2055
102
{ACAD_REACTORS
330
2043
102
}
330
2043
100
AcDbXrecord
 10
0.0
 20
0.0
 30
0.0
  0
XRECORD
  5
2052
102
{ACAD_REACTORS
330
2043
102
}
330
2043
100
AcDbXrecord
340
0
  0
XRECORD
  5
2053
102
{ACAD_REACTORS
330
2043
102
}
330
2043
100
AcDbXrecord
 70
     0
  0
XRECORD
  5
2047
102
{ACAD_REACTORS
330
2043
102
}
330
2043
100
AcDbXrecord
  1
Sekkei.ctb
  0
XRECORD
  5
2044
102
{ACAD_REACTORS
330
2043
102
}
330
2043
100
AcDbXrecord
 90
        1
  0
XRECORD
  5
2045
102
{ACAD_REACTORS
330
2043
102
}
330
2043
100
AcDbXrecord
 90
       70
  0
XRECORD
  5
205D
102
{ACAD_REACTORS
330
2043
102
}
330
2043
100
AcDbXrecord
340
0
  0
XRECORD
  5
2063
102
{ACAD_REACTORS
330
2043
102
}
330
2043
100
AcDbXrecord
 10
0.0
 20
0.0
 30
0.0
  0
XRECORD
  5
205F
102
{ACAD_REACTORS
330
2043
102
}
330
2043
100
AcDbXrecord
 10
0.0
 20
0.0
 30
0.0
  0
XRECORD
  5
2062
102
{ACAD_REACTORS
330
2043
102
}
330
2043
100
AcDbXrecord
 10
0.0
 20
0.0
 30
0.0
  0
XRECORD
  5
2060
102
{ACAD_REACTORS
330
2043
102
}
330
2043
100
AcDbXrecord
 10
0.0
 20
0.0
 30
0.0
  0
XRECORD
  5
2061
102
{ACAD_REACTORS
330
2043
102
}
330
2043
100
AcDbXrecord
 10
0.0
 20
0.0
 30
0.0
  0
XRECORD
  5
205E
102
{ACAD_REACTORS
330
2043
102
}
330
2043
100
AcDbXrecord
 10
0.0
 20
0.0
 30
0.0
  0
XRECORD
  5
205B
102
{ACAD_REACTORS
330
2043
102
}
330
2043
100
AcDbXrecord
340
0
  0
XRECORD
  5
205C
102
{ACAD_REACTORS
330
2043
102
}
330
2043
100
AcDbXrecord
 70
     0
  0
XRECORD
  5
204F
102
{ACAD_REACTORS
330
2043
102
}
330
2043
100
AcDbXrecord
  1
{44A0F0F2-3C1C-496A-B6C0-AA7A784D8EC2}
  0
DICTIONARYVAR
  5
103
102
{ACAD_REACTORS
330
102
102
}
330
102
100
DictionaryVariables
280
     0
  1
1
  0
ENDSEC
  0
EOF
