  0
SECTION
  2
HEADER
  9
$CLAYER
  8
1
  9
$LTSCALE
 40
3.0
  0
ENDSEC
  0
SECTION
  2
TABLES
  0
TABLE
  2
LTYPE
 70
     4
  0
LTYPE
  2
CONTINUOUS
  3
solid line
 70
    64
 72
    65
 73
     0
 40
0.0
  0
LTYPE
  2
DASHED
  3
__ __ __ __ __ __ __ __ __ __ __ __ __ __ __
 70
    64
 72
    65
 73
     2
 40
0.75
 49
0.5
 49
-0.25
  0
LTYPE
  2
CENTER
  3
____ _ ____ _ ____ _ ____ _ ____ _ ____ _ ____
 70
    64
 72
    65
 73
     4
 40
2.0
 49
1.25
 49
-0.25
 49
0.25
 49
-0.25
  0
LTYPE
  2
PHANTOM
  3
_____ _ _ _____ _ _ _____ _ _ _____ _ _ ____
 70
    64
 72
    65
 73
     6
 40
2.5
 49
1.25
 49
-0.25
 49
0.25
 49
-0.25
 49
0.25
 49
-0.25
  0
ENDTAB
  0
TABLE
  2
LAYER
 70
     1
  0
LAYER
  2
0
 70
    64
 62
     7
  6
CONTINUOUS
  0
ENDTAB
  0
TABLE
  2
STYLE
 70
     1
  0
STYLE
  2
STANDARD
 70
     0
 40
0.000000
 41
1.000000
 50
0.000000
 71
     0
 42
3.000000
  3
txt
  4
BIGFONT
  0
ENDTAB
  0
ENDSEC
  0
SECTION
  2
BLOCKS
  0
ENDSEC
  0
SECTION
  2
ENTITIES
  0
LINE
  8
0
  6
CONTINUOUS
 10
166.493744
 20
106.808830
 11
166.493744
 21
20.808807
  0
LINE
  8
0
  6
CONTINUOUS
 10
56.493752
 20
108.808830
 11
175.493744
 21
108.808830
  0
LINE
  8
0
  6
CONTINUOUS
 10
56.493752
 20
18.808828
 11
175.493744
 21
18.808828
  0
LINE
  8
0
  6
CONTINUOUS
 10
56.493752
 20
98.218124
 11
165.456070
 21
98.218124
  0
LINE
  8
0
  6
CONTINUOUS
 10
56.493752
 20
29.399529
 11
165.456070
 21
29.399529
  0
ARC
  8
0
  6
CONTINUOUS
 10
168.493744
 20
106.808846
 40
2.000000
 50
90.000000
 51
180.000000
  0
ARC
  8
0
  6
CONTINUOUS
 10
168.493744
 20
20.808828
 40
2.000000
 50
180.000000
 51
270.000000
  0
LINE
  8
0
  6
CONTINUOUS
 10
374.993744
 20
138.180450
 11
374.993744
 21
-7.191172
  0
LINE
  8
0
  6
CONTINUOUS
 10
249.993744
 20
-7.191172
 11
374.993744
 21
-7.191172
  0
LINE
  8
0
  6
CENTER
 10
259.038544
 20
112.808830
 11
370.204987
 21
112.808830
  0
LINE
  8
0
  6
CENTER
 10
312.493744
 20
184.308792
 11
312.493744
 21
-15.691172
  0
LINE
  8
0
  6
CONTINUOUS
 10
290.048157
 20
167.308792
 11
334.939362
 21
167.308792
  0
LINE
  8
0
  6
CONTINUOUS
 10
337.774139
 20
166.427490
 11
372.828552
 21
142.299072
  0
LINE
  8
0
  6
CONTINUOUS
 10
252.993744
 20
7.808828
 11
371.993744
 21
7.808828
  0
LINE
  8
0
  6
CONTINUOUS
 10
364.993744
 20
6.271328
 11
364.993744
 21
-7.191172
  0
LINE
  8
0
  6
CONTINUOUS
 10
260.993744
 20
6.271328
 11
260.993744
 21
-7.191172
  0
LINE
  8
0
  6
CENTER
 10
352.493744
 20
15.058828
 11
352.493744
 21
-13.941172
  0
LINE
  8
0
  6
CENTER
 10
272.493744
 20
15.058828
 11
272.493744
 21
-12.691172
  0
LINE
  8
0
  6
DASHED
 10
357.993744
 20
7.808828
 11
357.993744
 21
-7.191172
  0
LINE
  8
0
  6
DASHED
 10
346.993744
 20
7.808828
 11
346.993744
 21
-7.191172
  0
LINE
  8
0
  6
DASHED
 10
277.993744
 20
7.808828
 11
277.993744
 21
-7.191172
  0
LINE
  8
0
  6
DASHED
 10
266.993744
 20
7.808828
 11
266.993744
 21
-7.191172
  0
ARC
  8
0
  6
CONTINUOUS
 10
292.493744
 20
62.808826
 40
26.500000
 50
170.529099
 51
270.000000
  0
ARC
  8
0
  6
CONTINUOUS
 10
332.493744
 20
62.808826
 40
26.500000
 50
-90.000000
 51
9.470950
  0
LINE
  8
0
  6
CONTINUOUS
 10
266.354950
 20
67.169304
 11
275.011749
 21
119.061668
  0
LINE
  8
0
  6
CONTINUOUS
 10
349.975739
 20
119.061668
 11
358.632538
 21
67.169334
  0
LINE
  8
0
  6
CONTINUOUS
 10
292.493744
 20
36.308826
 11
332.493744
 21
36.308826
  0
ARC
  8
0
  6
CONTINUOUS
 10
369.993744
 20
138.180389
 40
5.000000
 50
0.000000
 51
55.460110
  0
ARC
  8
0
  6
CONTINUOUS
 10
334.939362
 20
162.308792
 40
5.000000
 50
55.460079
 51
90.000000
  0
ARC
  8
0
  6
CONTINUOUS
 10
290.082153
 20
162.308792
 40
5.000000
 50
90.000000
 51
91.038872
  0
LINE
  8
0
  6
CONTINUOUS
 10
292.493744
 20
12.439602
 11
292.493744
 21
7.808828
  0
LINE
  8
0
  6
CONTINUOUS
 10
332.493744
 20
12.439602
 11
332.493744
 21
7.808828
  0
LINE
  8
0
  6
CONTINUOUS
 10
249.993744
 20
-7.191172
 11
249.993744
 21
138.180405
  0
ARC
  8
0
  6
CONTINUOUS
 10
292.493744
 20
62.808826
 40
24.000000
 50
169.576294
 51
270.000000
  0
ARC
  8
0
  6
CONTINUOUS
 10
332.493744
 20
62.808826
 40
24.000000
 50
-90.000000
 51
9.471373
  0
LINE
  8
0
  6
CONTINUOUS
 10
292.493744
 20
38.808826
 11
332.493744
 21
38.808826
  0
CIRCLE
  8
0
  6
CONTINUOUS
 10
312.493744
 20
112.808830
 40
33.500000
  0
ARC
  8
0
  6
CONTINUOUS
 10
312.493744
 20
112.808830
 40
38.000000
 50
9.470961
 51
170.529099
  0
ARC
  8
0
  6
CONTINUOUS
 10
312.493744
 20
112.808830
 40
38.000000
 50
9.470963
 51
170.529007
  0
ARC
  8
0
  6
CONTINUOUS
 10
312.493744
 20
112.808830
 40
35.500000
 50
-189.470795
 51
9.471022
  0
LINE
  8
0
  6
CONTINUOUS
 10
268.820953
 20
66.757927
 11
277.477539
 21
118.650169
  0
LINE
  8
0
  6
CONTINUOUS
 10
347.509735
 20
118.650291
 11
356.166565
 21
66.758141
  0
LINE
  8
0
  6
CENTER
 10
145.969681
 20
76.808830
 11
273.743744
 21
76.808830
  0
LINE
  8
0
  6
CONTINUOUS
 10
229.993744
 20
76.808830
 11
229.993744
 21
12.808730
  0
LINE
  8
0
  6
CONTINUOUS
 10
229.993744
 20
76.808830
 11
229.993744
 21
140.808929
  0
LINE
  8
0
  6
CONTINUOUS
 10
252.158752
 20
142.299042
 11
287.213348
 21
166.427444
  0
ARC
  8
0
  6
CONTINUOUS
 10
290.048157
 20
162.308792
 40
5.000000
 50
90.000000
 51
124.540298
  0
ARC
  8
0
  6
CONTINUOUS
 10
254.993744
 20
138.180435
 40
5.000000
 50
124.540398
 51
180.000000
  0
ARC
  8
0
  6
CONTINUOUS
 10
252.993744
 20
4.808848
 40
3.000000
 50
90.000000
 51
180.000000
  0
ARC
  8
0
  6
CONTINUOUS
 10
371.993744
 20
4.808828
 40
3.000000
 50
0.000000
 51
90.000000
  0
LINE
  8
0
  6
CONTINUOUS
 10
302.197357
 20
48.808826
 11
298.036957
 21
48.808826
  0
LINE
  8
0
  6
CONTINUOUS
 10
304.493744
 20
55.777569
 11
304.493744
 21
48.808826
  0
LINE
  8
0
  6
CONTINUOUS
 10
308.493744
 20
58.308826
 11
308.493744
 21
60.808826
  0
LINE
  8
0
  6
CONTINUOUS
 10
316.493744
 20
58.308826
 11
316.493744
 21
60.808826
  0
LINE
  8
0
  6
CONTINUOUS
 10
311.712555
 20
59.340076
 11
311.712555
 21
50.121326
  0
LINE
  8
0
  6
CONTINUOUS
 10
313.212555
 20
59.340076
 11
313.212555
 21
50.121326
  0
LINE
  8
0
  6
CONTINUOUS
 10
321.087555
 20
59.340076
 11
321.087555
 21
50.058826
  0
LINE
  8
0
  6
CONTINUOUS
 10
322.462555
 20
54.418209
 11
322.462555
 21
50.058826
  0
LINE
  8
0
  6
CONTINUOUS
 10
302.595764
 20
59.215076
 11
298.740753
 21
59.215076
  0
LINE
  8
0
  6
CONTINUOUS
 10
298.740753
 20
59.215076
 11
297.837555
 21
58.095081
  0
LINE
  8
0
  6
CONTINUOUS
 10
297.946136
 20
60.808826
 11
296.493744
 21
58.949066
  0
LINE
  8
0
  6
CONTINUOUS
 10
297.837555
 20
51.181747
 11
298.755157
 21
50.215069
  0
LINE
  8
0
  6
CONTINUOUS
 10
296.493744
 20
50.365990
 11
298.036957
 21
48.808826
  0
LINE
  8
0
  6
CONTINUOUS
 10
296.493744
 20
58.949066
 11
296.493744
 21
50.365990
  0
LINE
  8
0
  6
CONTINUOUS
 10
297.837555
 20
58.095081
 11
297.837555
 21
51.181747
  0
LINE
  8
0
  6
CONTINUOUS
 10
303.337555
 20
58.497971
 11
302.580536
 21
59.215076
  0
LINE
  8
0
  6
CONTINUOUS
 10
303.325562
 20
60.808826
 11
304.493744
 21
59.512337
  0
LINE
  8
0
  6
CONTINUOUS
 10
303.337555
 20
58.308826
 11
304.493744
 21
58.308826
  0
LINE
  8
0
  6
CONTINUOUS
 10
297.946136
 20
60.808826
 11
303.325562
 21
60.808826
  0
LINE
  8
0
  6
CONTINUOUS
 10
301.243744
 20
55.777569
 11
304.493744
 21
55.777569
  0
LINE
  8
0
  6
CONTINUOUS
 10
303.337555
 20
54.465069
 11
301.243744
 21
54.465069
  0
LINE
  8
0
  6
CONTINUOUS
 10
300.837555
 20
50.215069
 11
298.755157
 21
50.215069
  0
LINE
  8
0
  6
CONTINUOUS
 10
303.337555
 20
53.215069
 11
303.337555
 21
54.215069
  0
ARC
  8
0
  6
CONTINUOUS
 10
300.837555
 20
52.715069
 40
2.500000
 50
-89.999786
 51
0.000109
  0
LINE
  8
0
  6
CONTINUOUS
 10
303.337555
 20
49.765388
 11
303.337555
 21
48.808826
  0
LINE
  8
0
  6
CONTINUOUS
 10
304.493744
 20
59.512337
 11
304.493744
 21
58.308826
  0
LINE
  8
0
  6
CONTINUOUS
 10
303.337555
 20
54.465069
 11
303.337555
 21
52.715069
  0
LINE
  8
0
  6
CONTINUOUS
 10
301.243744
 20
55.777569
 11
301.243744
 21
54.465069
  0
LINE
  8
0
  6
CONTINUOUS
 10
303.337555
 20
48.808826
 11
304.493744
 21
48.808826
  0
LINE
  8
0
  6
CONTINUOUS
 10
303.337555
 20
49.765388
 11
302.197357
 21
48.808826
  0
LINE
  8
0
  6
CONTINUOUS
 10
313.212555
 20
50.121326
 11
313.712555
 21
50.121326
  0
LINE
  8
0
  6
CONTINUOUS
 10
311.118744
 20
50.121326
 11
311.118744
 21
48.808826
  0
LINE
  8
0
  6
CONTINUOUS
 10
313.712555
 20
50.121326
 11
313.712555
 21
48.808826
  0
LINE
  8
0
  6
CONTINUOUS
 10
315.659363
 20
58.308826
 11
316.493744
 21
58.308826
  0
LINE
  8
0
  6
CONTINUOUS
 10
308.493744
 20
58.308826
 11
309.381744
 21
58.308826
  0
LINE
  8
0
  6
CONTINUOUS
 10
308.493744
 20
60.808826
 11
316.493744
 21
60.808826
  0
LINE
  8
0
  6
CONTINUOUS
 10
311.118744
 20
48.808826
 11
313.712555
 21
48.808826
  0
LINE
  8
0
  6
CONTINUOUS
 10
311.118744
 20
50.121326
 11
311.712555
 21
50.121326
  0
ARC
  8
0
  6
CONTINUOUS
 10
325.290558
 20
57.605701
 40
3.203126
 50
-73.981873
 51
90.003510
  0
ARC
  8
0
  6
CONTINUOUS
 10
325.290558
 20
57.605701
 40
1.954124
 50
-82.585274
 51
62.411850
  0
LINE
  8
0
  6
CONTINUOUS
 10
320.493744
 20
60.808826
 11
325.290558
 21
60.808826
  0
LINE
  8
0
  6
CONTINUOUS
 10
325.542755
 20
55.667908
 11
322.462555
 21
55.667908
  0
LINE
  8
0
  6
CONTINUOUS
 10
320.493744
 20
60.808826
 11
320.493744
 21
59.340076
  0
LINE
  8
0
  6
CONTINUOUS
 10
322.462555
 20
59.340076
 11
322.462555
 21
55.667908
  0
LINE
  8
0
  6
CONTINUOUS
 10
326.174561
 20
54.526947
 11
328.156952
 21
50.058826
  0
LINE
  8
0
  6
CONTINUOUS
 10
325.022949
 20
54.418209
 11
326.899139
 21
50.058826
  0
LINE
  8
0
  6
CONTINUOUS
 10
320.493744
 20
50.058826
 11
321.087555
 21
50.058826
  0
LINE
  8
0
  6
CONTINUOUS
 10
322.462555
 20
50.058826
 11
323.009338
 21
50.058826
  0
LINE
  8
0
  6
CONTINUOUS
 10
323.009338
 20
48.808826
 11
320.493744
 21
48.808826
  0
LINE
  8
0
  6
CONTINUOUS
 10
326.649963
 20
50.058826
 11
326.899139
 21
50.058826
  0
LINE
  8
0
  6
CONTINUOUS
 10
328.156952
 20
50.058826
 11
328.493744
 21
50.058826
  0
LINE
  8
0
  6
CONTINUOUS
 10
326.649963
 20
48.808826
 11
328.493744
 21
48.808826
  0
LINE
  8
0
  6
CONTINUOUS
 10
328.493744
 20
50.058826
 11
328.493744
 21
48.808826
  0
LINE
  8
0
  6
CONTINUOUS
 10
326.649963
 20
50.058826
 11
326.649963
 21
48.808826
  0
LINE
  8
0
  6
CONTINUOUS
 10
323.009338
 20
50.058826
 11
323.009338
 21
48.808826
  0
LINE
  8
0
  6
CONTINUOUS
 10
320.493744
 20
50.058826
 11
320.493744
 21
48.808826
  0
LINE
  8
0
  6
CONTINUOUS
 10
309.811554
 20
59.340076
 11
309.381744
 21
58.308826
  0
LINE
  8
0
  6
CONTINUOUS
 10
315.296936
 20
59.340076
 11
315.659363
 21
58.308826
  0
LINE
  8
0
  6
CONTINUOUS
 10
313.212555
 20
59.340076
 11
315.296936
 21
59.340076
  0
LINE
  8
0
  6
CONTINUOUS
 10
311.712555
 20
59.340076
 11
309.811554
 21
59.340076
  0
LINE
  8
0
  6
CONTINUOUS
 10
322.462555
 20
54.418209
 11
325.022949
 21
54.418209
  0
LINE
  8
0
  6
CONTINUOUS
 10
320.493744
 20
59.340076
 11
321.087555
 21
59.340076
  0
LINE
  8
0
  6
CONTINUOUS
 10
322.462555
 20
59.340076
 11
326.195557
 21
59.337646
  0
LINE
  8
0
  6
CONTINUOUS
 10
303.337555
 20
58.497971
 11
303.337555
 21
58.308826
  0
LINE
  8
0
  6
CONTINUOUS
 10
642.993774
 20
23.808828
 11
642.993774
 21
27.787548
  0
LINE
  8
0
  6
CONTINUOUS
 10
552.993774
 20
23.808828
 11
552.993774
 21
27.787489
  0
LINE
  8
0
  6
CONTINUOUS
 10
557.993774
 20
18.808828
 11
560.993774
 21
18.808828
  0
LINE
  8
0
  6
CONTINUOUS
 10
637.993774
 20
18.808828
 11
634.993774
 21
18.808828
  0
ARC
  8
0
  6
CONTINUOUS
 10
557.993774
 20
23.808828
 40
5.000000
 50
180.000000
 51
270.000000
  0
ARC
  8
0
  6
CONTINUOUS
 10
637.993774
 20
23.808828
 40
5.000000
 50
-90.000000
 51
0.000000
  0
ARC
  8
0
  6
CONTINUOUS
 10
639.006165
 20
35.796867
 40
8.000000
 50
306.780975
 51
358.958740
  0
ARC
  8
0
  6
CONTINUOUS
 10
556.981567
 20
35.796608
 40
8.000000
 50
181.041107
 51
233.216995
  0
ARC
  8
0
  6
CONTINUOUS
 10
644.993774
 20
27.787567
 40
2.000000
 50
126.781197
 51
180.000000
  0
ARC
  8
0
  6
CONTINUOUS
 10
550.993774
 20
27.787489
 40
2.000000
 50
0.000000
 51
53.217121
  0
LINE
  8
0
  6
CENTER
 10
597.993774
 20
-24.520012
 11
597.993774
 21
188.728149
  0
LINE
  8
0
  6
CENTER
 10
480.722748
 20
112.808830
 11
665.234985
 21
112.808830
  0
LINE
  8
0
  6
CONTINUOUS
 10
534.993774
 20
-7.191172
 11
570.493774
 21
-7.191172
  0
LINE
  8
0
  6
CONTINUOUS
 10
538.993774
 20
7.808828
 11
556.993774
 21
7.808828
  0
LINE
  8
0
  6
CONTINUOUS
 10
656.993774
 20
7.808828
 11
638.993774
 21
7.808828
  0
LINE
  8
0
  6
CONTINUOUS
 10
562.493774
 20
140.808823
 11
633.243774
 21
140.808823
  0
LINE
  8
0
  6
CONTINUOUS
 10
632.046143
 20
166.714706
 11
597.993774
 21
167.308823
  0
LINE
  8
0
  6
CONTINUOUS
 10
563.941345
 20
166.714310
 11
597.993774
 21
167.308823
  0
LINE
  8
0
  6
CONTINUOUS
 10
634.993774
 20
163.715164
 11
634.993774
 21
-7.191192
  0
LINE
  8
0
  6
CONTINUOUS
 10
560.993774
 20
163.714767
 11
560.993774
 21
-7.191172
  0
LINE
  8
0
  6
CONTINUOUS
 10
544.993774
 20
83.096565
 11
544.993774
 21
142.521072
  0
LINE
  8
0
  6
CONTINUOUS
 10
650.993774
 20
142.521088
 11
650.993774
 21
83.096565
  0
LINE
  8
0
  6
CONTINUOUS
 10
551.993774
 20
42.609249
 11
551.993774
 21
115.308830
  0
LINE
  8
0
  6
CONTINUOUS
 10
643.993774
 20
42.609249
 11
643.993774
 21
115.308830
  0
LINE
  8
0
  6
CONTINUOUS
 10
660.993774
 20
4.504766
 11
660.993774
 21
-7.191172
  0
LINE
  8
0
  6
CONTINUOUS
 10
534.993774
 20
4.504766
 11
534.993774
 21
-7.191172
  0
LINE
  8
0
  6
CENTER
 10
547.993774
 20
15.808828
 11
547.993774
 21
-18.544573
  0
LINE
  8
0
  6
CENTER
 10
647.993774
 20
16.308828
 11
647.993774
 21
-18.544573
  0
LINE
  8
0
  6
DASHED
 10
542.493774
 20
7.808828
 11
542.493774
 21
-7.191172
  0
LINE
  8
0
  6
DASHED
 10
553.493774
 20
7.808828
 11
553.493774
 21
-7.191172
  0
LINE
  8
0
  6
DASHED
 10
642.493774
 20
7.808828
 11
642.493774
 21
-7.191172
  0
LINE
  8
0
  6
DASHED
 10
653.493774
 20
7.808828
 11
653.493774
 21
-7.191172
  0
ARC
  8
0
  6
CONTINUOUS
 10
563.993774
 20
163.714783
 40
3.000000
 50
91.000526
 51
180.000000
  0
ARC
  8
0
  6
CONTINUOUS
 10
631.993774
 20
163.715149
 40
3.000000
 50
0.000000
 51
89.000580
  0
LINE
  8
0
  6
CONTINUOUS
 10
625.493774
 20
-7.191172
 11
660.993774
 21
-7.191172
  0
LINE
  8
0
  6
CONTINUOUS
 10
571.493774
 20
-6.191172
 11
624.493774
 21
-6.191172
  0
LINE
  8
0
  6
CONTINUOUS
 10
548.639954
 20
147.334351
 11
557.347351
 21
149.783310
  0
LINE
  8
0
  6
CONTINUOUS
 10
548.639954
 20
78.283310
 11
549.805969
 21
77.955376
  0
LINE
  8
0
  6
CONTINUOUS
 10
555.655579
 20
37.791668
 11
557.331970
 21
37.325989
  0
LINE
  8
0
  6
CONTINUOUS
 10
640.331970
 20
37.791668
 11
638.655579
 21
37.325989
  0
LINE
  8
0
  6
CONTINUOUS
 10
647.347351
 20
78.283310
 11
646.181580
 21
77.955383
  0
LINE
  8
0
  6
CONTINUOUS
 10
647.347351
 20
147.334351
 11
638.640137
 21
149.783310
  0
ARC
  8
0
  6
CONTINUOUS
 10
549.993774
 20
142.521103
 40
5.000000
 50
105.709000
 51
180.000000
  0
ARC
  8
0
  6
CONTINUOUS
 10
549.993774
 20
83.096603
 40
5.000000
 50
180.000000
 51
254.291702
  0
ARC
  8
0
  6
CONTINUOUS
 10
556.993774
 20
42.609287
 40
5.000000
 50
180.000000
 51
254.476196
  0
ARC
  8
0
  6
CONTINUOUS
 10
638.993774
 20
42.609249
 40
5.000000
 50
-74.475708
 51
0.000000
  0
ARC
  8
0
  6
CONTINUOUS
 10
645.993774
 20
83.096558
 40
5.000000
 50
-74.291199
 51
0.000000
  0
ARC
  8
0
  6
CONTINUOUS
 10
645.993774
 20
142.521072
 40
5.000000
 50
0.000000
 51
74.291527
  0
ARC
  8
0
  6
CONTINUOUS
 10
646.993774
 20
75.067451
 40
3.000000
 50
105.709000
 51
180.000000
  0
ARC
  8
0
  6
CONTINUOUS
 10
548.993774
 20
75.067413
 40
3.000000
 50
0.000000
 51
74.291397
  0
ARC
  8
0
  6
CONTINUOUS
 10
555.993774
 20
154.596573
 40
5.000000
 50
-74.291199
 51
0.000000
  0
ARC
  8
0
  6
CONTINUOUS
 10
639.993774
 20
154.596588
 40
5.000000
 50
180.000000
 51
254.291702
  0
ARC
  8
0
  6
CONTINUOUS
 10
639.993774
 20
32.508427
 40
5.000000
 50
105.524399
 51
180.000000
  0
ARC
  8
0
  6
CONTINUOUS
 10
555.993774
 20
32.508389
 40
5.000000
 50
0.000000
 51
74.475952
  0
LINE
  8
0
  6
CONTINUOUS
 10
625.493774
 20
-7.191172
 11
624.493774
 21
-6.191172
  0
LINE
  8
0
  6
CONTINUOUS
 10
570.493774
 20
-7.191172
 11
571.493774
 21
-6.191172
  0
LINE
  8
0
  6
CENTER
 10
521.094971
 20
76.808823
 11
677.515015
 21
76.808823
  0
LINE
  8
0
  6
CONTINUOUS
 10
322.493744
 20
108.808868
 11
322.493744
 21
116.808868
  0
LINE
  8
0
  6
CONTINUOUS
 10
329.493744
 20
108.808891
 11
329.493744
 21
116.808891
  0
LINE
  8
0
  6
CONTINUOUS
 10
329.493744
 20
108.808891
 11
322.493744
 21
108.808868
  0
LINE
  8
0
  6
CONTINUOUS
 10
329.493744
 20
116.808891
 11
322.493744
 21
116.808868
  0
ARC
  8
0
  6
CONTINUOUS
 10
312.493744
 20
112.808830
 40
14.000000
 50
16.601500
 51
343.398499
  0
LINE
  8
0
  6
CONTINUOUS
 10
497.993744
 20
98.808830
 11
497.993744
 21
126.808830
  0
LINE
  8
0
  6
CONTINUOUS
 10
542.993774
 20
126.808830
 11
497.993744
 21
126.808830
  0
LINE
  8
0
  6
CONTINUOUS
 10
542.993774
 20
98.808830
 11
497.993744
 21
98.808830
  0
LINE
  8
0
  6
CONTINUOUS
 10
542.993774
 20
127.808830
 11
542.993774
 21
97.808830
  0
LINE
  8
0
  6
CONTINUOUS
 10
544.993774
 20
97.808830
 11
542.993774
 21
97.808830
  0
ARC
  8
0
  6
CONTINUOUS
 10
533.993774
 20
112.808830
 40
4.000000
 50
-90.000000
 51
90.000000
  0
LINE
  8
0
  6
CONTINUOUS
 10
533.993774
 20
116.808830
 11
497.993744
 21
116.808830
  0
LINE
  8
0
  6
CONTINUOUS
 10
533.993774
 20
108.808830
 11
497.993744
 21
108.808830
  0
LINE
  8
0
  6
CONTINUOUS
 10
544.993774
 20
127.808830
 11
542.993774
 21
127.808830
  0
LINE
  8
0
  6
CONTINUOUS
 10
223.493744
 20
140.808929
 11
229.993744
 21
140.808929
  0
LINE
  8
0
  6
CONTINUOUS
 10
223.493744
 20
12.808730
 11
229.993744
 21
12.808730
  0
LINE
  8
0
  6
CONTINUOUS
 10
175.493744
 20
108.808830
 11
221.493744
 21
110.415184
  0
LINE
  8
0
  6
CONTINUOUS
 10
229.993744
 20
16.905645
 11
175.493744
 21
18.808828
  0
ARC
  8
0
  6
CONTINUOUS
 10
223.493774
 20
138.808945
 40
2.000000
 50
90.000000
 51
180.000000
  0
ARC
  8
0
  6
CONTINUOUS
 10
223.493744
 20
14.808730
 40
2.000000
 50
180.260773
 51
270.000000
  0
LINE
  8
0
  6
CENTER
 10
-12.840000
 20
63.808826
 11
273.743744
 21
63.808826
  0
LINE
  8
0
  6
CONTINUOUS
 10
175.493744
 20
108.808830
 11
175.493744
 21
18.808828
  0
LINE
  8
0
  6
CONTINUOUS
 10
220.761520
 20
116.576591
 11
215.047012
 21
110.862083
  0
LINE
  8
0
  6
CONTINUOUS
 10
252.257126
 20
395.533813
 11
371.399811
 21
395.533813
  0
ARC
  8
0
  6
CONTINUOUS
 10
371.399811
 20
392.533813
 40
3.000000
 50
1.000000
 51
90.000000
  0
LINE
  8
0
  6
CONTINUOUS
 10
357.488007
 20
400.887543
 11
358.378448
 21
397.721558
  0
ARC
  8
0
  6
CONTINUOUS
 10
361.266388
 20
398.533813
 40
3.000000
 50
195.708649
 51
270.000000
  0
ARC
  8
0
  6
CONTINUOUS
 10
244.071350
 20
412.760376
 40
3.000000
 50
1.500200
 51
77.801201
  0
LINE
  8
0
  6
CONTINUOUS
 10
247.070343
 20
412.838928
 11
247.426346
 21
399.244141
  0
ARC
  8
0
  6
CONTINUOUS
 10
245.339157
 20
418.624908
 40
3.000000
 50
-164.999893
 51
-102.198799
  0
LINE
  8
0
  6
CENTER
 10
-14.745000
 20
358.533813
 11
390.397614
 21
358.533813
  0
LINE
  8
0
  6
CONTINUOUS
 10
263.508636
 20
295.533813
 11
298.493744
 21
295.533813
  0
LINE
  8
0
  6
CONTINUOUS
 10
374.993744
 20
358.533813
 11
374.347900
 21
395.533813
  0
LINE
  8
0
  6
CONTINUOUS
 10
366.183655
 20
418.226471
 11
374.347900
 21
395.533813
  0
ARC
  8
0
  6
CONTINUOUS
 10
361.478882
 20
416.533813
 40
5.000000
 50
19.787489
 51
90.000000
  0
LINE
  8
0
  6
CONTINUOUS
 10
374.993744
 20
358.533813
 11
374.347900
 21
321.533813
  0
LINE
  8
0
  6
CONTINUOUS
 10
366.183655
 20
298.841125
 11
374.347900
 21
321.533813
  0
ARC
  8
0
  6
CONTINUOUS
 10
361.478882
 20
300.533813
 40
5.000000
 50
-90.000000
 51
-19.787489
  0
LINE
  8
0
  6
CONTINUOUS
 10
252.257126
 20
395.533813
 11
371.399811
 21
395.533813
  0
LINE
  8
0
  6
CENTER
 10
312.493744
 20
239.296249
 11
312.493744
 21
434.607513
  0
ARC
  8
0
  6
CONTINUOUS
 10
371.399811
 20
392.533813
 40
3.000000
 50
1.000000
 51
90.000000
  0
ARC
  8
0
  6
CONTINUOUS
 10
371.399811
 20
324.533813
 40
3.000000
 50
-90.000000
 51
-1.000000
  0
LINE
  8
0
  6
CONTINUOUS
 10
252.330353
 20
321.533813
 11
371.399811
 21
321.533813
  0
LINE
  8
0
  6
CONTINUOUS
 10
342.206024
 20
411.533813
 11
282.781494
 21
411.533813
  0
LINE
  8
0
  6
CONTINUOUS
 10
347.019257
 20
407.887512
 11
347.962494
 21
404.533813
  0
ARC
  8
0
  6
CONTINUOUS
 10
342.206024
 20
406.533813
 40
5.000000
 50
15.708638
 51
90.000000
  0
LINE
  8
0
  6
CONTINUOUS
 10
347.962494
 20
404.533813
 11
352.674774
 21
404.533813
  0
ARC
  8
0
  6
CONTINUOUS
 10
352.674774
 20
399.533813
 40
5.000000
 50
15.708638
 51
90.000000
  0
LINE
  8
0
  6
CONTINUOUS
 10
277.968231
 20
407.887512
 11
277.024994
 21
404.533813
  0
ARC
  8
0
  6
CONTINUOUS
 10
282.781494
 20
406.533813
 40
5.000000
 50
90.000000
 51
164.291367
  0
LINE
  8
0
  6
CONTINUOUS
 10
277.024994
 20
404.533813
 11
272.312744
 21
404.533813
  0
LINE
  8
0
  6
CONTINUOUS
 10
267.499481
 20
400.887512
 11
266.609070
 21
397.721558
  0
ARC
  8
0
  6
CONTINUOUS
 10
272.312744
 20
399.533813
 40
5.000000
 50
90.000000
 51
164.291367
  0
ARC
  8
0
  6
CONTINUOUS
 10
263.721100
 20
398.533813
 40
3.000000
 50
-90.000000
 51
-15.708638
  0
LINE
  8
0
  6
CONTINUOUS
 10
342.206024
 20
305.533813
 11
282.781494
 21
305.533813
  0
LINE
  8
0
  6
CONTINUOUS
 10
347.019257
 20
309.180084
 11
347.962494
 21
312.533813
  0
ARC
  8
0
  6
CONTINUOUS
 10
342.206024
 20
310.533813
 40
5.000000
 50
-90.000000
 51
-15.708638
  0
LINE
  8
0
  6
CONTINUOUS
 10
347.962494
 20
312.533813
 11
352.674774
 21
312.533813
  0
LINE
  8
0
  6
CONTINUOUS
 10
357.488007
 20
316.180084
 11
358.378448
 21
319.346039
  0
ARC
  8
0
  6
CONTINUOUS
 10
352.674774
 20
317.533813
 40
5.000000
 50
-90.000000
 51
-15.708638
  0
ARC
  8
0
  6
CONTINUOUS
 10
361.266388
 20
318.533813
 40
3.000000
 50
-270.000000
 51
-195.708633
  0
LINE
  8
0
  6
CONTINUOUS
 10
277.968231
 20
309.180084
 11
277.024994
 21
312.533813
  0
ARC
  8
0
  6
CONTINUOUS
 10
282.781494
 20
310.533813
 40
5.000000
 50
-164.291367
 51
-90.000000
  0
LINE
  8
0
  6
CONTINUOUS
 10
277.024994
 20
312.533813
 11
272.312744
 21
312.533813
  0
LINE
  8
0
  6
CONTINUOUS
 10
267.499481
 20
316.180084
 11
266.609070
 21
319.346039
  0
ARC
  8
0
  6
CONTINUOUS
 10
272.312744
 20
317.533813
 40
5.000000
 50
-164.291367
 51
-90.000000
  0
ARC
  8
0
  6
CONTINUOUS
 10
263.721100
 20
318.533813
 40
3.000000
 50
15.708638
 51
90.000000
  0
LINE
  8
0
  6
CONTINUOUS
 10
258.803864
 20
418.226471
 11
250.726013
 21
395.773987
  0
ARC
  8
0
  6
CONTINUOUS
 10
263.508636
 20
416.533813
 40
5.000000
 50
90.000000
 51
160.212509
  0
LINE
  8
0
  6
CONTINUOUS
 10
258.803864
 20
298.841125
 11
250.741852
 21
321.249542
  0
ARC
  8
0
  6
CONTINUOUS
 10
263.508636
 20
300.533813
 40
5.000000
 50
199.787491
 51
270.000000
  0
LINE
  8
0
  6
CONTINUOUS
 10
263.508636
 20
421.533813
 11
312.493744
 21
421.533813
  0
LINE
  8
0
  6
CENTER
 10
352.493744
 20
419.647095
 11
352.493744
 21
400.205658
  0
LINE
  8
0
  6
CENTER
 10
342.582855
 20
408.533813
 11
361.101410
 21
408.533813
  0
ARC
  8
0
  6
CONTINUOUS
 10
352.493744
 20
408.533813
 40
5.500000
 50
-59.465683
 51
187.598495
  0
ARC
  8
0
  6
CONTINUOUS
 10
272.493744
 20
408.533813
 40
5.500000
 50
-7.598608
 51
239.465683
  0
LINE
  8
0
  6
CENTER
 10
272.493744
 20
419.647095
 11
272.493744
 21
400.205658
  0
LINE
  8
0
  6
CENTER
 10
282.404633
 20
408.533813
 11
263.886078
 21
408.533813
  0
ARC
  8
0
  6
CONTINUOUS
 10
272.493744
 20
308.533813
 40
5.500000
 50
-239.465683
 51
7.598608
  0
LINE
  8
0
  6
CENTER
 10
282.404633
 20
308.533813
 11
263.886078
 21
308.533813
  0
LINE
  8
0
  6
CENTER
 10
272.493744
 20
297.420532
 11
272.493744
 21
316.861938
  0
LINE
  8
0
  6
CENTER
 10
352.493744
 20
297.420532
 11
352.493744
 21
316.861938
  0
LINE
  8
0
  6
CENTER
 10
342.582855
 20
308.533813
 11
361.101410
 21
308.533813
  0
ARC
  8
0
  6
CONTINUOUS
 10
352.493744
 20
308.533813
 40
5.500000
 50
-187.598602
 51
59.465683
  0
LINE
  8
0
  6
CONTINUOUS
 10
336.493744
 20
324.533813
 11
336.493744
 21
392.533813
  0
LINE
  8
0
  6
CONTINUOUS
 10
288.493744
 20
324.533813
 11
288.493744
 21
392.533813
  0
LINE
  8
0
  6
CONTINUOUS
 10
247.574051
 20
317.827881
 11
242.325424
 21
298.239716
  0
LINE
  8
0
  6
CONTINUOUS
 10
247.070343
 20
303.681763
 11
247.426346
 21
317.276550
  0
ARC
  8
0
  6
CONTINUOUS
 10
244.071350
 20
303.760376
 40
3.000000
 50
282.198792
 51
358.499786
  0
ARC
  8
0
  6
CONTINUOUS
 10
245.339157
 20
297.895752
 40
3.000000
 50
102.198799
 51
165.000031
  0
ARC
  8
0
  6
CONTINUOUS
 10
244.071350
 20
412.760376
 40
3.000000
 50
1.500200
 51
77.801201
  0
LINE
  8
0
  6
CONTINUOUS
 10
247.070343
 20
412.838928
 11
247.426346
 21
399.244141
  0
ARC
  8
0
  6
CONTINUOUS
 10
245.339157
 20
418.624908
 40
3.000000
 50
-164.999893
 51
-102.198799
  0
LINE
  8
0
  6
CONTINUOUS
 10
237.422546
 20
422.533813
 11
229.993744
 21
422.533813
  0
LINE
  8
0
  6
CONTINUOUS
 10
242.178909
 20
418.827881
 11
247.500748
 21
398.966309
  0
ARC
  8
0
  6
CONTINUOUS
 10
252.403671
 20
316.533813
 40
5.000000
 50
90.000000
 51
165.000031
  0
ARC
  8
0
  6
CONTINUOUS
 10
252.257126
 20
400.533813
 40
5.000000
 50
194.999847
 51
270.000000
  0
LINE
  8
0
  6
CONTINUOUS
 10
312.493744
 20
421.533813
 11
361.478882
 21
421.533813
  0
LINE
  8
0
  6
CONTINUOUS
 10
329.493744
 20
258.533813
 11
298.493744
 21
258.533813
  0
LINE
  8
0
  6
CONTINUOUS
 10
298.493744
 20
303.533813
 11
298.493744
 21
258.533813
  0
LINE
  8
0
  6
CONTINUOUS
 10
326.493744
 20
303.533813
 11
326.493744
 21
298.533813
  0
LINE
  8
0
  6
CONTINUOUS
 10
297.493744
 20
303.533813
 11
327.493744
 21
303.533813
  0
LINE
  8
0
  6
CONTINUOUS
 10
327.493744
 20
305.533813
 11
327.493744
 21
303.533813
  0
LINE
  8
0
  6
CONTINUOUS
 10
297.493744
 20
305.533813
 11
297.493744
 21
303.533813
  0
LINE
  8
0
  6
CONTINUOUS
 10
325.910156
 20
298.533813
 11
329.493744
 21
298.533813
  0
LINE
  8
0
  6
CONTINUOUS
 10
325.910156
 20
298.533813
 11
325.910156
 21
258.533813
  0
LINE
  8
0
  6
CONTINUOUS
 10
329.493744
 20
258.533813
 11
329.493744
 21
298.533813
  0
LINE
  8
0
  6
CONTINUOUS
 10
329.493744
 20
295.533813
 11
361.478882
 21
295.533813
  0
LINE
  8
0
  6
CONTINUOUS
 10
229.993744
 20
294.533813
 11
237.495789
 21
294.533813
  0
ARC
  8
0
  6
CONTINUOUS
 10
237.495789
 20
299.533813
 40
5.000000
 50
270.000000
 51
345.000031
  0
ARC
  8
0
  6
CONTINUOUS
 10
237.349289
 20
417.533813
 40
5.000000
 50
14.999846
 51
90.000000
  0
LINE
  8
0
  6
CONTINUOUS
 10
249.993744
 20
358.533813
 11
250.588135
 21
392.586151
  0
LINE
  8
0
  6
CONTINUOUS
 10
249.993744
 20
358.533813
 11
250.588135
 21
324.481445
  0
ARC
  8
0
  6
CONTINUOUS
 10
253.587677
 20
392.533813
 40
3.000000
 50
90.000000
 51
179.000000
  0
ARC
  8
0
  6
CONTINUOUS
 10
253.587677
 20
324.533813
 40
3.000000
 50
181.000000
 51
270.000000
  0
LINE
  8
0
  6
CONTINUOUS
 10
248.439392
 20
140.808929
 11
229.993744
 21
140.808929
  0
LINE
  8
0
  6
CONTINUOUS
 10
229.993744
 20
12.808730
 11
244.993744
 21
12.808730
  0
ARC
  8
0
  6
CONTINUOUS
 10
244.993774
 20
7.808712
 40
5.000000
 50
0.000000
 51
90.000000
  0
LINE
  8
0
  6
CONTINUOUS
 10
538.238342
 20
8.432803
 11
557.749146
 21
12.184865
  0
ARC
  8
0
  6
CONTINUOUS
 10
597.993774
 20
76.808830
 40
64.000099
 50
-54.681290
 51
34.093521
  0
ARC
  8
0
  6
CONTINUOUS
 10
597.993774
 20
76.808830
 40
64.000099
 50
159.894516
 51
234.681290
  0
ARC
  8
0
  6
CONTINUOUS
 10
538.993774
 20
3.808828
 40
4.000000
 50
90.000000
 51
180.000000
  0
ARC
  8
0
  6
CONTINUOUS
 10
538.993774
 20
4.504766
 40
4.000000
 50
100.885529
 51
180.000000
  0
ARC
  8
0
  6
CONTINUOUS
 10
556.993774
 20
16.112890
 40
4.000000
 50
-79.114502
 51
0.000000
  0
ARC
  8
0
  6
CONTINUOUS
 10
556.993774
 20
11.808828
 40
4.000000
 50
-90.000000
 51
0.000000
  0
LINE
  8
0
  6
CONTINUOUS
 10
657.749146
 20
8.432803
 11
638.238342
 21
12.184865
  0
ARC
  8
0
  6
CONTINUOUS
 10
656.993774
 20
3.808828
 40
4.000000
 50
0.000000
 51
90.000000
  0
ARC
  8
0
  6
CONTINUOUS
 10
656.993774
 20
4.504766
 40
4.000000
 50
0.000000
 51
79.114471
  0
ARC
  8
0
  6
CONTINUOUS
 10
638.993774
 20
16.112890
 40
4.000000
 50
180.000000
 51
259.114502
  0
ARC
  8
0
  6
CONTINUOUS
 10
638.993774
 20
11.808828
 40
4.000000
 50
180.000000
 51
270.000000
  0
LINE
  8
0
  6
CONTINUOUS
 10
293.935638
 20
12.808828
 11
331.051880
 21
12.808828
  0
LINE
  8
0
  6
CONTINUOUS
 10
291.593018
 20
11.682902
 11
289.394531
 21
8.934754
  0
ARC
  8
0
  6
CONTINUOUS
 10
287.051910
 20
10.808828
 40
3.000000
 50
270.000000
 51
321.340454
  0
ARC
  8
0
  6
CONTINUOUS
 10
293.935638
 20
9.808828
 40
3.000000
 50
90.000000
 51
141.340454
  0
LINE
  8
0
  6
CONTINUOUS
 10
333.394470
 20
11.682902
 11
335.592987
 21
8.934754
  0
ARC
  8
0
  6
CONTINUOUS
 10
337.935608
 20
10.808828
 40
3.000000
 50
-141.340454
 51
-90.000000
  0
ARC
  8
0
  6
CONTINUOUS
 10
331.051880
 20
9.808828
 40
3.000000
 50
38.659546
 51
90.000000
  0
ARC
  8
0
  6
CONTINUOUS
 10
248.439392
 20
145.808929
 40
5.000000
 50
270.000000
 51
304.539978
  0
LINE
  8
0
  6
CONTINUOUS
 10
229.993744
 20
422.533813
 11
229.993744
 21
294.533813
  0
LINE
  8
0
  6
CONTINUOUS
 10
248.493744
 20
128.408829
 11
249.993744
 21
128.408829
  0
LINE
  8
0
  6
CONTINUOUS
 10
248.493744
 20
25.208849
 11
249.993744
 21
25.208849
  0
ARC
  8
0
  6
CONTINUOUS
 10
432.446960
 20
76.808830
 40
191.053177
 50
164.330902
 51
195.669098
  0
ARC
  8
0
  6
CONTINUOUS
 10
432.446960
 20
76.808830
 40
190.053177
 50
178.548599
 51
181.478500
  0
LINE
  8
0
  6
CONTINUOUS
 10
244.493744
 20
81.808830
 11
243.488953
 21
81.808830
  0
LINE
  8
0
  6
CONTINUOUS
 10
246.993744
 20
79.308830
 11
246.993744
 21
74.308830
  0
ARC
  8
0
  6
CONTINUOUS
 10
243.488953
 20
82.807228
 40
1.000000
 50
178.182098
 51
270.000000
  0
ARC
  8
0
  6
CONTINUOUS
 10
244.493744
 20
79.308830
 40
2.500000
 50
0.000000
 51
90.000000
  0
LINE
  8
0
  6
CONTINUOUS
 10
244.493744
 20
71.808830
 11
243.488953
 21
71.808830
  0
ARC
  8
0
  6
CONTINUOUS
 10
243.488953
 20
70.810425
 40
1.000000
 50
-270.000000
 51
-178.182098
  0
ARC
  8
0
  6
CONTINUOUS
 10
244.493744
 20
74.308830
 40
2.500000
 50
-90.000000
 51
0.000000
  0
LINE
  8
0
  6
CONTINUOUS
 10
175.493744
 20
43.302830
 11
219.493744
 21
43.302830
  0
LINE
  8
0
  6
CONTINUOUS
 10
175.493744
 20
28.289827
 11
229.993744
 21
28.289829
  0
LINE
  8
0
  6
CONTINUOUS
 10
222.061722
 20
36.241829
 11
229.993744
 21
36.241829
  0
LINE
  8
0
  6
CONTINUOUS
 10
221.493744
 20
37.456562
 11
221.493744
 21
138.808945
  0
ARC
  8
0
  6
CONTINUOUS
 10
218.993790
 20
14.788249
 40
2.500000
 50
0.260773
 51
88.000000
  0
ARC
  8
0
  6
CONTINUOUS
 10
218.993744
 20
118.344360
 40
2.500000
 50
-45.000000
 51
0.000000
  0
ARC
  8
0
  6
CONTINUOUS
 10
213.279236
 20
112.629852
 40
2.500000
 50
272.000000
 51
315.000000
  0
LINE
  8
0
  6
CONTINUOUS
 10
221.493744
 20
296.533813
 11
221.493744
 21
420.533813
  0
LINE
  8
0
  6
CONTINUOUS
 10
175.493744
 20
403.533813
 11
219.057373
 21
405.055084
  0
LINE
  8
0
  6
CONTINUOUS
 10
175.493744
 20
313.533813
 11
219.057373
 21
312.012512
  0
LINE
  8
0
  6
CONTINUOUS
 10
175.493744
 20
407.545807
 11
175.493744
 21
309.521790
  0
LINE
  8
0
  6
CONTINUOUS
 10
223.493744
 20
422.533813
 11
229.993744
 21
422.533813
  0
LINE
  8
0
  6
CONTINUOUS
 10
223.493744
 20
294.533813
 11
229.993744
 21
294.533813
  0
LINE
  8
0
  6
CONTINUOUS
 10
214.350754
 20
382.533813
 11
221.465729
 21
382.533813
  0
LINE
  8
0
  6
CONTINUOUS
 10
214.955902
 20
334.533813
 11
221.465729
 21
334.533813
  0
LINE
  8
0
  6
CONTINUOUS
 10
214.350754
 20
380.329285
 11
214.350754
 21
336.616730
  0
LINE
  8
0
  6
CONTINUOUS
 10
166.493744
 20
401.533813
 11
166.493744
 21
387.533813
  0
LINE
  8
0
  6
CONTINUOUS
 10
56.493752
 20
403.533813
 11
175.493744
 21
403.533813
  0
LINE
  8
0
  6
CONTINUOUS
 10
56.493752
 20
313.533813
 11
175.493744
 21
313.533813
  0
LINE
  8
0
  6
CONTINUOUS
 10
109.493736
 20
387.533813
 11
166.493744
 21
387.533813
  0
LINE
  8
0
  6
CONTINUOUS
 10
109.493736
 20
329.533813
 11
166.493744
 21
329.533813
  0
ARC
  8
0
  6
CONTINUOUS
 10
168.493744
 20
401.533813
 40
2.000000
 50
90.000000
 51
180.000000
  0
ARC
  8
0
  6
CONTINUOUS
 10
168.493744
 20
315.533813
 40
2.000000
 50
180.000000
 51
270.000000
  0
LINE
  8
0
  6
CONTINUOUS
 10
175.493744
 20
403.533813
 11
175.493744
 21
313.533813
  0
ARC
  8
0
  6
CONTINUOUS
 10
223.493744
 20
420.533813
 40
2.000000
 50
90.000000
 51
180.000000
  0
ARC
  8
0
  6
CONTINUOUS
 10
223.493744
 20
296.533813
 40
2.000000
 50
180.000000
 51
270.000000
  0
ARC
  8
0
  6
CONTINUOUS
 10
218.970123
 20
407.553558
 40
2.500000
 50
272.000000
 51
359.895721
  0
ARC
  8
0
  6
CONTINUOUS
 10
218.970123
 20
309.514038
 40
2.500000
 50
0.104292
 51
88.000000
  0
LINE
  8
0
  6
CONTINUOUS
 10
221.493744
 20
405.140167
 11
221.465729
 21
405.139191
  0
LINE
  8
0
  6
CONTINUOUS
 10
175.993439
 20
408.063263
 11
221.493744
 21
409.652161
  0
LINE
  8
0
  6
CONTINUOUS
 10
175.493744
 20
407.545807
 11
175.993439
 21
408.063263
  0
LINE
  8
0
  6
CONTINUOUS
 10
175.993439
 20
309.004364
 11
221.493744
 21
307.415436
  0
LINE
  8
0
  6
CONTINUOUS
 10
175.493744
 20
309.521790
 11
175.993439
 21
309.004364
  0
LINE
  8
0
  6
CONTINUOUS
 10
46.993752
 20
403.533813
 11
56.493752
 21
403.533813
  0
LINE
  8
0
  6
CONTINUOUS
 10
47.493740
 20
387.533813
 11
46.993752
 21
387.533813
  0
LINE
  8
0
  6
CONTINUOUS
 10
46.993752
 20
313.533813
 11
56.493752
 21
313.533813
  0
LINE
  8
0
  6
CONTINUOUS
 10
56.493752
 20
313.533813
 11
56.493752
 21
327.533783
  0
LINE
  8
0
  6
CONTINUOUS
 10
47.493740
 20
329.533813
 11
46.993752
 21
329.533813
  0
LINE
  8
0
  6
CONTINUOUS
 10
56.493752
 20
389.533783
 11
56.493752
 21
403.533813
  0
LINE
  8
0
  6
CONTINUOUS
 10
46.993752
 20
405.533813
 11
46.993752
 21
311.533813
  0
LINE
  8
0
  6
CONTINUOUS
 10
46.993752
 20
387.533813
 11
3.018720
 21
387.533813
  0
LINE
  8
0
  6
CONTINUOUS
 10
46.993752
 20
329.533813
 11
3.018720
 21
329.533813
  0
LINE
  8
0
  6
CONTINUOUS
 10
4.493730
 20
405.533813
 11
46.993752
 21
405.533813
  0
LINE
  8
0
  6
CONTINUOUS
 10
4.493730
 20
311.533813
 11
46.993752
 21
311.533813
  0
ARC
  8
0
  6
CONTINUOUS
 10
4.493760
 20
400.533813
 40
5.000000
 50
90.000000
 51
180.000000
  0
ARC
  8
0
  6
CONTINUOUS
 10
4.493730
 20
316.533813
 40
5.000000
 50
180.000000
 51
270.000000
  0
LINE
  8
0
  6
CONTINUOUS
 10
-0.506240
 20
400.533813
 11
-0.506270
 21
316.533783
  0
LINE
  8
0
  6
CONTINUOUS
 10
46.993752
 20
108.808830
 11
56.493752
 21
108.808830
  0
LINE
  8
0
  6
CONTINUOUS
 10
56.493752
 20
98.218124
 11
46.993752
 21
98.218124
  0
LINE
  8
0
  6
CONTINUOUS
 10
46.993752
 20
18.808828
 11
56.493752
 21
18.808828
  0
LINE
  8
0
  6
CONTINUOUS
 10
56.493752
 20
29.399538
 11
46.993752
 21
29.399538
  0
LINE
  8
0
  6
CONTINUOUS
 10
46.993752
 20
110.808830
 11
46.993752
 21
16.808828
  0
LINE
  8
0
  6
CONTINUOUS
 10
46.993752
 20
92.808830
 11
3.018720
 21
92.808830
  0
LINE
  8
0
  6
CONTINUOUS
 10
46.993752
 20
34.808826
 11
3.018720
 21
34.808826
  0
LINE
  8
0
  6
CONTINUOUS
 10
4.493730
 20
110.808830
 11
46.993752
 21
110.808830
  0
LINE
  8
0
  6
CONTINUOUS
 10
4.493730
 20
16.808828
 11
46.993752
 21
16.808828
  0
ARC
  8
0
  6
CONTINUOUS
 10
4.493760
 20
105.808830
 40
5.000000
 50
90.000000
 51
180.000000
  0
ARC
  8
0
  6
CONTINUOUS
 10
4.493730
 20
21.808828
 40
5.000000
 50
180.000000
 51
270.000000
  0
LINE
  8
0
  6
CONTINUOUS
 10
-0.506240
 20
105.808830
 11
-0.506270
 21
21.808819
  0
LINE
  8
0
  6
CONTINUOUS
 10
56.493752
 20
18.808828
 11
56.493752
 21
108.808830
  0
LINE
  8
0
  6
CONTINUOUS
 10
47.493740
 20
387.533783
 11
47.493740
 21
329.533783
  0
LINE
  8
0
  6
CONTINUOUS
 10
109.493736
 20
329.533783
 11
109.493736
 21
387.533783
  0
LINE
  8
0
  6
CONTINUOUS
 10
49.493740
 20
389.533783
 11
107.493736
 21
389.533783
  0
LINE
  8
0
  6
CONTINUOUS
 10
49.493740
 20
327.533783
 11
107.493736
 21
327.533783
  0
LINE
  8
0
  6
CONTINUOUS
 10
107.493736
 20
389.533783
 11
109.493736
 21
387.533783
  0
LINE
  8
0
  6
CONTINUOUS
 10
109.493736
 20
329.533783
 11
107.493736
 21
327.533783
  0
LINE
  8
0
  6
CONTINUOUS
 10
47.493740
 20
329.533783
 11
49.493740
 21
327.533783
  0
LINE
  8
0
  6
CONTINUOUS
 10
47.493740
 20
387.533783
 11
49.493740
 21
389.533783
  0
LINE
  8
0
  6
CONTINUOUS
 10
101.493736
 20
384.533783
 11
101.493736
 21
389.533783
  0
LINE
  8
0
  6
CONTINUOUS
 10
104.493736
 20
381.533783
 11
109.493736
 21
381.533783
  0
CIRCLE
  8
0
  6
CONTINUOUS
 10
105.493736
 20
385.533783
 40
2.250000
  0
ARC
  8
0
  6
CONTINUOUS
 10
104.493736
 20
384.533783
 40
3.000000
 50
180.000000
 51
270.000000
  0
LINE
  8
0
  6
CONTINUOUS
 10
108.493736
 20
380.533783
 11
108.493736
 21
336.533783
  0
LINE
  8
0
  6
CONTINUOUS
 10
104.493736
 20
380.533783
 11
108.493736
 21
380.533783
  0
ARC
  8
0
  6
CONTINUOUS
 10
104.493736
 20
384.533783
 40
4.000000
 50
180.000000
 51
270.000000
  0
LINE
  8
0
  6
CONTINUOUS
 10
100.493736
 20
388.533783
 11
100.493736
 21
384.533783
  0
LINE
  8
0
  6
CONTINUOUS
 10
108.493736
 20
380.533783
 11
109.493736
 21
381.533783
  0
LINE
  8
0
  6
CONTINUOUS
 10
56.493740
 20
388.533783
 11
100.493736
 21
388.533783
  0
LINE
  8
0
  6
CONTINUOUS
 10
100.493736
 20
388.533783
 11
101.493736
 21
389.533783
  0
LINE
  8
0
  6
CONTINUOUS
 10
52.493740
 20
381.533783
 11
47.493740
 21
381.533783
  0
LINE
  8
0
  6
CONTINUOUS
 10
55.493740
 20
384.533783
 11
55.493740
 21
389.533783
  0
CIRCLE
  8
0
  6
CONTINUOUS
 10
51.493740
 20
385.533783
 40
2.250000
  0
ARC
  8
0
  6
CONTINUOUS
 10
52.493740
 20
384.533783
 40
3.000000
 50
-90.000000
 51
0.000000
  0
LINE
  8
0
  6
CONTINUOUS
 10
56.493740
 20
384.533783
 11
56.493740
 21
388.533783
  0
ARC
  8
0
  6
CONTINUOUS
 10
52.493740
 20
384.533783
 40
4.000000
 50
-90.000000
 51
0.000000
  0
LINE
  8
0
  6
CONTINUOUS
 10
48.493740
 20
380.533783
 11
52.493740
 21
380.533783
  0
LINE
  8
0
  6
CONTINUOUS
 10
56.493740
 20
388.533783
 11
55.493740
 21
389.533783
  0
LINE
  8
0
  6
CONTINUOUS
 10
48.493740
 20
380.533783
 11
47.493740
 21
381.533783
  0
LINE
  8
0
  6
CONTINUOUS
 10
55.493740
 20
332.533783
 11
55.493740
 21
327.533783
  0
LINE
  8
0
  6
CONTINUOUS
 10
52.493740
 20
335.533783
 11
47.493740
 21
335.533783
  0
CIRCLE
  8
0
  6
CONTINUOUS
 10
51.493740
 20
331.533783
 40
2.250000
  0
ARC
  8
0
  6
CONTINUOUS
 10
52.493740
 20
332.533783
 40
3.000000
 50
0.000000
 51
90.000000
  0
LINE
  8
0
  6
CONTINUOUS
 10
52.493740
 20
336.533783
 11
48.493740
 21
336.533783
  0
ARC
  8
0
  6
CONTINUOUS
 10
52.493740
 20
332.533783
 40
4.000000
 50
0.000000
 51
90.000000
  0
LINE
  8
0
  6
CONTINUOUS
 10
56.493740
 20
328.533783
 11
56.493740
 21
332.533783
  0
LINE
  8
0
  6
CONTINUOUS
 10
48.493740
 20
336.533783
 11
47.493740
 21
335.533783
  0
LINE
  8
0
  6
CONTINUOUS
 10
56.493740
 20
328.533783
 11
55.493740
 21
327.533783
  0
LINE
  8
0
  6
CONTINUOUS
 10
104.493736
 20
335.533783
 11
109.493736
 21
335.533783
  0
LINE
  8
0
  6
CONTINUOUS
 10
101.493736
 20
332.533783
 11
101.493736
 21
327.533783
  0
CIRCLE
  8
0
  6
CONTINUOUS
 10
105.493736
 20
331.533783
 40
2.250000
  0
ARC
  8
0
  6
CONTINUOUS
 10
104.493736
 20
332.533783
 40
3.000000
 50
90.000000
 51
180.000000
  0
LINE
  8
0
  6
CONTINUOUS
 10
100.493736
 20
332.533783
 11
100.493736
 21
328.533783
  0
ARC
  8
0
  6
CONTINUOUS
 10
104.493736
 20
332.533783
 40
4.000000
 50
90.000000
 51
180.000000
  0
LINE
  8
0
  6
CONTINUOUS
 10
108.493736
 20
336.533783
 11
104.493736
 21
336.533783
  0
LINE
  8
0
  6
CONTINUOUS
 10
100.493736
 20
328.533783
 11
101.493736
 21
327.533783
  0
LINE
  8
0
  6
CONTINUOUS
 10
108.493736
 20
336.533783
 11
109.493736
 21
335.533783
  0
LINE
  8
0
  6
CONTINUOUS
 10
56.493740
 20
328.533783
 11
100.493736
 21
328.533783
  0
LINE
  8
0
  6
CONTINUOUS
 10
48.493740
 20
380.533783
 11
48.493740
 21
336.533783
  0
LINE
  8
0
  6
CENTER
 10
78.493736
 20
394.780029
 11
78.493736
 21
322.087219
  0
LINE
  8
0
  6
CONTINUOUS
 10
48.993740
 20
110.308838
 11
107.493759
 21
110.308830
  0
LINE
  8
0
  6
CONTINUOUS
 10
48.993740
 20
110.308830
 11
48.993740
 21
108.808830
  0
LINE
  8
0
  6
CONTINUOUS
 10
94.993736
 20
110.308830
 11
94.993736
 21
108.808830
  0
LINE
  8
0
  6
CONTINUOUS
 10
47.493740
 20
159.308823
 11
47.493740
 21
112.308838
  0
LINE
  8
0
  6
CONTINUOUS
 10
109.493759
 20
159.308853
 11
109.493759
 21
112.308830
  0
LINE
  8
0
  6
CONTINUOUS
 10
109.493759
 20
112.308830
 11
107.493759
 21
110.308830
  0
LINE
  8
0
  6
CONTINUOUS
 10
47.493740
 20
112.308838
 11
49.493740
 21
110.308838
  0
LINE
  8
0
  6
CONTINUOUS
 10
47.493740
 20
112.308838
 11
109.493759
 21
112.308830
  0
LINE
  8
0
  6
CONTINUOUS
 10
47.493740
 20
122.308838
 11
109.493759
 21
122.308838
  0
LINE
  8
0
  6
CENTER
 10
78.493736
 20
170.865082
 11
78.493736
 21
105.714806
  0
LINE
  8
0
  6
CONTINUOUS
 10
47.493740
 20
123.308838
 11
109.493759
 21
123.308838
  0
LINE
  8
0
  6
CONTINUOUS
 10
48.493740
 20
160.308823
 11
108.493759
 21
160.308853
  0
LINE
  8
0
  6
CONTINUOUS
 10
108.493759
 20
160.308853
 11
109.493759
 21
159.308853
  0
LINE
  8
0
  6
CONTINUOUS
 10
47.493740
 20
159.308823
 11
48.493740
 21
160.308823
  0
LINE
  8
0
  6
CONTINUOUS
 10
47.493740
 20
159.308823
 11
109.493759
 21
159.308853
  0
LINE
  8
0
  6
CENTER
 10
44.868740
 20
143.308853
 11
50.618740
 21
143.308853
  0
LINE
  8
0
  6
CONTINUOUS
 10
46.368740
 20
153.808853
 11
49.493740
 21
153.808853
  0
LINE
  8
0
  6
CONTINUOUS
 10
46.368740
 20
132.808838
 11
49.493740
 21
132.808838
  0
LINE
  8
0
  6
CONTINUOUS
 10
166.493744
 20
329.533813
 11
166.493744
 21
315.533783
  0
TEXT
  8
0
 10
-14.000000
 20
-24.000000
 40
4.000000
 41
1.000000
  1
HLMN-28R-600~900-T40C
 50
0.000000
  0
ENDSEC
  0
EOF
