  0
SECTION
  2
HEADER
  9
$CLAYER
  8
1
  9
$LTSCALE
 40
3.0
  0
ENDSEC
  0
SECTION
  2
TABLES
  0
TABLE
  2
LTYPE
 70
     4
  0
LTYPE
  2
CONTINUOUS
  3
solid line
 70
    64
 72
    65
 73
     0
 40
0.0
  0
LTYPE
  2
DASHED
  3
__ __ __ __ __ __ __ __ __ __ __ __ __ __ __
 70
    64
 72
    65
 73
     2
 40
0.75
 49
0.5
 49
-0.25
  0
LTYPE
  2
CENTER
  3
____ _ ____ _ ____ _ ____ _ ____ _ ____ _ ____
 70
    64
 72
    65
 73
     4
 40
2.0
 49
1.25
 49
-0.25
 49
0.25
 49
-0.25
  0
LTYPE
  2
PHANTOM
  3
_____ _ _ _____ _ _ _____ _ _ _____ _ _ ____
 70
    64
 72
    65
 73
     6
 40
2.5
 49
1.25
 49
-0.25
 49
0.25
 49
-0.25
 49
0.25
 49
-0.25
  0
ENDTAB
  0
TABLE
  2
LAYER
 70
     1
  0
LAYER
  2
0
 70
    64
 62
     7
  6
CONTINUOUS
  0
ENDTAB
  0
TABLE
  2
STYLE
 70
     1
  0
STYLE
  2
STANDARD
 70
     0
 40
0.000000
 41
1.000000
 50
0.000000
 71
     0
 42
3.000000
  3
txt
  4
BIGFONT
  0
ENDTAB
  0
ENDSEC
  0
SECTION
  2
BLOCKS
  0
ENDSEC
  0
SECTION
  2
ENTITIES
  0
LINE
  8
0
  6
CONTINUOUS
 10
169.591248
 20
120.747581
 11
169.591248
 21
34.747559
  0
LINE
  8
0
  6
CONTINUOUS
 10
59.591251
 20
122.747581
 11
178.591248
 21
122.747581
  0
LINE
  8
0
  6
CONTINUOUS
 10
59.591251
 20
32.747578
 11
178.591248
 21
32.747578
  0
LINE
  8
0
  6
CONTINUOUS
 10
59.591251
 20
112.156876
 11
168.553574
 21
112.156876
  0
LINE
  8
0
  6
CONTINUOUS
 10
59.591251
 20
43.338280
 11
168.553574
 21
43.338280
  0
ARC
  8
0
  6
CONTINUOUS
 10
171.591248
 20
120.747597
 40
2.000000
 50
90.000000
 51
180.000000
  0
ARC
  8
0
  6
CONTINUOUS
 10
171.591248
 20
34.747578
 40
2.000000
 50
180.000000
 51
270.000000
  0
LINE
  8
0
  6
CONTINUOUS
 10
378.091248
 20
152.119202
 11
378.091248
 21
6.747578
  0
LINE
  8
0
  6
CONTINUOUS
 10
253.091248
 20
6.747578
 11
378.091248
 21
6.747578
  0
LINE
  8
0
  6
CENTER
 10
262.136047
 20
126.747581
 11
373.302490
 21
126.747581
  0
LINE
  8
0
  6
CENTER
 10
315.591248
 20
198.247543
 11
315.591248
 21
-1.752422
  0
LINE
  8
0
  6
CONTINUOUS
 10
293.145660
 20
181.247543
 11
338.036865
 21
181.247543
  0
LINE
  8
0
  6
CONTINUOUS
 10
340.871643
 20
180.366241
 11
375.926056
 21
156.237823
  0
LINE
  8
0
  6
CONTINUOUS
 10
256.091248
 20
21.747578
 11
375.091248
 21
21.747578
  0
LINE
  8
0
  6
CONTINUOUS
 10
368.091248
 20
20.210077
 11
368.091248
 21
6.747578
  0
LINE
  8
0
  6
CONTINUOUS
 10
264.091248
 20
20.210077
 11
264.091248
 21
6.747578
  0
LINE
  8
0
  6
CENTER
 10
355.591248
 20
28.997578
 11
355.591248
 21
-0.002422
  0
LINE
  8
0
  6
CENTER
 10
275.591248
 20
28.997578
 11
275.591248
 21
1.247578
  0
LINE
  8
0
  6
DASHED
 10
361.091248
 20
21.747578
 11
361.091248
 21
6.747578
  0
LINE
  8
0
  6
DASHED
 10
350.091248
 20
21.747578
 11
350.091248
 21
6.747578
  0
LINE
  8
0
  6
DASHED
 10
281.091248
 20
21.747578
 11
281.091248
 21
6.747578
  0
LINE
  8
0
  6
DASHED
 10
270.091248
 20
21.747578
 11
270.091248
 21
6.747578
  0
ARC
  8
0
  6
CONTINUOUS
 10
295.591248
 20
76.747581
 40
26.500000
 50
170.529099
 51
270.000000
  0
ARC
  8
0
  6
CONTINUOUS
 10
335.591248
 20
76.747581
 40
26.500000
 50
-90.000000
 51
9.470950
  0
LINE
  8
0
  6
CONTINUOUS
 10
269.452454
 20
81.108055
 11
278.109253
 21
133.000412
  0
LINE
  8
0
  6
CONTINUOUS
 10
353.073242
 20
133.000412
 11
361.730042
 21
81.108086
  0
LINE
  8
0
  6
CONTINUOUS
 10
295.591248
 20
50.247578
 11
335.591248
 21
50.247578
  0
ARC
  8
0
  6
CONTINUOUS
 10
373.091248
 20
152.119141
 40
5.000000
 50
0.000000
 51
55.460110
  0
ARC
  8
0
  6
CONTINUOUS
 10
338.036865
 20
176.247543
 40
5.000000
 50
55.460079
 51
90.000000
  0
ARC
  8
0
  6
CONTINUOUS
 10
293.179657
 20
176.247543
 40
5.000000
 50
90.000000
 51
91.038872
  0
LINE
  8
0
  6
CONTINUOUS
 10
295.591248
 20
26.378351
 11
295.591248
 21
21.747578
  0
LINE
  8
0
  6
CONTINUOUS
 10
335.591248
 20
26.378351
 11
335.591248
 21
21.747578
  0
LINE
  8
0
  6
CONTINUOUS
 10
253.091248
 20
6.747578
 11
253.091248
 21
152.119156
  0
ARC
  8
0
  6
CONTINUOUS
 10
295.591248
 20
76.747581
 40
24.000000
 50
169.576294
 51
270.000000
  0
ARC
  8
0
  6
CONTINUOUS
 10
335.591248
 20
76.747581
 40
24.000000
 50
-90.000000
 51
9.471373
  0
LINE
  8
0
  6
CONTINUOUS
 10
295.591248
 20
52.747578
 11
335.591248
 21
52.747578
  0
CIRCLE
  8
0
  6
CONTINUOUS
 10
315.591248
 20
126.747581
 40
33.500000
  0
ARC
  8
0
  6
CONTINUOUS
 10
315.591248
 20
126.747581
 40
38.000000
 50
9.470961
 51
170.529099
  0
ARC
  8
0
  6
CONTINUOUS
 10
315.591248
 20
126.747581
 40
38.000000
 50
9.470963
 51
170.529007
  0
ARC
  8
0
  6
CONTINUOUS
 10
315.591248
 20
126.747581
 40
35.500000
 50
-189.470795
 51
9.471022
  0
LINE
  8
0
  6
CONTINUOUS
 10
271.918457
 20
80.696671
 11
280.575043
 21
132.588913
  0
LINE
  8
0
  6
CONTINUOUS
 10
350.607239
 20
132.589035
 11
359.264038
 21
80.696892
  0
LINE
  8
0
  6
CENTER
 10
149.067184
 20
90.747581
 11
276.841248
 21
90.747581
  0
LINE
  8
0
  6
CONTINUOUS
 10
233.091248
 20
90.747581
 11
233.091248
 21
26.747480
  0
LINE
  8
0
  6
CONTINUOUS
 10
233.091248
 20
90.747581
 11
233.091248
 21
154.747681
  0
LINE
  8
0
  6
CONTINUOUS
 10
255.256256
 20
156.237793
 11
290.310852
 21
180.366196
  0
ARC
  8
0
  6
CONTINUOUS
 10
293.145660
 20
176.247543
 40
5.000000
 50
90.000000
 51
124.540298
  0
ARC
  8
0
  6
CONTINUOUS
 10
258.091248
 20
152.119171
 40
5.000000
 50
124.540398
 51
180.000000
  0
ARC
  8
0
  6
CONTINUOUS
 10
256.091248
 20
18.747599
 40
3.000000
 50
90.000000
 51
180.000000
  0
ARC
  8
0
  6
CONTINUOUS
 10
375.091248
 20
18.747578
 40
3.000000
 50
0.000000
 51
90.000000
  0
LINE
  8
0
  6
CONTINUOUS
 10
305.294861
 20
62.747578
 11
301.134460
 21
62.747578
  0
LINE
  8
0
  6
CONTINUOUS
 10
307.591248
 20
69.716316
 11
307.591248
 21
62.747578
  0
LINE
  8
0
  6
CONTINUOUS
 10
311.591248
 20
72.247581
 11
311.591248
 21
74.747581
  0
LINE
  8
0
  6
CONTINUOUS
 10
319.591248
 20
72.247581
 11
319.591248
 21
74.747581
  0
LINE
  8
0
  6
CONTINUOUS
 10
314.810059
 20
73.278831
 11
314.810059
 21
64.060081
  0
LINE
  8
0
  6
CONTINUOUS
 10
316.310059
 20
73.278831
 11
316.310059
 21
64.060081
  0
LINE
  8
0
  6
CONTINUOUS
 10
324.185059
 20
73.278831
 11
324.185059
 21
63.997578
  0
LINE
  8
0
  6
CONTINUOUS
 10
325.560059
 20
68.356956
 11
325.560059
 21
63.997578
  0
LINE
  8
0
  6
CONTINUOUS
 10
305.693237
 20
73.153831
 11
301.838257
 21
73.153831
  0
LINE
  8
0
  6
CONTINUOUS
 10
301.838257
 20
73.153831
 11
300.935059
 21
72.033829
  0
LINE
  8
0
  6
CONTINUOUS
 10
301.043640
 20
74.747581
 11
299.591248
 21
72.887817
  0
LINE
  8
0
  6
CONTINUOUS
 10
300.935059
 20
65.120499
 11
301.852661
 21
64.153816
  0
LINE
  8
0
  6
CONTINUOUS
 10
299.591248
 20
64.304741
 11
301.134460
 21
62.747578
  0
LINE
  8
0
  6
CONTINUOUS
 10
299.591248
 20
72.887817
 11
299.591248
 21
64.304741
  0
LINE
  8
0
  6
CONTINUOUS
 10
300.935059
 20
72.033829
 11
300.935059
 21
65.120499
  0
LINE
  8
0
  6
CONTINUOUS
 10
306.435059
 20
72.436722
 11
305.678040
 21
73.153831
  0
LINE
  8
0
  6
CONTINUOUS
 10
306.423065
 20
74.747581
 11
307.591248
 21
73.451088
  0
LINE
  8
0
  6
CONTINUOUS
 10
306.435059
 20
72.247581
 11
307.591248
 21
72.247581
  0
LINE
  8
0
  6
CONTINUOUS
 10
301.043640
 20
74.747581
 11
306.423065
 21
74.747581
  0
LINE
  8
0
  6
CONTINUOUS
 10
304.341248
 20
69.716316
 11
307.591248
 21
69.716316
  0
LINE
  8
0
  6
CONTINUOUS
 10
306.435059
 20
68.403816
 11
304.341248
 21
68.403816
  0
LINE
  8
0
  6
CONTINUOUS
 10
303.935059
 20
64.153816
 11
301.852661
 21
64.153816
  0
LINE
  8
0
  6
CONTINUOUS
 10
306.435059
 20
67.153816
 11
306.435059
 21
68.153816
  0
ARC
  8
0
  6
CONTINUOUS
 10
303.935059
 20
66.653816
 40
2.500000
 50
-89.999786
 51
0.000109
  0
LINE
  8
0
  6
CONTINUOUS
 10
306.435059
 20
63.704140
 11
306.435059
 21
62.747578
  0
LINE
  8
0
  6
CONTINUOUS
 10
307.591248
 20
73.451088
 11
307.591248
 21
72.247581
  0
LINE
  8
0
  6
CONTINUOUS
 10
306.435059
 20
68.403816
 11
306.435059
 21
66.653816
  0
LINE
  8
0
  6
CONTINUOUS
 10
304.341248
 20
69.716316
 11
304.341248
 21
68.403816
  0
LINE
  8
0
  6
CONTINUOUS
 10
306.435059
 20
62.747578
 11
307.591248
 21
62.747578
  0
LINE
  8
0
  6
CONTINUOUS
 10
306.435059
 20
63.704140
 11
305.294861
 21
62.747578
  0
LINE
  8
0
  6
CONTINUOUS
 10
316.310059
 20
64.060081
 11
316.810059
 21
64.060081
  0
LINE
  8
0
  6
CONTINUOUS
 10
314.216248
 20
64.060081
 11
314.216248
 21
62.747578
  0
LINE
  8
0
  6
CONTINUOUS
 10
316.810059
 20
64.060081
 11
316.810059
 21
62.747578
  0
LINE
  8
0
  6
CONTINUOUS
 10
318.756836
 20
72.247581
 11
319.591248
 21
72.247581
  0
LINE
  8
0
  6
CONTINUOUS
 10
311.591248
 20
72.247581
 11
312.479248
 21
72.247581
  0
LINE
  8
0
  6
CONTINUOUS
 10
311.591248
 20
74.747581
 11
319.591248
 21
74.747581
  0
LINE
  8
0
  6
CONTINUOUS
 10
314.216248
 20
62.747578
 11
316.810059
 21
62.747578
  0
LINE
  8
0
  6
CONTINUOUS
 10
314.216248
 20
64.060081
 11
314.810059
 21
64.060081
  0
ARC
  8
0
  6
CONTINUOUS
 10
328.388062
 20
71.544449
 40
3.203126
 50
-73.981873
 51
90.003510
  0
ARC
  8
0
  6
CONTINUOUS
 10
328.388062
 20
71.544449
 40
1.954124
 50
-82.585274
 51
62.411850
  0
LINE
  8
0
  6
CONTINUOUS
 10
323.591248
 20
74.747581
 11
328.388062
 21
74.747581
  0
LINE
  8
0
  6
CONTINUOUS
 10
328.640259
 20
69.606659
 11
325.560059
 21
69.606659
  0
LINE
  8
0
  6
CONTINUOUS
 10
323.591248
 20
74.747581
 11
323.591248
 21
73.278831
  0
LINE
  8
0
  6
CONTINUOUS
 10
325.560059
 20
73.278831
 11
325.560059
 21
69.606659
  0
LINE
  8
0
  6
CONTINUOUS
 10
329.272064
 20
68.465698
 11
331.254456
 21
63.997578
  0
LINE
  8
0
  6
CONTINUOUS
 10
328.120453
 20
68.356956
 11
329.996643
 21
63.997578
  0
LINE
  8
0
  6
CONTINUOUS
 10
323.591248
 20
63.997578
 11
324.185059
 21
63.997578
  0
LINE
  8
0
  6
CONTINUOUS
 10
325.560059
 20
63.997578
 11
326.106842
 21
63.997578
  0
LINE
  8
0
  6
CONTINUOUS
 10
326.106842
 20
62.747578
 11
323.591248
 21
62.747578
  0
LINE
  8
0
  6
CONTINUOUS
 10
329.747437
 20
63.997578
 11
329.996643
 21
63.997578
  0
LINE
  8
0
  6
CONTINUOUS
 10
331.254456
 20
63.997578
 11
331.591248
 21
63.997578
  0
LINE
  8
0
  6
CONTINUOUS
 10
329.747437
 20
62.747578
 11
331.591248
 21
62.747578
  0
LINE
  8
0
  6
CONTINUOUS
 10
331.591248
 20
63.997578
 11
331.591248
 21
62.747578
  0
LINE
  8
0
  6
CONTINUOUS
 10
329.747437
 20
63.997578
 11
329.747437
 21
62.747578
  0
LINE
  8
0
  6
CONTINUOUS
 10
326.106842
 20
63.997578
 11
326.106842
 21
62.747578
  0
LINE
  8
0
  6
CONTINUOUS
 10
323.591248
 20
63.997578
 11
323.591248
 21
62.747578
  0
LINE
  8
0
  6
CONTINUOUS
 10
312.909058
 20
73.278831
 11
312.479248
 21
72.247581
  0
LINE
  8
0
  6
CONTINUOUS
 10
318.394440
 20
73.278831
 11
318.756836
 21
72.247581
  0
LINE
  8
0
  6
CONTINUOUS
 10
316.310059
 20
73.278831
 11
318.394440
 21
73.278831
  0
LINE
  8
0
  6
CONTINUOUS
 10
314.810059
 20
73.278831
 11
312.909058
 21
73.278831
  0
LINE
  8
0
  6
CONTINUOUS
 10
325.560059
 20
68.356956
 11
328.120453
 21
68.356956
  0
LINE
  8
0
  6
CONTINUOUS
 10
323.591248
 20
73.278831
 11
324.185059
 21
73.278831
  0
LINE
  8
0
  6
CONTINUOUS
 10
325.560059
 20
73.278831
 11
329.293060
 21
73.276398
  0
LINE
  8
0
  6
CONTINUOUS
 10
306.435059
 20
72.436722
 11
306.435059
 21
72.247581
  0
LINE
  8
0
  6
CONTINUOUS
 10
606.972229
 20
37.747578
 11
606.972229
 21
41.726299
  0
LINE
  8
0
  6
CONTINUOUS
 10
516.972229
 20
37.747578
 11
516.972229
 21
41.726238
  0
LINE
  8
0
  6
CONTINUOUS
 10
521.972229
 20
32.747578
 11
524.972229
 21
32.747578
  0
LINE
  8
0
  6
CONTINUOUS
 10
601.972229
 20
32.747578
 11
598.972229
 21
32.747578
  0
ARC
  8
0
  6
CONTINUOUS
 10
521.972229
 20
37.747578
 40
5.000000
 50
180.000000
 51
270.000000
  0
ARC
  8
0
  6
CONTINUOUS
 10
601.972229
 20
37.747578
 40
5.000000
 50
-90.000000
 51
0.000000
  0
ARC
  8
0
  6
CONTINUOUS
 10
602.984680
 20
49.735619
 40
8.000000
 50
306.780975
 51
358.958740
  0
ARC
  8
0
  6
CONTINUOUS
 10
520.960022
 20
49.735359
 40
8.000000
 50
181.041107
 51
233.216995
  0
ARC
  8
0
  6
CONTINUOUS
 10
608.972229
 20
41.726318
 40
2.000000
 50
126.781197
 51
180.000000
  0
ARC
  8
0
  6
CONTINUOUS
 10
514.972229
 20
41.726238
 40
2.000000
 50
0.000000
 51
53.217121
  0
LINE
  8
0
  6
CENTER
 10
561.972229
 20
-10.581262
 11
561.972229
 21
202.666901
  0
LINE
  8
0
  6
CENTER
 10
444.701263
 20
126.747581
 11
629.213501
 21
126.747581
  0
LINE
  8
0
  6
CONTINUOUS
 10
498.972260
 20
6.747578
 11
534.472229
 21
6.747578
  0
LINE
  8
0
  6
CONTINUOUS
 10
502.972260
 20
21.747578
 11
520.972229
 21
21.747578
  0
LINE
  8
0
  6
CONTINUOUS
 10
620.972229
 20
21.747578
 11
602.972229
 21
21.747578
  0
LINE
  8
0
  6
CONTINUOUS
 10
526.472229
 20
154.747574
 11
597.222229
 21
154.747574
  0
LINE
  8
0
  6
CONTINUOUS
 10
596.024658
 20
180.653458
 11
561.972229
 21
181.247574
  0
LINE
  8
0
  6
CONTINUOUS
 10
527.919861
 20
180.653061
 11
561.972229
 21
181.247574
  0
LINE
  8
0
  6
CONTINUOUS
 10
598.972229
 20
177.653915
 11
598.972229
 21
6.747558
  0
LINE
  8
0
  6
CONTINUOUS
 10
524.972229
 20
177.653519
 11
524.972229
 21
6.747578
  0
LINE
  8
0
  6
CONTINUOUS
 10
508.972260
 20
97.035309
 11
508.972260
 21
156.459824
  0
LINE
  8
0
  6
CONTINUOUS
 10
614.972229
 20
156.459839
 11
614.972229
 21
97.035316
  0
LINE
  8
0
  6
CONTINUOUS
 10
515.972229
 20
56.547997
 11
515.972229
 21
129.247574
  0
LINE
  8
0
  6
CONTINUOUS
 10
607.972229
 20
56.547997
 11
607.972229
 21
129.247574
  0
LINE
  8
0
  6
CONTINUOUS
 10
624.972229
 20
18.443516
 11
624.972229
 21
6.747578
  0
LINE
  8
0
  6
CONTINUOUS
 10
498.972260
 20
18.443516
 11
498.972260
 21
6.747578
  0
LINE
  8
0
  6
CENTER
 10
511.972260
 20
29.747578
 11
511.972260
 21
-4.605822
  0
LINE
  8
0
  6
CENTER
 10
611.972229
 20
30.247578
 11
611.972229
 21
-4.605822
  0
LINE
  8
0
  6
DASHED
 10
506.472260
 20
21.747578
 11
506.472260
 21
6.747578
  0
LINE
  8
0
  6
DASHED
 10
517.472229
 20
21.747578
 11
517.472229
 21
6.747578
  0
LINE
  8
0
  6
DASHED
 10
606.472229
 20
21.747578
 11
606.472229
 21
6.747578
  0
LINE
  8
0
  6
DASHED
 10
617.472229
 20
21.747578
 11
617.472229
 21
6.747578
  0
ARC
  8
0
  6
CONTINUOUS
 10
527.972229
 20
177.653534
 40
3.000000
 50
91.000526
 51
180.000000
  0
ARC
  8
0
  6
CONTINUOUS
 10
595.972229
 20
177.653900
 40
3.000000
 50
0.000000
 51
89.000580
  0
LINE
  8
0
  6
CONTINUOUS
 10
589.472229
 20
6.747578
 11
624.972229
 21
6.747578
  0
LINE
  8
0
  6
CONTINUOUS
 10
535.472229
 20
7.747578
 11
588.472229
 21
7.747578
  0
LINE
  8
0
  6
CONTINUOUS
 10
512.618469
 20
161.273102
 11
521.325867
 21
163.722061
  0
LINE
  8
0
  6
CONTINUOUS
 10
512.618469
 20
92.222061
 11
513.784424
 21
91.894127
  0
LINE
  8
0
  6
CONTINUOUS
 10
519.634033
 20
51.730419
 11
521.310425
 21
51.264736
  0
LINE
  8
0
  6
CONTINUOUS
 10
604.310425
 20
51.730419
 11
602.634033
 21
51.264736
  0
LINE
  8
0
  6
CONTINUOUS
 10
611.325867
 20
92.222061
 11
610.160034
 21
91.894135
  0
LINE
  8
0
  6
CONTINUOUS
 10
611.325867
 20
161.273102
 11
602.618652
 21
163.722061
  0
ARC
  8
0
  6
CONTINUOUS
 10
513.972229
 20
156.459854
 40
5.000000
 50
105.709000
 51
180.000000
  0
ARC
  8
0
  6
CONTINUOUS
 10
513.972229
 20
97.035347
 40
5.000000
 50
180.000000
 51
254.291702
  0
ARC
  8
0
  6
CONTINUOUS
 10
520.972229
 20
56.548038
 40
5.000000
 50
180.000000
 51
254.476196
  0
ARC
  8
0
  6
CONTINUOUS
 10
602.972229
 20
56.547997
 40
5.000000
 50
-74.475708
 51
0.000000
  0
ARC
  8
0
  6
CONTINUOUS
 10
609.972229
 20
97.035309
 40
5.000000
 50
-74.291199
 51
0.000000
  0
ARC
  8
0
  6
CONTINUOUS
 10
609.972229
 20
156.459824
 40
5.000000
 50
0.000000
 51
74.291527
  0
ARC
  8
0
  6
CONTINUOUS
 10
610.972229
 20
89.006195
 40
3.000000
 50
105.709000
 51
180.000000
  0
ARC
  8
0
  6
CONTINUOUS
 10
512.972229
 20
89.006165
 40
3.000000
 50
0.000000
 51
74.291397
  0
ARC
  8
0
  6
CONTINUOUS
 10
519.972229
 20
168.535324
 40
5.000000
 50
-74.291199
 51
0.000000
  0
ARC
  8
0
  6
CONTINUOUS
 10
603.972229
 20
168.535339
 40
5.000000
 50
180.000000
 51
254.291702
  0
ARC
  8
0
  6
CONTINUOUS
 10
603.972229
 20
46.447178
 40
5.000000
 50
105.524399
 51
180.000000
  0
ARC
  8
0
  6
CONTINUOUS
 10
519.972229
 20
46.447140
 40
5.000000
 50
0.000000
 51
74.475952
  0
LINE
  8
0
  6
CONTINUOUS
 10
589.472229
 20
6.747578
 11
588.472229
 21
7.747578
  0
LINE
  8
0
  6
CONTINUOUS
 10
534.472229
 20
6.747578
 11
535.472229
 21
7.747578
  0
LINE
  8
0
  6
CENTER
 10
485.073486
 20
90.747574
 11
641.493530
 21
90.747574
  0
LINE
  8
0
  6
CONTINUOUS
 10
325.591248
 20
122.747620
 11
325.591248
 21
130.747620
  0
LINE
  8
0
  6
CONTINUOUS
 10
332.591248
 20
122.747635
 11
332.591248
 21
130.747635
  0
LINE
  8
0
  6
CONTINUOUS
 10
332.591248
 20
122.747635
 11
325.591248
 21
122.747620
  0
LINE
  8
0
  6
CONTINUOUS
 10
332.591248
 20
130.747635
 11
325.591248
 21
130.747620
  0
ARC
  8
0
  6
CONTINUOUS
 10
315.591248
 20
126.747581
 40
14.000000
 50
16.601500
 51
343.398499
  0
LINE
  8
0
  6
CONTINUOUS
 10
461.972260
 20
112.747581
 11
461.972260
 21
140.747574
  0
LINE
  8
0
  6
CONTINUOUS
 10
506.972260
 20
140.747574
 11
461.972260
 21
140.747574
  0
LINE
  8
0
  6
CONTINUOUS
 10
506.972260
 20
112.747581
 11
461.972260
 21
112.747581
  0
LINE
  8
0
  6
CONTINUOUS
 10
506.972260
 20
141.747574
 11
506.972260
 21
111.747581
  0
LINE
  8
0
  6
CONTINUOUS
 10
508.972260
 20
111.747581
 11
506.972260
 21
111.747581
  0
ARC
  8
0
  6
CONTINUOUS
 10
497.972260
 20
126.747581
 40
4.000000
 50
-90.000000
 51
90.000000
  0
LINE
  8
0
  6
CONTINUOUS
 10
497.972260
 20
130.747574
 11
461.972260
 21
130.747574
  0
LINE
  8
0
  6
CONTINUOUS
 10
497.972260
 20
122.747581
 11
461.972260
 21
122.747581
  0
LINE
  8
0
  6
CONTINUOUS
 10
508.972260
 20
141.747574
 11
506.972260
 21
141.747574
  0
LINE
  8
0
  6
CONTINUOUS
 10
226.591248
 20
154.747681
 11
233.091248
 21
154.747681
  0
LINE
  8
0
  6
CONTINUOUS
 10
226.591248
 20
26.747480
 11
233.091248
 21
26.747480
  0
LINE
  8
0
  6
CONTINUOUS
 10
178.591248
 20
122.747581
 11
224.591248
 21
124.353935
  0
LINE
  8
0
  6
CONTINUOUS
 10
233.091248
 20
30.844397
 11
178.591248
 21
32.747578
  0
ARC
  8
0
  6
CONTINUOUS
 10
226.591263
 20
152.747696
 40
2.000000
 50
90.000000
 51
180.000000
  0
ARC
  8
0
  6
CONTINUOUS
 10
226.591248
 20
28.747480
 40
2.000000
 50
180.260773
 51
270.000000
  0
LINE
  8
0
  6
CENTER
 10
-9.742500
 20
77.747581
 11
276.841248
 21
77.747581
  0
LINE
  8
0
  6
CONTINUOUS
 10
178.591248
 20
122.747581
 11
178.591248
 21
32.747578
  0
LINE
  8
0
  6
CONTINUOUS
 10
223.859024
 20
130.515350
 11
218.144501
 21
124.800835
  0
LINE
  8
0
  6
CONTINUOUS
 10
255.354630
 20
409.472565
 11
374.497314
 21
409.472565
  0
ARC
  8
0
  6
CONTINUOUS
 10
374.497314
 20
406.472565
 40
3.000000
 50
1.000000
 51
90.000000
  0
LINE
  8
0
  6
CONTINUOUS
 10
360.585510
 20
414.826294
 11
361.475952
 21
411.660309
  0
ARC
  8
0
  6
CONTINUOUS
 10
364.363892
 20
412.472565
 40
3.000000
 50
195.708649
 51
270.000000
  0
ARC
  8
0
  6
CONTINUOUS
 10
247.168854
 20
426.699127
 40
3.000000
 50
1.500200
 51
77.801201
  0
LINE
  8
0
  6
CONTINUOUS
 10
250.167847
 20
426.777679
 11
250.523849
 21
413.182892
  0
ARC
  8
0
  6
CONTINUOUS
 10
248.436646
 20
432.563660
 40
3.000000
 50
-164.999893
 51
-102.198799
  0
LINE
  8
0
  6
CENTER
 10
-11.647500
 20
372.472565
 11
393.495117
 21
372.472565
  0
LINE
  8
0
  6
CONTINUOUS
 10
266.606140
 20
309.472565
 11
301.591248
 21
309.472565
  0
LINE
  8
0
  6
CONTINUOUS
 10
378.091248
 20
372.472565
 11
377.445404
 21
409.472565
  0
LINE
  8
0
  6
CONTINUOUS
 10
369.281158
 20
432.165222
 11
377.445404
 21
409.472565
  0
ARC
  8
0
  6
CONTINUOUS
 10
364.576385
 20
430.472565
 40
5.000000
 50
19.787489
 51
90.000000
  0
LINE
  8
0
  6
CONTINUOUS
 10
378.091248
 20
372.472565
 11
377.445404
 21
335.472565
  0
LINE
  8
0
  6
CONTINUOUS
 10
369.281158
 20
312.779877
 11
377.445404
 21
335.472565
  0
ARC
  8
0
  6
CONTINUOUS
 10
364.576385
 20
314.472565
 40
5.000000
 50
-90.000000
 51
-19.787489
  0
LINE
  8
0
  6
CONTINUOUS
 10
255.354630
 20
409.472565
 11
374.497314
 21
409.472565
  0
LINE
  8
0
  6
CENTER
 10
315.591248
 20
253.235001
 11
315.591248
 21
448.546265
  0
ARC
  8
0
  6
CONTINUOUS
 10
374.497314
 20
406.472565
 40
3.000000
 50
1.000000
 51
90.000000
  0
ARC
  8
0
  6
CONTINUOUS
 10
374.497314
 20
338.472565
 40
3.000000
 50
-90.000000
 51
-1.000000
  0
LINE
  8
0
  6
CONTINUOUS
 10
255.427856
 20
335.472565
 11
374.497314
 21
335.472565
  0
LINE
  8
0
  6
CONTINUOUS
 10
345.303497
 20
425.472565
 11
285.878998
 21
425.472565
  0
LINE
  8
0
  6
CONTINUOUS
 10
350.116760
 20
421.826263
 11
351.059998
 21
418.472565
  0
ARC
  8
0
  6
CONTINUOUS
 10
345.303497
 20
420.472565
 40
5.000000
 50
15.708638
 51
90.000000
  0
LINE
  8
0
  6
CONTINUOUS
 10
351.059998
 20
418.472565
 11
355.772247
 21
418.472565
  0
ARC
  8
0
  6
CONTINUOUS
 10
355.772247
 20
413.472565
 40
5.000000
 50
15.708638
 51
90.000000
  0
LINE
  8
0
  6
CONTINUOUS
 10
281.065735
 20
421.826263
 11
280.122498
 21
418.472565
  0
ARC
  8
0
  6
CONTINUOUS
 10
285.878998
 20
420.472565
 40
5.000000
 50
90.000000
 51
164.291367
  0
LINE
  8
0
  6
CONTINUOUS
 10
280.122498
 20
418.472565
 11
275.410248
 21
418.472565
  0
LINE
  8
0
  6
CONTINUOUS
 10
270.596985
 20
414.826263
 11
269.706543
 21
411.660309
  0
ARC
  8
0
  6
CONTINUOUS
 10
275.410248
 20
413.472565
 40
5.000000
 50
90.000000
 51
164.291367
  0
ARC
  8
0
  6
CONTINUOUS
 10
266.818604
 20
412.472565
 40
3.000000
 50
-90.000000
 51
-15.708638
  0
LINE
  8
0
  6
CONTINUOUS
 10
345.303497
 20
319.472565
 11
285.878998
 21
319.472565
  0
LINE
  8
0
  6
CONTINUOUS
 10
350.116760
 20
323.118835
 11
351.059998
 21
326.472565
  0
ARC
  8
0
  6
CONTINUOUS
 10
345.303497
 20
324.472565
 40
5.000000
 50
-90.000000
 51
-15.708638
  0
LINE
  8
0
  6
CONTINUOUS
 10
351.059998
 20
326.472565
 11
355.772247
 21
326.472565
  0
LINE
  8
0
  6
CONTINUOUS
 10
360.585510
 20
330.118835
 11
361.475952
 21
333.284790
  0
ARC
  8
0
  6
CONTINUOUS
 10
355.772247
 20
331.472565
 40
5.000000
 50
-90.000000
 51
-15.708638
  0
ARC
  8
0
  6
CONTINUOUS
 10
364.363892
 20
332.472565
 40
3.000000
 50
-270.000000
 51
-195.708633
  0
LINE
  8
0
  6
CONTINUOUS
 10
281.065735
 20
323.118835
 11
280.122498
 21
326.472565
  0
ARC
  8
0
  6
CONTINUOUS
 10
285.878998
 20
324.472565
 40
5.000000
 50
-164.291367
 51
-90.000000
  0
LINE
  8
0
  6
CONTINUOUS
 10
280.122498
 20
326.472565
 11
275.410248
 21
326.472565
  0
LINE
  8
0
  6
CONTINUOUS
 10
270.596985
 20
330.118835
 11
269.706543
 21
333.284790
  0
ARC
  8
0
  6
CONTINUOUS
 10
275.410248
 20
331.472565
 40
5.000000
 50
-164.291367
 51
-90.000000
  0
ARC
  8
0
  6
CONTINUOUS
 10
266.818604
 20
332.472565
 40
3.000000
 50
15.708638
 51
90.000000
  0
LINE
  8
0
  6
CONTINUOUS
 10
261.901367
 20
432.165222
 11
253.823502
 21
409.712738
  0
ARC
  8
0
  6
CONTINUOUS
 10
266.606140
 20
430.472565
 40
5.000000
 50
90.000000
 51
160.212509
  0
LINE
  8
0
  6
CONTINUOUS
 10
261.901367
 20
312.779877
 11
253.839355
 21
335.188293
  0
ARC
  8
0
  6
CONTINUOUS
 10
266.606140
 20
314.472565
 40
5.000000
 50
199.787491
 51
270.000000
  0
LINE
  8
0
  6
CONTINUOUS
 10
266.606140
 20
435.472565
 11
315.591248
 21
435.472565
  0
LINE
  8
0
  6
CENTER
 10
355.591248
 20
433.585815
 11
355.591248
 21
414.144409
  0
LINE
  8
0
  6
CENTER
 10
345.680359
 20
422.472565
 11
364.198914
 21
422.472565
  0
ARC
  8
0
  6
CONTINUOUS
 10
355.591248
 20
422.472565
 40
5.500000
 50
-59.465683
 51
187.598495
  0
ARC
  8
0
  6
CONTINUOUS
 10
275.591248
 20
422.472565
 40
5.500000
 50
-7.598608
 51
239.465683
  0
LINE
  8
0
  6
CENTER
 10
275.591248
 20
433.585815
 11
275.591248
 21
414.144409
  0
LINE
  8
0
  6
CENTER
 10
285.502136
 20
422.472565
 11
266.983582
 21
422.472565
  0
ARC
  8
0
  6
CONTINUOUS
 10
275.591248
 20
322.472565
 40
5.500000
 50
-239.465683
 51
7.598608
  0
LINE
  8
0
  6
CENTER
 10
285.502136
 20
322.472565
 11
266.983582
 21
322.472565
  0
LINE
  8
0
  6
CENTER
 10
275.591248
 20
311.359283
 11
275.591248
 21
330.800690
  0
LINE
  8
0
  6
CENTER
 10
355.591248
 20
311.359283
 11
355.591248
 21
330.800690
  0
LINE
  8
0
  6
CENTER
 10
345.680359
 20
322.472565
 11
364.198914
 21
322.472565
  0
ARC
  8
0
  6
CONTINUOUS
 10
355.591248
 20
322.472565
 40
5.500000
 50
-187.598602
 51
59.465683
  0
LINE
  8
0
  6
CONTINUOUS
 10
339.591248
 20
338.472565
 11
339.591248
 21
406.472565
  0
LINE
  8
0
  6
CONTINUOUS
 10
291.591248
 20
338.472565
 11
291.591248
 21
406.472565
  0
LINE
  8
0
  6
CONTINUOUS
 10
250.671539
 20
331.766632
 11
245.422913
 21
312.178467
  0
LINE
  8
0
  6
CONTINUOUS
 10
250.167847
 20
317.620514
 11
250.523849
 21
331.215302
  0
ARC
  8
0
  6
CONTINUOUS
 10
247.168854
 20
317.699127
 40
3.000000
 50
282.198792
 51
358.499786
  0
ARC
  8
0
  6
CONTINUOUS
 10
248.436646
 20
311.834503
 40
3.000000
 50
102.198799
 51
165.000031
  0
ARC
  8
0
  6
CONTINUOUS
 10
247.168854
 20
426.699127
 40
3.000000
 50
1.500200
 51
77.801201
  0
LINE
  8
0
  6
CONTINUOUS
 10
250.167847
 20
426.777679
 11
250.523849
 21
413.182892
  0
ARC
  8
0
  6
CONTINUOUS
 10
248.436646
 20
432.563660
 40
3.000000
 50
-164.999893
 51
-102.198799
  0
LINE
  8
0
  6
CONTINUOUS
 10
240.520050
 20
436.472565
 11
233.091248
 21
436.472565
  0
LINE
  8
0
  6
CONTINUOUS
 10
245.276413
 20
432.766632
 11
250.598251
 21
412.905060
  0
ARC
  8
0
  6
CONTINUOUS
 10
255.501175
 20
330.472565
 40
5.000000
 50
90.000000
 51
165.000031
  0
ARC
  8
0
  6
CONTINUOUS
 10
255.354630
 20
414.472565
 40
5.000000
 50
194.999847
 51
270.000000
  0
LINE
  8
0
  6
CONTINUOUS
 10
315.591248
 20
435.472565
 11
364.576385
 21
435.472565
  0
LINE
  8
0
  6
CONTINUOUS
 10
332.591248
 20
272.472565
 11
301.591248
 21
272.472565
  0
LINE
  8
0
  6
CONTINUOUS
 10
301.591248
 20
317.472565
 11
301.591248
 21
272.472565
  0
LINE
  8
0
  6
CONTINUOUS
 10
329.591248
 20
317.472565
 11
329.591248
 21
312.472565
  0
LINE
  8
0
  6
CONTINUOUS
 10
300.591248
 20
317.472565
 11
330.591248
 21
317.472565
  0
LINE
  8
0
  6
CONTINUOUS
 10
330.591248
 20
319.472565
 11
330.591248
 21
317.472565
  0
LINE
  8
0
  6
CONTINUOUS
 10
300.591248
 20
319.472565
 11
300.591248
 21
317.472565
  0
LINE
  8
0
  6
CONTINUOUS
 10
329.007660
 20
312.472565
 11
332.591248
 21
312.472565
  0
LINE
  8
0
  6
CONTINUOUS
 10
329.007660
 20
312.472565
 11
329.007660
 21
272.472565
  0
LINE
  8
0
  6
CONTINUOUS
 10
332.591248
 20
272.472565
 11
332.591248
 21
312.472565
  0
LINE
  8
0
  6
CONTINUOUS
 10
332.591248
 20
309.472565
 11
364.576385
 21
309.472565
  0
LINE
  8
0
  6
CONTINUOUS
 10
233.091248
 20
308.472565
 11
240.593292
 21
308.472565
  0
ARC
  8
0
  6
CONTINUOUS
 10
240.593292
 20
313.472565
 40
5.000000
 50
270.000000
 51
345.000031
  0
ARC
  8
0
  6
CONTINUOUS
 10
240.446777
 20
431.472565
 40
5.000000
 50
14.999846
 51
90.000000
  0
LINE
  8
0
  6
CONTINUOUS
 10
253.091248
 20
372.472565
 11
253.685638
 21
406.524902
  0
LINE
  8
0
  6
CONTINUOUS
 10
253.091248
 20
372.472565
 11
253.685638
 21
338.420197
  0
ARC
  8
0
  6
CONTINUOUS
 10
256.685181
 20
406.472565
 40
3.000000
 50
90.000000
 51
179.000000
  0
ARC
  8
0
  6
CONTINUOUS
 10
256.685181
 20
338.472565
 40
3.000000
 50
181.000000
 51
270.000000
  0
LINE
  8
0
  6
CONTINUOUS
 10
251.536896
 20
154.747681
 11
233.091248
 21
154.747681
  0
LINE
  8
0
  6
CONTINUOUS
 10
233.091248
 20
26.747480
 11
248.091248
 21
26.747480
  0
ARC
  8
0
  6
CONTINUOUS
 10
248.091263
 20
21.747461
 40
5.000000
 50
0.000000
 51
90.000000
  0
LINE
  8
0
  6
CONTINUOUS
 10
502.216858
 20
22.371553
 11
521.727661
 21
26.123615
  0
ARC
  8
0
  6
CONTINUOUS
 10
561.972229
 20
90.747581
 40
64.000099
 50
-54.681290
 51
34.093521
  0
ARC
  8
0
  6
CONTINUOUS
 10
561.972229
 20
90.747581
 40
64.000099
 50
159.894516
 51
234.681290
  0
ARC
  8
0
  6
CONTINUOUS
 10
502.972260
 20
17.747578
 40
4.000000
 50
90.000000
 51
180.000000
  0
ARC
  8
0
  6
CONTINUOUS
 10
502.972260
 20
18.443516
 40
4.000000
 50
100.885529
 51
180.000000
  0
ARC
  8
0
  6
CONTINUOUS
 10
520.972229
 20
30.051641
 40
4.000000
 50
-79.114502
 51
0.000000
  0
ARC
  8
0
  6
CONTINUOUS
 10
520.972229
 20
25.747578
 40
4.000000
 50
-90.000000
 51
0.000000
  0
LINE
  8
0
  6
CONTINUOUS
 10
621.727661
 20
22.371553
 11
602.216858
 21
26.123615
  0
ARC
  8
0
  6
CONTINUOUS
 10
620.972229
 20
17.747578
 40
4.000000
 50
0.000000
 51
90.000000
  0
ARC
  8
0
  6
CONTINUOUS
 10
620.972229
 20
18.443516
 40
4.000000
 50
0.000000
 51
79.114471
  0
ARC
  8
0
  6
CONTINUOUS
 10
602.972229
 20
30.051641
 40
4.000000
 50
180.000000
 51
259.114502
  0
ARC
  8
0
  6
CONTINUOUS
 10
602.972229
 20
25.747578
 40
4.000000
 50
180.000000
 51
270.000000
  0
LINE
  8
0
  6
CONTINUOUS
 10
297.033142
 20
26.747578
 11
334.149353
 21
26.747578
  0
LINE
  8
0
  6
CONTINUOUS
 10
294.690521
 20
25.621653
 11
292.492035
 21
22.873505
  0
ARC
  8
0
  6
CONTINUOUS
 10
290.149414
 20
24.747578
 40
3.000000
 50
270.000000
 51
321.340454
  0
ARC
  8
0
  6
CONTINUOUS
 10
297.033142
 20
23.747578
 40
3.000000
 50
90.000000
 51
141.340454
  0
LINE
  8
0
  6
CONTINUOUS
 10
336.491974
 20
25.621653
 11
338.690491
 21
22.873505
  0
ARC
  8
0
  6
CONTINUOUS
 10
341.033081
 20
24.747578
 40
3.000000
 50
-141.340454
 51
-90.000000
  0
ARC
  8
0
  6
CONTINUOUS
 10
334.149353
 20
23.747578
 40
3.000000
 50
38.659546
 51
90.000000
  0
ARC
  8
0
  6
CONTINUOUS
 10
251.536896
 20
159.747681
 40
5.000000
 50
270.000000
 51
304.539978
  0
LINE
  8
0
  6
CONTINUOUS
 10
233.091248
 20
436.472565
 11
233.091248
 21
308.472565
  0
LINE
  8
0
  6
CONTINUOUS
 10
251.591248
 20
142.347580
 11
253.091248
 21
142.347580
  0
LINE
  8
0
  6
CONTINUOUS
 10
251.591248
 20
39.147598
 11
253.091248
 21
39.147598
  0
ARC
  8
0
  6
CONTINUOUS
 10
435.544464
 20
90.747581
 40
191.053177
 50
164.330902
 51
195.669098
  0
ARC
  8
0
  6
CONTINUOUS
 10
435.544464
 20
90.747581
 40
190.053177
 50
178.548599
 51
181.478500
  0
LINE
  8
0
  6
CONTINUOUS
 10
247.591248
 20
95.747581
 11
246.586456
 21
95.747581
  0
LINE
  8
0
  6
CONTINUOUS
 10
250.091248
 20
93.247581
 11
250.091248
 21
88.247581
  0
ARC
  8
0
  6
CONTINUOUS
 10
246.586456
 20
96.745979
 40
1.000000
 50
178.182098
 51
270.000000
  0
ARC
  8
0
  6
CONTINUOUS
 10
247.591248
 20
93.247581
 40
2.500000
 50
0.000000
 51
90.000000
  0
LINE
  8
0
  6
CONTINUOUS
 10
247.591248
 20
85.747581
 11
246.586456
 21
85.747581
  0
ARC
  8
0
  6
CONTINUOUS
 10
246.586456
 20
84.749176
 40
1.000000
 50
-270.000000
 51
-178.182098
  0
ARC
  8
0
  6
CONTINUOUS
 10
247.591248
 20
88.247581
 40
2.500000
 50
-90.000000
 51
0.000000
  0
LINE
  8
0
  6
CONTINUOUS
 10
178.591248
 20
57.241577
 11
222.591248
 21
57.241577
  0
LINE
  8
0
  6
CONTINUOUS
 10
178.591248
 20
42.228577
 11
233.091248
 21
42.228580
  0
LINE
  8
0
  6
CONTINUOUS
 10
225.159225
 20
50.180576
 11
233.091248
 21
50.180576
  0
LINE
  8
0
  6
CONTINUOUS
 10
224.591248
 20
51.395313
 11
224.591248
 21
152.747696
  0
ARC
  8
0
  6
CONTINUOUS
 10
222.091293
 20
28.726999
 40
2.500000
 50
0.260773
 51
88.000000
  0
ARC
  8
0
  6
CONTINUOUS
 10
222.091248
 20
132.283112
 40
2.500000
 50
-45.000000
 51
0.000000
  0
ARC
  8
0
  6
CONTINUOUS
 10
216.376740
 20
126.568604
 40
2.500000
 50
272.000000
 51
315.000000
  0
LINE
  8
0
  6
CONTINUOUS
 10
224.591248
 20
310.472565
 11
224.591248
 21
434.472565
  0
LINE
  8
0
  6
CONTINUOUS
 10
178.591248
 20
417.472565
 11
222.154861
 21
418.993835
  0
LINE
  8
0
  6
CONTINUOUS
 10
178.591248
 20
327.472565
 11
222.154861
 21
325.951263
  0
LINE
  8
0
  6
CONTINUOUS
 10
178.591248
 20
421.484558
 11
178.591248
 21
323.460541
  0
LINE
  8
0
  6
CONTINUOUS
 10
226.591248
 20
436.472565
 11
233.091248
 21
436.472565
  0
LINE
  8
0
  6
CONTINUOUS
 10
226.591248
 20
308.472565
 11
233.091248
 21
308.472565
  0
LINE
  8
0
  6
CONTINUOUS
 10
217.448257
 20
396.472565
 11
224.563232
 21
396.472565
  0
LINE
  8
0
  6
CONTINUOUS
 10
218.053391
 20
348.472565
 11
224.563232
 21
348.472565
  0
LINE
  8
0
  6
CONTINUOUS
 10
217.448257
 20
394.268036
 11
217.448257
 21
350.555481
  0
LINE
  8
0
  6
CONTINUOUS
 10
169.591248
 20
415.472565
 11
169.591248
 21
401.472565
  0
LINE
  8
0
  6
CONTINUOUS
 10
59.591251
 20
417.472565
 11
178.591248
 21
417.472565
  0
LINE
  8
0
  6
CONTINUOUS
 10
59.591251
 20
327.472565
 11
178.591248
 21
327.472565
  0
LINE
  8
0
  6
CONTINUOUS
 10
59.591251
 20
401.472565
 11
169.591248
 21
401.472565
  0
LINE
  8
0
  6
CONTINUOUS
 10
59.591251
 20
343.472565
 11
169.591248
 21
343.472565
  0
ARC
  8
0
  6
CONTINUOUS
 10
171.591248
 20
415.472565
 40
2.000000
 50
90.000000
 51
180.000000
  0
ARC
  8
0
  6
CONTINUOUS
 10
171.591248
 20
329.472565
 40
2.000000
 50
180.000000
 51
270.000000
  0
LINE
  8
0
  6
CONTINUOUS
 10
178.591248
 20
417.472565
 11
178.591248
 21
327.472565
  0
ARC
  8
0
  6
CONTINUOUS
 10
226.591248
 20
434.472565
 40
2.000000
 50
90.000000
 51
180.000000
  0
ARC
  8
0
  6
CONTINUOUS
 10
226.591248
 20
310.472565
 40
2.000000
 50
180.000000
 51
270.000000
  0
ARC
  8
0
  6
CONTINUOUS
 10
222.067612
 20
421.492310
 40
2.500000
 50
272.000000
 51
359.895721
  0
ARC
  8
0
  6
CONTINUOUS
 10
222.067612
 20
323.452789
 40
2.500000
 50
0.104292
 51
88.000000
  0
LINE
  8
0
  6
CONTINUOUS
 10
224.591248
 20
419.078918
 11
224.563232
 21
419.077942
  0
LINE
  8
0
  6
CONTINUOUS
 10
179.090942
 20
422.002014
 11
224.591248
 21
423.590912
  0
LINE
  8
0
  6
CONTINUOUS
 10
178.591248
 20
421.484558
 11
179.090942
 21
422.002014
  0
LINE
  8
0
  6
CONTINUOUS
 10
179.090942
 20
322.943115
 11
224.591248
 21
321.354187
  0
LINE
  8
0
  6
CONTINUOUS
 10
178.591248
 20
323.460541
 11
179.090942
 21
322.943115
  0
LINE
  8
0
  6
CONTINUOUS
 10
50.091251
 20
417.472565
 11
59.591251
 21
417.472565
  0
LINE
  8
0
  6
CONTINUOUS
 10
59.591251
 20
401.472565
 11
50.091251
 21
401.472565
  0
LINE
  8
0
  6
CONTINUOUS
 10
50.091251
 20
327.472565
 11
59.591251
 21
327.472565
  0
LINE
  8
0
  6
CONTINUOUS
 10
59.591251
 20
327.472565
 11
59.591251
 21
365.606537
  0
LINE
  8
0
  6
CONTINUOUS
 10
59.591251
 20
343.472565
 11
50.091251
 21
343.472565
  0
LINE
  8
0
  6
CONTINUOUS
 10
53.091251
 20
366.472565
 11
53.091251
 21
378.472565
  0
LINE
  8
0
  6
CONTINUOUS
 10
60.091251
 20
366.472565
 11
60.091251
 21
378.472565
  0
LINE
  8
0
  6
CONTINUOUS
 10
54.091251
 20
379.472565
 11
59.091251
 21
379.472565
  0
LINE
  8
0
  6
CONTINUOUS
 10
59.091251
 20
365.472565
 11
54.091251
 21
365.472565
  0
ARC
  8
0
  6
CONTINUOUS
 10
59.091251
 20
378.472565
 40
1.000000
 50
0.000000
 51
90.000000
  0
ARC
  8
0
  6
CONTINUOUS
 10
54.091251
 20
378.472565
 40
1.000000
 50
90.000000
 51
180.000000
  0
ARC
  8
0
  6
CONTINUOUS
 10
54.091251
 20
366.472565
 40
1.000000
 50
180.000000
 51
270.000000
  0
ARC
  8
0
  6
CONTINUOUS
 10
59.091251
 20
366.472565
 40
1.000000
 50
-90.000000
 51
0.000000
  0
LINE
  8
0
  6
CONTINUOUS
 10
57.591251
 20
368.972565
 11
57.591251
 21
375.972565
  0
LINE
  8
0
  6
CONTINUOUS
 10
55.591251
 20
368.972565
 11
55.591251
 21
375.972565
  0
ARC
  8
0
  6
CONTINUOUS
 10
56.591251
 20
375.972565
 40
1.000000
 50
90.000000
 51
180.000000
  0
ARC
  8
0
  6
CONTINUOUS
 10
56.591251
 20
375.972565
 40
1.000000
 50
0.000000
 51
90.000000
  0
ARC
  8
0
  6
CONTINUOUS
 10
56.591251
 20
368.972565
 40
1.000000
 50
180.000000
 51
270.000000
  0
ARC
  8
0
  6
CONTINUOUS
 10
56.591251
 20
368.972565
 40
1.000000
 50
-90.000000
 51
0.000000
  0
LINE
  8
0
  6
CONTINUOUS
 10
59.591251
 20
379.338562
 11
59.591251
 21
417.472565
  0
LINE
  8
0
  6
CONTINUOUS
 10
50.091251
 20
419.472565
 11
50.091251
 21
325.472565
  0
LINE
  8
0
  6
CONTINUOUS
 10
50.091251
 20
401.472565
 11
6.116220
 21
401.472565
  0
LINE
  8
0
  6
CONTINUOUS
 10
50.091251
 20
343.472565
 11
6.116220
 21
343.472565
  0
LINE
  8
0
  6
CONTINUOUS
 10
7.591230
 20
419.472565
 11
50.091251
 21
419.472565
  0
LINE
  8
0
  6
CONTINUOUS
 10
7.591230
 20
325.472565
 11
50.091251
 21
325.472565
  0
ARC
  8
0
  6
CONTINUOUS
 10
7.591260
 20
414.472565
 40
5.000000
 50
90.000000
 51
180.000000
  0
ARC
  8
0
  6
CONTINUOUS
 10
7.591230
 20
330.472565
 40
5.000000
 50
180.000000
 51
270.000000
  0
LINE
  8
0
  6
CONTINUOUS
 10
2.591260
 20
414.472565
 11
2.591230
 21
330.472534
  0
LINE
  8
0
  6
CONTINUOUS
 10
50.091251
 20
122.747581
 11
59.591251
 21
122.747581
  0
LINE
  8
0
  6
CONTINUOUS
 10
59.591251
 20
112.156876
 11
50.091251
 21
112.156876
  0
LINE
  8
0
  6
CONTINUOUS
 10
50.091251
 20
32.747578
 11
59.591251
 21
32.747578
  0
LINE
  8
0
  6
CONTINUOUS
 10
59.591251
 20
43.338287
 11
50.091251
 21
43.338287
  0
LINE
  8
0
  6
CONTINUOUS
 10
50.091251
 20
124.747581
 11
50.091251
 21
30.747578
  0
LINE
  8
0
  6
CONTINUOUS
 10
50.091251
 20
106.747581
 11
6.116220
 21
106.747581
  0
LINE
  8
0
  6
CONTINUOUS
 10
50.091251
 20
48.747578
 11
6.116220
 21
48.747578
  0
LINE
  8
0
  6
CONTINUOUS
 10
60.091251
 20
124.247581
 11
60.091251
 21
122.747581
  0
LINE
  8
0
  6
CONTINUOUS
 10
53.091251
 20
124.247581
 11
53.091251
 21
122.747581
  0
LINE
  8
0
  6
CONTINUOUS
 10
53.091251
 20
124.247581
 11
60.091251
 21
124.247581
  0
LINE
  8
0
  6
CONTINUOUS
 10
57.491241
 20
137.247574
 11
57.491241
 21
124.247581
  0
LINE
  8
0
  6
CONTINUOUS
 10
55.691238
 20
137.872574
 11
55.691238
 21
124.247581
  0
LINE
  8
0
  6
CONTINUOUS
 10
53.891239
 20
135.810074
 11
53.891239
 21
124.247581
  0
LINE
  8
0
  6
CONTINUOUS
 10
59.291248
 20
136.622574
 11
59.291248
 21
124.247581
  0
LINE
  8
0
  6
CONTINUOUS
 10
55.691238
 20
137.872574
 11
57.491241
 21
137.247574
  0
LINE
  8
0
  6
CONTINUOUS
 10
53.891239
 20
135.810074
 11
55.691238
 21
136.435074
  0
LINE
  8
0
  6
CONTINUOUS
 10
59.291248
 20
136.622574
 11
57.492249
 21
136.174881
  0
LINE
  8
0
  6
CONTINUOUS
 10
7.591230
 20
124.747581
 11
50.091251
 21
124.747581
  0
LINE
  8
0
  6
CONTINUOUS
 10
7.591230
 20
30.747578
 11
50.091251
 21
30.747578
  0
ARC
  8
0
  6
CONTINUOUS
 10
7.591260
 20
119.747581
 40
5.000000
 50
90.000000
 51
180.000000
  0
ARC
  8
0
  6
CONTINUOUS
 10
7.591230
 20
35.747578
 40
5.000000
 50
180.000000
 51
270.000000
  0
LINE
  8
0
  6
CONTINUOUS
 10
2.591260
 20
119.747581
 11
2.591230
 21
35.747566
  0
LINE
  8
0
  6
CONTINUOUS
 10
59.591251
 20
32.747578
 11
59.591251
 21
122.747581
  0
ARC
  8
0
  6
CONTINUOUS
 10
50.091251
 20
106.276978
 40
4.500000
 50
0.000000
 51
90.000000
  0
ARC
  8
0
  6
CONTINUOUS
 10
50.091251
 20
106.276978
 40
3.000000
 50
0.000000
 51
90.000000
  0
ARC
  8
0
  6
CONTINUOUS
 10
50.091251
 20
106.276978
 40
1.500000
 50
0.000000
 51
90.000000
  0
LINE
  8
0
  6
CONTINUOUS
 10
51.591251
 20
106.276978
 11
51.591251
 21
101.261375
  0
LINE
  8
0
  6
CONTINUOUS
 10
53.091251
 20
106.276978
 11
53.091251
 21
101.776978
  0
LINE
  8
0
  6
CONTINUOUS
 10
54.591251
 20
106.276978
 11
54.591251
 21
101.776978
  0
LINE
  8
0
  6
CONTINUOUS
 10
51.591251
 20
101.276978
 11
53.091251
 21
101.776978
  0
LINE
  8
0
  6
CONTINUOUS
 10
53.091251
 20
102.276978
 11
54.591251
 21
101.776978
  0
ARC
  8
0
  6
CONTINUOUS
 10
50.091251
 20
333.202698
 40
4.500000
 50
0.000000
 51
90.000000
  0
ARC
  8
0
  6
CONTINUOUS
 10
50.091251
 20
333.202698
 40
3.000000
 50
0.000000
 51
90.000000
  0
ARC
  8
0
  6
CONTINUOUS
 10
50.091251
 20
333.202698
 40
1.500000
 50
0.000000
 51
90.000000
  0
LINE
  8
0
  6
CONTINUOUS
 10
51.591251
 20
333.202698
 11
51.591251
 21
328.187103
  0
LINE
  8
0
  6
CONTINUOUS
 10
53.091251
 20
333.202698
 11
53.091251
 21
328.702698
  0
LINE
  8
0
  6
CONTINUOUS
 10
54.591251
 20
333.202698
 11
54.591251
 21
328.702698
  0
LINE
  8
0
  6
CONTINUOUS
 10
51.591251
 20
328.202698
 11
53.091251
 21
328.702698
  0
LINE
  8
0
  6
CONTINUOUS
 10
53.091251
 20
329.202698
 11
54.591251
 21
328.702698
  0
LINE
  8
0
  6
CONTINUOUS
 10
169.591248
 20
343.472565
 11
169.591248
 21
329.472534
  0
TEXT
  8
0
 10
-11.000000
 20
-10.000000
 40
4.000000
 41
1.000000
  1
HLMN-28R-300~450-T90W
 50
0.000000
  0
ENDSEC
  0
EOF
