  0
SECTION
  2
HEADER
  9
$CLAYER
  8
1
  9
$LTSCALE
 40
3.0
  0
ENDSEC
  0
SECTION
  2
TABLES
  0
TABLE
  2
LTYPE
 70
     4
  0
LTYPE
  2
CONTINUOUS
  3
solid line
 70
    64
 72
    65
 73
     0
 40
0.0
  0
LTYPE
  2
DASHED
  3
__ __ __ __ __ __ __ __ __ __ __ __ __ __ __
 70
    64
 72
    65
 73
     2
 40
0.75
 49
0.5
 49
-0.25
  0
LTYPE
  2
CENTER
  3
____ _ ____ _ ____ _ ____ _ ____ _ ____ _ ____
 70
    64
 72
    65
 73
     4
 40
2.0
 49
1.25
 49
-0.25
 49
0.25
 49
-0.25
  0
LTYPE
  2
PHANTOM
  3
_____ _ _ _____ _ _ _____ _ _ _____ _ _ ____
 70
    64
 72
    65
 73
     6
 40
2.5
 49
1.25
 49
-0.25
 49
0.25
 49
-0.25
 49
0.25
 49
-0.25
  0
ENDTAB
  0
TABLE
  2
LAYER
 70
     1
  0
LAYER
  2
0
 70
    64
 62
     7
  6
CONTINUOUS
  0
ENDTAB
  0
TABLE
  2
STYLE
 70
     1
  0
STYLE
  2
STANDARD
 70
     0
 40
0.000000
 41
1.000000
 50
0.000000
 71
     0
 42
3.000000
  3
txt
  4
BIGFONT
  0
ENDTAB
  0
ENDSEC
  0
SECTION
  2
BLOCKS
  0
ENDSEC
  0
SECTION
  2
ENTITIES
  0
LINE
  8
0
  6
CONTINUOUS
 10
164.541245
 20
123.727577
 11
164.541245
 21
37.727558
  0
LINE
  8
0
  6
CONTINUOUS
 10
54.541248
 20
125.727577
 11
173.541245
 21
125.727577
  0
LINE
  8
0
  6
CONTINUOUS
 10
54.541248
 20
35.727577
 11
173.541245
 21
35.727577
  0
LINE
  8
0
  6
CONTINUOUS
 10
54.541248
 20
115.136879
 11
163.503571
 21
115.136879
  0
LINE
  8
0
  6
CONTINUOUS
 10
54.541248
 20
46.318279
 11
163.503571
 21
46.318279
  0
ARC
  8
0
  6
CONTINUOUS
 10
166.541245
 20
123.727600
 40
2.000000
 50
90.000000
 51
180.000000
  0
ARC
  8
0
  6
CONTINUOUS
 10
166.541245
 20
37.727577
 40
2.000000
 50
180.000000
 51
270.000000
  0
LINE
  8
0
  6
CONTINUOUS
 10
373.041260
 20
155.099197
 11
373.041260
 21
9.727578
  0
LINE
  8
0
  6
CONTINUOUS
 10
248.041245
 20
9.727578
 11
373.041260
 21
9.727578
  0
LINE
  8
0
  6
CENTER
 10
257.086060
 20
129.727585
 11
368.252502
 21
129.727585
  0
LINE
  8
0
  6
CENTER
 10
310.541260
 20
201.227539
 11
310.541260
 21
1.227578
  0
LINE
  8
0
  6
CONTINUOUS
 10
288.095642
 20
184.227539
 11
332.986847
 21
184.227539
  0
LINE
  8
0
  6
CONTINUOUS
 10
335.821655
 20
183.346237
 11
370.876038
 21
159.217819
  0
LINE
  8
0
  6
CONTINUOUS
 10
251.041245
 20
24.727577
 11
370.041260
 21
24.727577
  0
LINE
  8
0
  6
CONTINUOUS
 10
363.041260
 20
23.190079
 11
363.041260
 21
9.727578
  0
LINE
  8
0
  6
CONTINUOUS
 10
259.041260
 20
23.190079
 11
259.041260
 21
9.727578
  0
LINE
  8
0
  6
CENTER
 10
350.541260
 20
31.977577
 11
350.541260
 21
2.977578
  0
LINE
  8
0
  6
CENTER
 10
270.541260
 20
31.977577
 11
270.541260
 21
4.227578
  0
LINE
  8
0
  6
DASHED
 10
356.041260
 20
24.727577
 11
356.041260
 21
9.727578
  0
LINE
  8
0
  6
DASHED
 10
345.041260
 20
24.727577
 11
345.041260
 21
9.727578
  0
LINE
  8
0
  6
DASHED
 10
276.041260
 20
24.727577
 11
276.041260
 21
9.727578
  0
LINE
  8
0
  6
DASHED
 10
265.041260
 20
24.727577
 11
265.041260
 21
9.727578
  0
ARC
  8
0
  6
CONTINUOUS
 10
290.541260
 20
79.727577
 40
26.500000
 50
170.529099
 51
270.000000
  0
ARC
  8
0
  6
CONTINUOUS
 10
330.541260
 20
79.727577
 40
26.500000
 50
-90.000000
 51
9.470950
  0
LINE
  8
0
  6
CONTINUOUS
 10
264.402435
 20
84.088051
 11
273.059265
 21
135.980423
  0
LINE
  8
0
  6
CONTINUOUS
 10
348.023254
 20
135.980423
 11
356.680054
 21
84.088081
  0
LINE
  8
0
  6
CONTINUOUS
 10
290.541260
 20
53.227577
 11
330.541260
 21
53.227577
  0
ARC
  8
0
  6
CONTINUOUS
 10
368.041260
 20
155.099136
 40
5.000000
 50
0.000000
 51
55.460110
  0
ARC
  8
0
  6
CONTINUOUS
 10
332.986847
 20
179.227539
 40
5.000000
 50
55.460079
 51
90.000000
  0
ARC
  8
0
  6
CONTINUOUS
 10
288.129639
 20
179.227539
 40
5.000000
 50
90.000000
 51
91.038872
  0
LINE
  8
0
  6
CONTINUOUS
 10
290.541260
 20
29.358353
 11
290.541260
 21
24.727577
  0
LINE
  8
0
  6
CONTINUOUS
 10
330.541260
 20
29.358353
 11
330.541260
 21
24.727577
  0
LINE
  8
0
  6
CONTINUOUS
 10
248.041245
 20
9.727578
 11
248.041245
 21
155.099152
  0
ARC
  8
0
  6
CONTINUOUS
 10
290.541260
 20
79.727577
 40
24.000000
 50
169.576294
 51
270.000000
  0
ARC
  8
0
  6
CONTINUOUS
 10
330.541260
 20
79.727577
 40
24.000000
 50
-90.000000
 51
9.471373
  0
LINE
  8
0
  6
CONTINUOUS
 10
290.541260
 20
55.727577
 11
330.541260
 21
55.727577
  0
CIRCLE
  8
0
  6
CONTINUOUS
 10
310.541260
 20
129.727585
 40
33.500000
  0
ARC
  8
0
  6
CONTINUOUS
 10
310.541260
 20
129.727585
 40
38.000000
 50
9.470961
 51
170.529099
  0
ARC
  8
0
  6
CONTINUOUS
 10
310.541260
 20
129.727585
 40
38.000000
 50
9.470963
 51
170.529007
  0
ARC
  8
0
  6
CONTINUOUS
 10
310.541260
 20
129.727585
 40
35.500000
 50
-189.470795
 51
9.471022
  0
LINE
  8
0
  6
CONTINUOUS
 10
266.868439
 20
83.676674
 11
275.525055
 21
135.568924
  0
LINE
  8
0
  6
CONTINUOUS
 10
345.557251
 20
135.569031
 11
354.214050
 21
83.676888
  0
LINE
  8
0
  6
CENTER
 10
146.845627
 20
93.727577
 11
271.791260
 21
93.727577
  0
LINE
  8
0
  6
CONTINUOUS
 10
228.041245
 20
93.727577
 11
228.041245
 21
29.727480
  0
LINE
  8
0
  6
CONTINUOUS
 10
228.041245
 20
93.727577
 11
228.041245
 21
157.727676
  0
LINE
  8
0
  6
CONTINUOUS
 10
250.206253
 20
159.217804
 11
285.260864
 21
183.346191
  0
ARC
  8
0
  6
CONTINUOUS
 10
288.095642
 20
179.227539
 40
5.000000
 50
90.000000
 51
124.540298
  0
ARC
  8
0
  6
CONTINUOUS
 10
253.041245
 20
155.099182
 40
5.000000
 50
124.540398
 51
180.000000
  0
ARC
  8
0
  6
CONTINUOUS
 10
251.041245
 20
21.727598
 40
3.000000
 50
90.000000
 51
180.000000
  0
ARC
  8
0
  6
CONTINUOUS
 10
370.041260
 20
21.727577
 40
3.000000
 50
0.000000
 51
90.000000
  0
LINE
  8
0
  6
CONTINUOUS
 10
300.244843
 20
65.727577
 11
296.084442
 21
65.727577
  0
LINE
  8
0
  6
CONTINUOUS
 10
302.541260
 20
72.696320
 11
302.541260
 21
65.727577
  0
LINE
  8
0
  6
CONTINUOUS
 10
306.541260
 20
75.227577
 11
306.541260
 21
77.727577
  0
LINE
  8
0
  6
CONTINUOUS
 10
314.541260
 20
75.227577
 11
314.541260
 21
77.727577
  0
LINE
  8
0
  6
CONTINUOUS
 10
309.760040
 20
76.258827
 11
309.760040
 21
67.040077
  0
LINE
  8
0
  6
CONTINUOUS
 10
311.260040
 20
76.258827
 11
311.260040
 21
67.040077
  0
LINE
  8
0
  6
CONTINUOUS
 10
319.135040
 20
76.258827
 11
319.135040
 21
66.977577
  0
LINE
  8
0
  6
CONTINUOUS
 10
320.510040
 20
71.336960
 11
320.510040
 21
66.977577
  0
LINE
  8
0
  6
CONTINUOUS
 10
300.643250
 20
76.133827
 11
296.788239
 21
76.133827
  0
LINE
  8
0
  6
CONTINUOUS
 10
296.788239
 20
76.133827
 11
295.885040
 21
75.013832
  0
LINE
  8
0
  6
CONTINUOUS
 10
295.993652
 20
77.727577
 11
294.541260
 21
75.867821
  0
LINE
  8
0
  6
CONTINUOUS
 10
295.885040
 20
68.100494
 11
296.802643
 21
67.133820
  0
LINE
  8
0
  6
CONTINUOUS
 10
294.541260
 20
67.284737
 11
296.084442
 21
65.727577
  0
LINE
  8
0
  6
CONTINUOUS
 10
294.541260
 20
75.867821
 11
294.541260
 21
67.284737
  0
LINE
  8
0
  6
CONTINUOUS
 10
295.885040
 20
75.013832
 11
295.885040
 21
68.100494
  0
LINE
  8
0
  6
CONTINUOUS
 10
301.385040
 20
75.416725
 11
300.628052
 21
76.133827
  0
LINE
  8
0
  6
CONTINUOUS
 10
301.373047
 20
77.727577
 11
302.541260
 21
76.431091
  0
LINE
  8
0
  6
CONTINUOUS
 10
301.385040
 20
75.227577
 11
302.541260
 21
75.227577
  0
LINE
  8
0
  6
CONTINUOUS
 10
295.993652
 20
77.727577
 11
301.373047
 21
77.727577
  0
LINE
  8
0
  6
CONTINUOUS
 10
299.291260
 20
72.696320
 11
302.541260
 21
72.696320
  0
LINE
  8
0
  6
CONTINUOUS
 10
301.385040
 20
71.383820
 11
299.291260
 21
71.383820
  0
LINE
  8
0
  6
CONTINUOUS
 10
298.885040
 20
67.133820
 11
296.802643
 21
67.133820
  0
LINE
  8
0
  6
CONTINUOUS
 10
301.385040
 20
70.133820
 11
301.385040
 21
71.133820
  0
ARC
  8
0
  6
CONTINUOUS
 10
298.885040
 20
69.633820
 40
2.500000
 50
-89.999786
 51
0.000109
  0
LINE
  8
0
  6
CONTINUOUS
 10
301.385040
 20
66.684135
 11
301.385040
 21
65.727577
  0
LINE
  8
0
  6
CONTINUOUS
 10
302.541260
 20
76.431091
 11
302.541260
 21
75.227577
  0
LINE
  8
0
  6
CONTINUOUS
 10
301.385040
 20
71.383820
 11
301.385040
 21
69.633820
  0
LINE
  8
0
  6
CONTINUOUS
 10
299.291260
 20
72.696320
 11
299.291260
 21
71.383820
  0
LINE
  8
0
  6
CONTINUOUS
 10
301.385040
 20
65.727577
 11
302.541260
 21
65.727577
  0
LINE
  8
0
  6
CONTINUOUS
 10
301.385040
 20
66.684135
 11
300.244843
 21
65.727577
  0
LINE
  8
0
  6
CONTINUOUS
 10
311.260040
 20
67.040077
 11
311.760040
 21
67.040077
  0
LINE
  8
0
  6
CONTINUOUS
 10
309.166260
 20
67.040077
 11
309.166260
 21
65.727577
  0
LINE
  8
0
  6
CONTINUOUS
 10
311.760040
 20
67.040077
 11
311.760040
 21
65.727577
  0
LINE
  8
0
  6
CONTINUOUS
 10
313.706848
 20
75.227577
 11
314.541260
 21
75.227577
  0
LINE
  8
0
  6
CONTINUOUS
 10
306.541260
 20
75.227577
 11
307.429260
 21
75.227577
  0
LINE
  8
0
  6
CONTINUOUS
 10
306.541260
 20
77.727577
 11
314.541260
 21
77.727577
  0
LINE
  8
0
  6
CONTINUOUS
 10
309.166260
 20
65.727577
 11
311.760040
 21
65.727577
  0
LINE
  8
0
  6
CONTINUOUS
 10
309.166260
 20
67.040077
 11
309.760040
 21
67.040077
  0
ARC
  8
0
  6
CONTINUOUS
 10
323.338043
 20
74.524452
 40
3.203126
 50
-73.981873
 51
90.003510
  0
ARC
  8
0
  6
CONTINUOUS
 10
323.338043
 20
74.524452
 40
1.954124
 50
-82.585274
 51
62.411850
  0
LINE
  8
0
  6
CONTINUOUS
 10
318.541260
 20
77.727577
 11
323.338043
 21
77.727577
  0
LINE
  8
0
  6
CONTINUOUS
 10
323.590240
 20
72.586655
 11
320.510040
 21
72.586655
  0
LINE
  8
0
  6
CONTINUOUS
 10
318.541260
 20
77.727577
 11
318.541260
 21
76.258827
  0
LINE
  8
0
  6
CONTINUOUS
 10
320.510040
 20
76.258827
 11
320.510040
 21
72.586655
  0
LINE
  8
0
  6
CONTINUOUS
 10
324.222046
 20
71.445702
 11
326.204437
 21
66.977577
  0
LINE
  8
0
  6
CONTINUOUS
 10
323.070465
 20
71.336960
 11
324.946655
 21
66.977577
  0
LINE
  8
0
  6
CONTINUOUS
 10
318.541260
 20
66.977577
 11
319.135040
 21
66.977577
  0
LINE
  8
0
  6
CONTINUOUS
 10
320.510040
 20
66.977577
 11
321.056854
 21
66.977577
  0
LINE
  8
0
  6
CONTINUOUS
 10
321.056854
 20
65.727577
 11
318.541260
 21
65.727577
  0
LINE
  8
0
  6
CONTINUOUS
 10
324.697449
 20
66.977577
 11
324.946655
 21
66.977577
  0
LINE
  8
0
  6
CONTINUOUS
 10
326.204437
 20
66.977577
 11
326.541260
 21
66.977577
  0
LINE
  8
0
  6
CONTINUOUS
 10
324.697449
 20
65.727577
 11
326.541260
 21
65.727577
  0
LINE
  8
0
  6
CONTINUOUS
 10
326.541260
 20
66.977577
 11
326.541260
 21
65.727577
  0
LINE
  8
0
  6
CONTINUOUS
 10
324.697449
 20
66.977577
 11
324.697449
 21
65.727577
  0
LINE
  8
0
  6
CONTINUOUS
 10
321.056854
 20
66.977577
 11
321.056854
 21
65.727577
  0
LINE
  8
0
  6
CONTINUOUS
 10
318.541260
 20
66.977577
 11
318.541260
 21
65.727577
  0
LINE
  8
0
  6
CONTINUOUS
 10
307.859039
 20
76.258827
 11
307.429260
 21
75.227577
  0
LINE
  8
0
  6
CONTINUOUS
 10
313.344452
 20
76.258827
 11
313.706848
 21
75.227577
  0
LINE
  8
0
  6
CONTINUOUS
 10
311.260040
 20
76.258827
 11
313.344452
 21
76.258827
  0
LINE
  8
0
  6
CONTINUOUS
 10
309.760040
 20
76.258827
 11
307.859039
 21
76.258827
  0
LINE
  8
0
  6
CONTINUOUS
 10
320.510040
 20
71.336960
 11
323.070465
 21
71.336960
  0
LINE
  8
0
  6
CONTINUOUS
 10
318.541260
 20
76.258827
 11
319.135040
 21
76.258827
  0
LINE
  8
0
  6
CONTINUOUS
 10
320.510040
 20
76.258827
 11
324.243042
 21
76.256401
  0
LINE
  8
0
  6
CONTINUOUS
 10
301.385040
 20
75.416725
 11
301.385040
 21
75.227577
  0
LINE
  8
0
  6
CONTINUOUS
 10
610.072266
 20
40.727577
 11
610.072266
 21
44.706299
  0
LINE
  8
0
  6
CONTINUOUS
 10
520.072266
 20
40.727577
 11
520.072266
 21
44.706238
  0
LINE
  8
0
  6
CONTINUOUS
 10
525.072266
 20
35.727577
 11
528.072266
 21
35.727577
  0
LINE
  8
0
  6
CONTINUOUS
 10
605.072266
 20
35.727577
 11
602.072266
 21
35.727577
  0
ARC
  8
0
  6
CONTINUOUS
 10
525.072266
 20
40.727577
 40
5.000000
 50
180.000000
 51
270.000000
  0
ARC
  8
0
  6
CONTINUOUS
 10
605.072266
 20
40.727577
 40
5.000000
 50
-90.000000
 51
0.000000
  0
ARC
  8
0
  6
CONTINUOUS
 10
606.084656
 20
52.715618
 40
8.000000
 50
306.780975
 51
358.958740
  0
ARC
  8
0
  6
CONTINUOUS
 10
524.060059
 20
52.715359
 40
8.000000
 50
181.041107
 51
233.216995
  0
ARC
  8
0
  6
CONTINUOUS
 10
612.072266
 20
44.706318
 40
2.000000
 50
126.781197
 51
180.000000
  0
ARC
  8
0
  6
CONTINUOUS
 10
518.072266
 20
44.706238
 40
2.000000
 50
0.000000
 51
53.217121
  0
LINE
  8
0
  6
CENTER
 10
565.072266
 20
-7.601262
 11
565.072266
 21
205.646896
  0
LINE
  8
0
  6
CENTER
 10
447.801239
 20
129.727585
 11
682.109253
 21
129.727585
  0
LINE
  8
0
  6
CONTINUOUS
 10
502.072235
 20
9.727578
 11
537.572266
 21
9.727578
  0
LINE
  8
0
  6
CONTINUOUS
 10
506.072235
 20
24.727577
 11
524.072266
 21
24.727577
  0
LINE
  8
0
  6
CONTINUOUS
 10
624.072266
 20
24.727577
 11
606.072266
 21
24.727577
  0
LINE
  8
0
  6
CONTINUOUS
 10
529.572266
 20
157.727585
 11
600.322266
 21
157.727585
  0
LINE
  8
0
  6
CONTINUOUS
 10
599.124634
 20
183.633453
 11
565.072266
 21
184.227585
  0
LINE
  8
0
  6
CONTINUOUS
 10
531.019836
 20
183.633057
 11
565.072266
 21
184.227585
  0
LINE
  8
0
  6
CONTINUOUS
 10
602.072266
 20
180.633911
 11
602.072266
 21
9.727558
  0
LINE
  8
0
  6
CONTINUOUS
 10
528.072266
 20
180.633514
 11
528.072266
 21
9.727578
  0
LINE
  8
0
  6
CONTINUOUS
 10
512.072266
 20
100.015312
 11
512.072266
 21
159.439819
  0
LINE
  8
0
  6
CONTINUOUS
 10
618.072266
 20
159.439835
 11
618.072266
 21
100.015312
  0
LINE
  8
0
  6
CONTINUOUS
 10
519.072266
 20
59.528000
 11
519.072266
 21
132.227585
  0
LINE
  8
0
  6
CONTINUOUS
 10
611.072266
 20
59.528000
 11
611.072266
 21
132.227585
  0
LINE
  8
0
  6
CONTINUOUS
 10
628.072266
 20
21.423515
 11
628.072266
 21
9.727578
  0
LINE
  8
0
  6
CONTINUOUS
 10
502.072235
 20
21.423515
 11
502.072235
 21
9.727578
  0
LINE
  8
0
  6
CENTER
 10
515.072266
 20
32.727577
 11
515.072266
 21
-1.625822
  0
LINE
  8
0
  6
CENTER
 10
615.072266
 20
33.227577
 11
615.072266
 21
-1.625822
  0
LINE
  8
0
  6
DASHED
 10
509.572235
 20
24.727577
 11
509.572235
 21
9.727578
  0
LINE
  8
0
  6
DASHED
 10
520.572266
 20
24.727577
 11
520.572266
 21
9.727578
  0
LINE
  8
0
  6
DASHED
 10
609.572266
 20
24.727577
 11
609.572266
 21
9.727578
  0
LINE
  8
0
  6
DASHED
 10
620.572266
 20
24.727577
 11
620.572266
 21
9.727578
  0
ARC
  8
0
  6
CONTINUOUS
 10
531.072266
 20
180.633545
 40
3.000000
 50
91.000526
 51
180.000000
  0
ARC
  8
0
  6
CONTINUOUS
 10
599.072266
 20
180.633896
 40
3.000000
 50
0.000000
 51
89.000580
  0
LINE
  8
0
  6
CONTINUOUS
 10
592.572266
 20
9.727578
 11
628.072266
 21
9.727578
  0
LINE
  8
0
  6
CONTINUOUS
 10
538.572266
 20
10.727578
 11
591.572266
 21
10.727578
  0
LINE
  8
0
  6
CONTINUOUS
 10
515.718445
 20
164.253098
 11
524.425842
 21
166.702057
  0
LINE
  8
0
  6
CONTINUOUS
 10
515.718445
 20
95.202057
 11
516.884460
 21
94.874130
  0
LINE
  8
0
  6
CONTINUOUS
 10
522.734070
 20
54.710419
 11
524.410461
 21
54.244740
  0
LINE
  8
0
  6
CONTINUOUS
 10
607.410461
 20
54.710419
 11
605.734070
 21
54.244740
  0
LINE
  8
0
  6
CONTINUOUS
 10
614.425842
 20
95.202065
 11
613.260071
 21
94.874130
  0
LINE
  8
0
  6
CONTINUOUS
 10
614.425842
 20
164.253098
 11
605.718628
 21
166.702057
  0
ARC
  8
0
  6
CONTINUOUS
 10
517.072266
 20
159.439865
 40
5.000000
 50
105.709000
 51
180.000000
  0
ARC
  8
0
  6
CONTINUOUS
 10
517.072266
 20
100.015350
 40
5.000000
 50
180.000000
 51
254.291702
  0
ARC
  8
0
  6
CONTINUOUS
 10
524.072266
 20
59.528038
 40
5.000000
 50
180.000000
 51
254.476196
  0
ARC
  8
0
  6
CONTINUOUS
 10
606.072266
 20
59.528000
 40
5.000000
 50
-74.475708
 51
0.000000
  0
ARC
  8
0
  6
CONTINUOUS
 10
613.072266
 20
100.015305
 40
5.000000
 50
-74.291199
 51
0.000000
  0
ARC
  8
0
  6
CONTINUOUS
 10
613.072266
 20
159.439819
 40
5.000000
 50
0.000000
 51
74.291527
  0
ARC
  8
0
  6
CONTINUOUS
 10
614.072266
 20
91.986198
 40
3.000000
 50
105.709000
 51
180.000000
  0
ARC
  8
0
  6
CONTINUOUS
 10
516.072266
 20
91.986168
 40
3.000000
 50
0.000000
 51
74.291397
  0
ARC
  8
0
  6
CONTINUOUS
 10
523.072266
 20
171.515320
 40
5.000000
 50
-74.291199
 51
0.000000
  0
ARC
  8
0
  6
CONTINUOUS
 10
607.072266
 20
171.515335
 40
5.000000
 50
180.000000
 51
254.291702
  0
ARC
  8
0
  6
CONTINUOUS
 10
607.072266
 20
49.427177
 40
5.000000
 50
105.524399
 51
180.000000
  0
ARC
  8
0
  6
CONTINUOUS
 10
523.072266
 20
49.427139
 40
5.000000
 50
0.000000
 51
74.475952
  0
LINE
  8
0
  6
CONTINUOUS
 10
592.572266
 20
9.727578
 11
591.572266
 21
10.727578
  0
LINE
  8
0
  6
CONTINUOUS
 10
537.572266
 20
9.727578
 11
538.572266
 21
10.727578
  0
LINE
  8
0
  6
CENTER
 10
488.173492
 20
93.727577
 11
644.593506
 21
93.727577
  0
LINE
  8
0
  6
CONTINUOUS
 10
320.541260
 20
125.727615
 11
320.541260
 21
133.727615
  0
LINE
  8
0
  6
CONTINUOUS
 10
327.541260
 20
125.727638
 11
327.541260
 21
133.727631
  0
LINE
  8
0
  6
CONTINUOUS
 10
327.541260
 20
125.727638
 11
320.541260
 21
125.727615
  0
LINE
  8
0
  6
CONTINUOUS
 10
327.541260
 20
133.727631
 11
320.541260
 21
133.727615
  0
ARC
  8
0
  6
CONTINUOUS
 10
310.541260
 20
129.727585
 40
14.000000
 50
16.601500
 51
343.398499
  0
LINE
  8
0
  6
CONTINUOUS
 10
465.072235
 20
115.727577
 11
465.072235
 21
143.727585
  0
LINE
  8
0
  6
CONTINUOUS
 10
510.072235
 20
143.727585
 11
465.072235
 21
143.727585
  0
LINE
  8
0
  6
CONTINUOUS
 10
510.072235
 20
115.727577
 11
465.072235
 21
115.727577
  0
LINE
  8
0
  6
CONTINUOUS
 10
510.072235
 20
144.727585
 11
510.072235
 21
114.727577
  0
LINE
  8
0
  6
CONTINUOUS
 10
512.072266
 20
114.727577
 11
510.072235
 21
114.727577
  0
ARC
  8
0
  6
CONTINUOUS
 10
501.072235
 20
129.727585
 40
4.000000
 50
-90.000000
 51
90.000000
  0
LINE
  8
0
  6
CONTINUOUS
 10
501.072235
 20
133.727585
 11
465.072235
 21
133.727585
  0
LINE
  8
0
  6
CONTINUOUS
 10
501.072235
 20
125.727577
 11
465.072235
 21
125.727577
  0
LINE
  8
0
  6
CONTINUOUS
 10
512.072266
 20
144.727585
 11
510.072235
 21
144.727585
  0
LINE
  8
0
  6
CONTINUOUS
 10
665.072266
 20
115.727577
 11
665.072266
 21
143.727585
  0
LINE
  8
0
  6
CONTINUOUS
 10
620.072266
 20
143.727585
 11
665.072266
 21
143.727585
  0
LINE
  8
0
  6
CONTINUOUS
 10
620.072266
 20
115.727577
 11
665.072266
 21
115.727577
  0
LINE
  8
0
  6
CONTINUOUS
 10
620.072266
 20
144.727585
 11
620.072266
 21
114.727577
  0
LINE
  8
0
  6
CONTINUOUS
 10
618.072266
 20
114.727577
 11
620.072266
 21
114.727577
  0
ARC
  8
0
  6
CONTINUOUS
 10
629.072266
 20
129.727585
 40
4.000000
 50
90.000000
 51
270.000000
  0
LINE
  8
0
  6
CONTINUOUS
 10
629.072266
 20
133.727585
 11
665.072266
 21
133.727585
  0
LINE
  8
0
  6
CONTINUOUS
 10
629.072266
 20
125.727577
 11
665.072266
 21
125.727577
  0
LINE
  8
0
  6
CONTINUOUS
 10
618.072266
 20
144.727585
 11
620.072266
 21
144.727585
  0
LINE
  8
0
  6
CONTINUOUS
 10
221.541245
 20
157.727676
 11
228.041245
 21
157.727676
  0
LINE
  8
0
  6
CONTINUOUS
 10
221.541245
 20
29.727480
 11
228.041245
 21
29.727480
  0
LINE
  8
0
  6
CONTINUOUS
 10
173.541245
 20
125.727577
 11
219.541245
 21
127.333931
  0
LINE
  8
0
  6
CONTINUOUS
 10
228.041245
 20
33.824394
 11
173.541245
 21
35.727577
  0
ARC
  8
0
  6
CONTINUOUS
 10
221.541275
 20
155.727707
 40
2.000000
 50
90.000000
 51
180.000000
  0
ARC
  8
0
  6
CONTINUOUS
 10
221.541245
 20
31.727480
 40
2.000000
 50
180.260773
 51
270.000000
  0
LINE
  8
0
  6
CENTER
 10
-16.112499
 20
80.727577
 11
271.791260
 21
80.727577
  0
LINE
  8
0
  6
CONTINUOUS
 10
173.541245
 20
125.727577
 11
173.541245
 21
35.727577
  0
LINE
  8
0
  6
CONTINUOUS
 10
218.809021
 20
133.495346
 11
213.094498
 21
127.780830
  0
LINE
  8
0
  6
CONTINUOUS
 10
250.304626
 20
412.452545
 11
369.447327
 21
412.452545
  0
ARC
  8
0
  6
CONTINUOUS
 10
369.447327
 20
409.452545
 40
3.000000
 50
1.000000
 51
90.000000
  0
LINE
  8
0
  6
CONTINUOUS
 10
355.535522
 20
417.806274
 11
356.425934
 21
414.640320
  0
ARC
  8
0
  6
CONTINUOUS
 10
359.313904
 20
415.452545
 40
3.000000
 50
195.708649
 51
270.000000
  0
ARC
  8
0
  6
CONTINUOUS
 10
242.118851
 20
429.679108
 40
3.000000
 50
1.500200
 51
77.801201
  0
LINE
  8
0
  6
CONTINUOUS
 10
245.117844
 20
429.757660
 11
245.473846
 21
416.162903
  0
ARC
  8
0
  6
CONTINUOUS
 10
243.386642
 20
435.543640
 40
3.000000
 50
-164.999893
 51
-102.198799
  0
LINE
  8
0
  6
CENTER
 10
-22.780001
 20
375.452545
 11
388.445129
 21
375.452545
  0
LINE
  8
0
  6
CONTINUOUS
 10
261.556122
 20
312.452545
 11
296.541260
 21
312.452545
  0
LINE
  8
0
  6
CONTINUOUS
 10
373.041260
 20
375.452545
 11
372.395416
 21
412.452545
  0
LINE
  8
0
  6
CONTINUOUS
 10
364.231140
 20
435.145203
 11
372.395416
 21
412.452545
  0
ARC
  8
0
  6
CONTINUOUS
 10
359.526367
 20
433.452545
 40
5.000000
 50
19.787489
 51
90.000000
  0
LINE
  8
0
  6
CONTINUOUS
 10
373.041260
 20
375.452545
 11
372.395416
 21
338.452545
  0
LINE
  8
0
  6
CONTINUOUS
 10
364.231140
 20
315.759888
 11
372.395416
 21
338.452545
  0
ARC
  8
0
  6
CONTINUOUS
 10
359.526367
 20
317.452545
 40
5.000000
 50
-90.000000
 51
-19.787489
  0
LINE
  8
0
  6
CONTINUOUS
 10
250.304626
 20
412.452545
 11
369.447327
 21
412.452545
  0
LINE
  8
0
  6
CENTER
 10
310.541260
 20
256.214996
 11
310.541260
 21
486.558746
  0
ARC
  8
0
  6
CONTINUOUS
 10
369.447327
 20
409.452545
 40
3.000000
 50
1.000000
 51
90.000000
  0
ARC
  8
0
  6
CONTINUOUS
 10
369.447327
 20
341.452545
 40
3.000000
 50
-90.000000
 51
-1.000000
  0
LINE
  8
0
  6
CONTINUOUS
 10
250.377853
 20
338.452545
 11
369.447327
 21
338.452545
  0
LINE
  8
0
  6
CONTINUOUS
 10
340.253510
 20
428.452545
 11
280.828979
 21
428.452545
  0
LINE
  8
0
  6
CONTINUOUS
 10
345.066772
 20
424.806274
 11
346.010010
 21
421.452545
  0
ARC
  8
0
  6
CONTINUOUS
 10
340.253510
 20
423.452545
 40
5.000000
 50
15.708638
 51
90.000000
  0
LINE
  8
0
  6
CONTINUOUS
 10
346.010010
 20
421.452545
 11
350.722260
 21
421.452545
  0
ARC
  8
0
  6
CONTINUOUS
 10
350.722260
 20
416.452545
 40
5.000000
 50
15.708638
 51
90.000000
  0
LINE
  8
0
  6
CONTINUOUS
 10
276.015747
 20
424.806274
 11
275.072510
 21
421.452545
  0
ARC
  8
0
  6
CONTINUOUS
 10
280.828979
 20
423.452545
 40
5.000000
 50
90.000000
 51
164.291367
  0
LINE
  8
0
  6
CONTINUOUS
 10
275.072510
 20
421.452545
 11
270.360229
 21
421.452545
  0
LINE
  8
0
  6
CONTINUOUS
 10
265.546997
 20
417.806274
 11
264.656555
 21
414.640320
  0
ARC
  8
0
  6
CONTINUOUS
 10
270.360229
 20
416.452545
 40
5.000000
 50
90.000000
 51
164.291367
  0
ARC
  8
0
  6
CONTINUOUS
 10
261.768616
 20
415.452545
 40
3.000000
 50
-90.000000
 51
-15.708638
  0
LINE
  8
0
  6
CONTINUOUS
 10
340.253510
 20
322.452545
 11
280.828979
 21
322.452545
  0
LINE
  8
0
  6
CONTINUOUS
 10
345.066772
 20
326.098816
 11
346.010010
 21
329.452545
  0
ARC
  8
0
  6
CONTINUOUS
 10
340.253510
 20
327.452545
 40
5.000000
 50
-90.000000
 51
-15.708638
  0
LINE
  8
0
  6
CONTINUOUS
 10
346.010010
 20
329.452545
 11
350.722260
 21
329.452545
  0
LINE
  8
0
  6
CONTINUOUS
 10
355.535522
 20
333.098816
 11
356.425934
 21
336.264801
  0
ARC
  8
0
  6
CONTINUOUS
 10
350.722260
 20
334.452545
 40
5.000000
 50
-90.000000
 51
-15.708638
  0
ARC
  8
0
  6
CONTINUOUS
 10
359.313904
 20
335.452545
 40
3.000000
 50
-270.000000
 51
-195.708633
  0
LINE
  8
0
  6
CONTINUOUS
 10
276.015747
 20
326.098816
 11
275.072510
 21
329.452545
  0
ARC
  8
0
  6
CONTINUOUS
 10
280.828979
 20
327.452545
 40
5.000000
 50
-164.291367
 51
-90.000000
  0
LINE
  8
0
  6
CONTINUOUS
 10
275.072510
 20
329.452545
 11
270.360229
 21
329.452545
  0
LINE
  8
0
  6
CONTINUOUS
 10
265.546997
 20
333.098816
 11
264.656555
 21
336.264801
  0
ARC
  8
0
  6
CONTINUOUS
 10
270.360229
 20
334.452545
 40
5.000000
 50
-164.291367
 51
-90.000000
  0
ARC
  8
0
  6
CONTINUOUS
 10
261.768616
 20
335.452545
 40
3.000000
 50
15.708638
 51
90.000000
  0
LINE
  8
0
  6
CONTINUOUS
 10
256.851349
 20
435.145203
 11
248.773499
 21
412.692749
  0
ARC
  8
0
  6
CONTINUOUS
 10
261.556122
 20
433.452545
 40
5.000000
 50
90.000000
 51
160.212509
  0
LINE
  8
0
  6
CONTINUOUS
 10
256.851349
 20
315.759888
 11
248.789352
 21
338.168304
  0
ARC
  8
0
  6
CONTINUOUS
 10
261.556122
 20
317.452545
 40
5.000000
 50
199.787491
 51
270.000000
  0
LINE
  8
0
  6
CONTINUOUS
 10
261.556122
 20
438.452545
 11
296.541260
 21
438.452545
  0
LINE
  8
0
  6
CENTER
 10
350.541260
 20
436.565826
 11
350.541260
 21
417.124420
  0
LINE
  8
0
  6
CENTER
 10
340.630371
 20
425.452545
 11
359.148926
 21
425.452545
  0
ARC
  8
0
  6
CONTINUOUS
 10
350.541260
 20
425.452545
 40
5.500000
 50
-59.465683
 51
187.598495
  0
ARC
  8
0
  6
CONTINUOUS
 10
270.541260
 20
425.452545
 40
5.500000
 50
-7.598608
 51
239.465683
  0
LINE
  8
0
  6
CENTER
 10
270.541260
 20
436.565826
 11
270.541260
 21
417.124420
  0
LINE
  8
0
  6
CENTER
 10
280.452148
 20
425.452545
 11
261.933594
 21
425.452545
  0
ARC
  8
0
  6
CONTINUOUS
 10
270.541260
 20
325.452545
 40
5.500000
 50
-239.465683
 51
7.598608
  0
LINE
  8
0
  6
CENTER
 10
280.452148
 20
325.452545
 11
261.933594
 21
325.452545
  0
LINE
  8
0
  6
CENTER
 10
270.541260
 20
314.339264
 11
270.541260
 21
333.780670
  0
LINE
  8
0
  6
CENTER
 10
350.541260
 20
314.339264
 11
350.541260
 21
333.780670
  0
LINE
  8
0
  6
CENTER
 10
340.630371
 20
325.452545
 11
359.148926
 21
325.452545
  0
ARC
  8
0
  6
CONTINUOUS
 10
350.541260
 20
325.452545
 40
5.500000
 50
-187.598602
 51
59.465683
  0
LINE
  8
0
  6
CONTINUOUS
 10
334.541260
 20
341.452545
 11
334.541260
 21
409.452545
  0
LINE
  8
0
  6
CONTINUOUS
 10
286.541260
 20
341.452545
 11
286.541260
 21
409.452545
  0
LINE
  8
0
  6
CONTINUOUS
 10
245.621552
 20
334.746643
 11
240.372925
 21
315.158447
  0
LINE
  8
0
  6
CONTINUOUS
 10
245.117844
 20
320.600525
 11
245.473846
 21
334.195312
  0
ARC
  8
0
  6
CONTINUOUS
 10
242.118851
 20
320.679108
 40
3.000000
 50
282.198792
 51
358.499786
  0
ARC
  8
0
  6
CONTINUOUS
 10
243.386642
 20
314.814514
 40
3.000000
 50
102.198799
 51
165.000031
  0
ARC
  8
0
  6
CONTINUOUS
 10
242.118851
 20
429.679108
 40
3.000000
 50
1.500200
 51
77.801201
  0
LINE
  8
0
  6
CONTINUOUS
 10
245.117844
 20
429.757660
 11
245.473846
 21
416.162903
  0
ARC
  8
0
  6
CONTINUOUS
 10
243.386642
 20
435.543640
 40
3.000000
 50
-164.999893
 51
-102.198799
  0
LINE
  8
0
  6
CONTINUOUS
 10
235.470047
 20
439.452545
 11
228.041245
 21
439.452545
  0
LINE
  8
0
  6
CONTINUOUS
 10
240.226410
 20
435.746643
 11
245.548248
 21
415.885040
  0
ARC
  8
0
  6
CONTINUOUS
 10
250.451172
 20
333.452545
 40
5.000000
 50
90.000000
 51
165.000031
  0
ARC
  8
0
  6
CONTINUOUS
 10
250.304626
 20
417.452545
 40
5.000000
 50
194.999847
 51
270.000000
  0
LINE
  8
0
  6
CONTINUOUS
 10
327.541260
 20
475.452545
 11
296.541260
 21
475.452545
  0
LINE
  8
0
  6
CONTINUOUS
 10
296.541260
 20
430.452545
 11
296.541260
 21
475.452545
  0
LINE
  8
0
  6
CONTINUOUS
 10
324.541260
 20
430.452545
 11
324.541260
 21
435.452545
  0
LINE
  8
0
  6
CONTINUOUS
 10
295.541260
 20
430.452545
 11
325.541260
 21
430.452545
  0
LINE
  8
0
  6
CONTINUOUS
 10
325.541260
 20
428.452545
 11
325.541260
 21
430.452545
  0
LINE
  8
0
  6
CONTINUOUS
 10
295.541260
 20
428.452545
 11
295.541260
 21
430.452545
  0
LINE
  8
0
  6
CONTINUOUS
 10
327.541260
 20
438.452545
 11
359.526367
 21
438.452545
  0
LINE
  8
0
  6
CONTINUOUS
 10
323.957672
 20
435.452545
 11
327.541260
 21
435.452545
  0
LINE
  8
0
  6
CONTINUOUS
 10
323.957672
 20
435.452545
 11
323.957672
 21
475.452545
  0
LINE
  8
0
  6
CONTINUOUS
 10
327.541260
 20
475.452545
 11
327.541260
 21
435.452545
  0
LINE
  8
0
  6
CONTINUOUS
 10
327.541260
 20
275.452545
 11
296.541260
 21
275.452545
  0
LINE
  8
0
  6
CONTINUOUS
 10
296.541260
 20
320.452545
 11
296.541260
 21
275.452545
  0
LINE
  8
0
  6
CONTINUOUS
 10
324.541260
 20
320.452545
 11
324.541260
 21
315.452545
  0
LINE
  8
0
  6
CONTINUOUS
 10
295.541260
 20
320.452545
 11
325.541260
 21
320.452545
  0
LINE
  8
0
  6
CONTINUOUS
 10
325.541260
 20
322.452545
 11
325.541260
 21
320.452545
  0
LINE
  8
0
  6
CONTINUOUS
 10
295.541260
 20
322.452545
 11
295.541260
 21
320.452545
  0
LINE
  8
0
  6
CONTINUOUS
 10
323.957672
 20
315.452545
 11
327.541260
 21
315.452545
  0
LINE
  8
0
  6
CONTINUOUS
 10
323.957672
 20
315.452545
 11
323.957672
 21
275.452545
  0
LINE
  8
0
  6
CONTINUOUS
 10
327.541260
 20
275.452545
 11
327.541260
 21
315.452545
  0
LINE
  8
0
  6
CONTINUOUS
 10
327.541260
 20
312.452545
 11
359.526367
 21
312.452545
  0
LINE
  8
0
  6
CONTINUOUS
 10
228.041245
 20
311.452545
 11
235.543289
 21
311.452545
  0
ARC
  8
0
  6
CONTINUOUS
 10
235.543289
 20
316.452545
 40
5.000000
 50
270.000000
 51
345.000031
  0
ARC
  8
0
  6
CONTINUOUS
 10
235.396790
 20
434.452545
 40
5.000000
 50
14.999846
 51
90.000000
  0
LINE
  8
0
  6
CONTINUOUS
 10
248.041245
 20
375.452545
 11
248.635635
 21
409.504913
  0
LINE
  8
0
  6
CONTINUOUS
 10
248.041245
 20
375.452545
 11
248.635635
 21
341.400208
  0
ARC
  8
0
  6
CONTINUOUS
 10
251.635178
 20
409.452545
 40
3.000000
 50
90.000000
 51
179.000000
  0
ARC
  8
0
  6
CONTINUOUS
 10
251.635178
 20
341.452545
 40
3.000000
 50
181.000000
 51
270.000000
  0
LINE
  8
0
  6
CONTINUOUS
 10
246.486893
 20
157.727676
 11
228.041245
 21
157.727676
  0
LINE
  8
0
  6
CONTINUOUS
 10
228.041245
 20
29.727480
 11
243.041245
 21
29.727480
  0
ARC
  8
0
  6
CONTINUOUS
 10
243.041275
 20
24.727463
 40
5.000000
 50
0.000000
 51
90.000000
  0
LINE
  8
0
  6
CONTINUOUS
 10
505.316864
 20
25.351553
 11
524.827637
 21
29.103615
  0
ARC
  8
0
  6
CONTINUOUS
 10
565.072266
 20
93.727577
 40
64.000099
 50
-54.681290
 51
20.105476
  0
ARC
  8
0
  6
CONTINUOUS
 10
565.072266
 20
93.727577
 40
64.000099
 50
159.894516
 51
234.681290
  0
ARC
  8
0
  6
CONTINUOUS
 10
506.072235
 20
20.727577
 40
4.000000
 50
90.000000
 51
180.000000
  0
ARC
  8
0
  6
CONTINUOUS
 10
506.072235
 20
21.423515
 40
4.000000
 50
100.885529
 51
180.000000
  0
ARC
  8
0
  6
CONTINUOUS
 10
524.072266
 20
33.031639
 40
4.000000
 50
-79.114502
 51
0.000000
  0
ARC
  8
0
  6
CONTINUOUS
 10
524.072266
 20
28.727577
 40
4.000000
 50
-90.000000
 51
0.000000
  0
LINE
  8
0
  6
CONTINUOUS
 10
624.827637
 20
25.351553
 11
605.316833
 21
29.103615
  0
ARC
  8
0
  6
CONTINUOUS
 10
624.072266
 20
20.727577
 40
4.000000
 50
0.000000
 51
90.000000
  0
ARC
  8
0
  6
CONTINUOUS
 10
624.072266
 20
21.423515
 40
4.000000
 50
0.000000
 51
79.114471
  0
ARC
  8
0
  6
CONTINUOUS
 10
606.072266
 20
33.031639
 40
4.000000
 50
180.000000
 51
259.114502
  0
ARC
  8
0
  6
CONTINUOUS
 10
606.072266
 20
28.727577
 40
4.000000
 50
180.000000
 51
270.000000
  0
LINE
  8
0
  6
CONTINUOUS
 10
291.983124
 20
29.727577
 11
329.099365
 21
29.727577
  0
LINE
  8
0
  6
CONTINUOUS
 10
289.640503
 20
28.601652
 11
287.442017
 21
25.853504
  0
ARC
  8
0
  6
CONTINUOUS
 10
285.099396
 20
27.727577
 40
3.000000
 50
270.000000
 51
321.340454
  0
ARC
  8
0
  6
CONTINUOUS
 10
291.983124
 20
26.727577
 40
3.000000
 50
90.000000
 51
141.340454
  0
LINE
  8
0
  6
CONTINUOUS
 10
331.441986
 20
28.601652
 11
333.640472
 21
25.853504
  0
ARC
  8
0
  6
CONTINUOUS
 10
335.983093
 20
27.727577
 40
3.000000
 50
-141.340454
 51
-90.000000
  0
ARC
  8
0
  6
CONTINUOUS
 10
329.099365
 20
26.727577
 40
3.000000
 50
38.659546
 51
90.000000
  0
ARC
  8
0
  6
CONTINUOUS
 10
246.486893
 20
162.727676
 40
5.000000
 50
270.000000
 51
304.539978
  0
LINE
  8
0
  6
CONTINUOUS
 10
228.041245
 20
439.452545
 11
228.041245
 21
311.452545
  0
LINE
  8
0
  6
CONTINUOUS
 10
246.541245
 20
145.327576
 11
248.041245
 21
145.327576
  0
LINE
  8
0
  6
CONTINUOUS
 10
246.541245
 20
42.127598
 11
248.041245
 21
42.127598
  0
ARC
  8
0
  6
CONTINUOUS
 10
430.494446
 20
93.727577
 40
191.053177
 50
164.330902
 51
195.669098
  0
ARC
  8
0
  6
CONTINUOUS
 10
430.494446
 20
93.727577
 40
190.053177
 50
178.548599
 51
181.478500
  0
LINE
  8
0
  6
CONTINUOUS
 10
242.541245
 20
98.727577
 11
241.536453
 21
98.727577
  0
LINE
  8
0
  6
CONTINUOUS
 10
245.041245
 20
96.227577
 11
245.041245
 21
91.227577
  0
ARC
  8
0
  6
CONTINUOUS
 10
241.536453
 20
99.725975
 40
1.000000
 50
178.182098
 51
270.000000
  0
ARC
  8
0
  6
CONTINUOUS
 10
242.541245
 20
96.227577
 40
2.500000
 50
0.000000
 51
90.000000
  0
LINE
  8
0
  6
CONTINUOUS
 10
242.541245
 20
88.727577
 11
241.536453
 21
88.727577
  0
ARC
  8
0
  6
CONTINUOUS
 10
241.536453
 20
87.729179
 40
1.000000
 50
-270.000000
 51
-178.182098
  0
ARC
  8
0
  6
CONTINUOUS
 10
242.541245
 20
91.227577
 40
2.500000
 50
-90.000000
 51
0.000000
  0
LINE
  8
0
  6
CONTINUOUS
 10
173.541245
 20
60.221577
 11
217.541245
 21
60.221577
  0
LINE
  8
0
  6
CONTINUOUS
 10
173.541245
 20
45.208576
 11
228.041245
 21
45.208580
  0
LINE
  8
0
  6
CONTINUOUS
 10
220.109222
 20
53.160580
 11
228.041245
 21
53.160580
  0
LINE
  8
0
  6
CONTINUOUS
 10
219.541245
 20
54.375313
 11
219.541245
 21
155.727707
  0
ARC
  8
0
  6
CONTINUOUS
 10
217.041290
 20
31.706999
 40
2.500000
 50
0.260773
 51
88.000000
  0
ARC
  8
0
  6
CONTINUOUS
 10
217.041245
 20
135.263107
 40
2.500000
 50
-45.000000
 51
0.000000
  0
ARC
  8
0
  6
CONTINUOUS
 10
211.326736
 20
129.548599
 40
2.500000
 50
272.000000
 51
315.000000
  0
LINE
  8
0
  6
CONTINUOUS
 10
219.541245
 20
313.452545
 11
219.541245
 21
437.452545
  0
LINE
  8
0
  6
CONTINUOUS
 10
173.541245
 20
420.452545
 11
217.104874
 21
421.973816
  0
LINE
  8
0
  6
CONTINUOUS
 10
173.541245
 20
330.452545
 11
217.104874
 21
328.931274
  0
LINE
  8
0
  6
CONTINUOUS
 10
173.541245
 20
424.464539
 11
173.541245
 21
326.440552
  0
LINE
  8
0
  6
CONTINUOUS
 10
221.541245
 20
439.452545
 11
228.041245
 21
439.452545
  0
LINE
  8
0
  6
CONTINUOUS
 10
221.541245
 20
311.452545
 11
228.041245
 21
311.452545
  0
LINE
  8
0
  6
CONTINUOUS
 10
212.398254
 20
399.452545
 11
219.513229
 21
399.452545
  0
LINE
  8
0
  6
CONTINUOUS
 10
213.003403
 20
351.452545
 11
219.513229
 21
351.452545
  0
LINE
  8
0
  6
CONTINUOUS
 10
212.398254
 20
397.248047
 11
212.398254
 21
353.535461
  0
LINE
  8
0
  6
CONTINUOUS
 10
164.541245
 20
418.452545
 11
164.541245
 21
404.452545
  0
LINE
  8
0
  6
CONTINUOUS
 10
54.541248
 20
420.452545
 11
173.541245
 21
420.452545
  0
LINE
  8
0
  6
CONTINUOUS
 10
54.541248
 20
330.452545
 11
173.541245
 21
330.452545
  0
LINE
  8
0
  6
CONTINUOUS
 10
54.541248
 20
404.452545
 11
164.541245
 21
404.452545
  0
LINE
  8
0
  6
CONTINUOUS
 10
54.541248
 20
346.452545
 11
164.541245
 21
346.452545
  0
ARC
  8
0
  6
CONTINUOUS
 10
166.541245
 20
418.452576
 40
2.000000
 50
90.000000
 51
180.000000
  0
ARC
  8
0
  6
CONTINUOUS
 10
166.541245
 20
332.452545
 40
2.000000
 50
180.000000
 51
270.000000
  0
LINE
  8
0
  6
CONTINUOUS
 10
173.541245
 20
420.452545
 11
173.541245
 21
330.452545
  0
ARC
  8
0
  6
CONTINUOUS
 10
221.541245
 20
437.452545
 40
2.000000
 50
90.000000
 51
180.000000
  0
ARC
  8
0
  6
CONTINUOUS
 10
221.541245
 20
313.452545
 40
2.000000
 50
180.000000
 51
270.000000
  0
ARC
  8
0
  6
CONTINUOUS
 10
217.017624
 20
424.472290
 40
2.500000
 50
272.000000
 51
359.895721
  0
ARC
  8
0
  6
CONTINUOUS
 10
217.017624
 20
326.432800
 40
2.500000
 50
0.104292
 51
88.000000
  0
LINE
  8
0
  6
CONTINUOUS
 10
219.541245
 20
422.058899
 11
219.513229
 21
422.057922
  0
LINE
  8
0
  6
CONTINUOUS
 10
174.040939
 20
424.981995
 11
219.541245
 21
426.570892
  0
LINE
  8
0
  6
CONTINUOUS
 10
173.541245
 20
424.464539
 11
174.040939
 21
424.981995
  0
LINE
  8
0
  6
CONTINUOUS
 10
174.040939
 20
325.923096
 11
219.541245
 21
324.334198
  0
LINE
  8
0
  6
CONTINUOUS
 10
173.541245
 20
326.440552
 11
174.040939
 21
325.923096
  0
LINE
  8
0
  6
CONTINUOUS
 10
45.041248
 20
420.452545
 11
54.541248
 21
420.452545
  0
LINE
  8
0
  6
CONTINUOUS
 10
54.541248
 20
404.452545
 11
45.041248
 21
404.452545
  0
LINE
  8
0
  6
CONTINUOUS
 10
45.041248
 20
330.452545
 11
54.541248
 21
330.452545
  0
LINE
  8
0
  6
CONTINUOUS
 10
54.541248
 20
330.452545
 11
54.541248
 21
368.586517
  0
LINE
  8
0
  6
CONTINUOUS
 10
54.541248
 20
346.452545
 11
45.041248
 21
346.452545
  0
LINE
  8
0
  6
CONTINUOUS
 10
48.041248
 20
369.452545
 11
48.041248
 21
381.452545
  0
LINE
  8
0
  6
CONTINUOUS
 10
55.041248
 20
369.452545
 11
55.041248
 21
381.452545
  0
LINE
  8
0
  6
CONTINUOUS
 10
49.041248
 20
382.452545
 11
54.041248
 21
382.452545
  0
LINE
  8
0
  6
CONTINUOUS
 10
54.041248
 20
368.452545
 11
49.041248
 21
368.452545
  0
ARC
  8
0
  6
CONTINUOUS
 10
54.041248
 20
381.452545
 40
1.000000
 50
0.000000
 51
90.000000
  0
ARC
  8
0
  6
CONTINUOUS
 10
49.041248
 20
381.452545
 40
1.000000
 50
90.000000
 51
180.000000
  0
ARC
  8
0
  6
CONTINUOUS
 10
49.041248
 20
369.452545
 40
1.000000
 50
180.000000
 51
270.000000
  0
ARC
  8
0
  6
CONTINUOUS
 10
54.041248
 20
369.452545
 40
1.000000
 50
-90.000000
 51
0.000000
  0
LINE
  8
0
  6
CONTINUOUS
 10
52.541248
 20
371.952545
 11
52.541248
 21
378.952545
  0
LINE
  8
0
  6
CONTINUOUS
 10
50.541248
 20
371.952545
 11
50.541248
 21
378.952545
  0
ARC
  8
0
  6
CONTINUOUS
 10
51.541248
 20
378.952545
 40
1.000000
 50
90.000000
 51
180.000000
  0
ARC
  8
0
  6
CONTINUOUS
 10
51.541248
 20
378.952545
 40
1.000000
 50
0.000000
 51
90.000000
  0
ARC
  8
0
  6
CONTINUOUS
 10
51.541248
 20
371.952545
 40
1.000000
 50
180.000000
 51
270.000000
  0
ARC
  8
0
  6
CONTINUOUS
 10
51.541248
 20
371.952545
 40
1.000000
 50
-90.000000
 51
0.000000
  0
LINE
  8
0
  6
CONTINUOUS
 10
54.541248
 20
382.318573
 11
54.541248
 21
420.452545
  0
LINE
  8
0
  6
CONTINUOUS
 10
45.041248
 20
422.452545
 11
45.041248
 21
328.452545
  0
LINE
  8
0
  6
CONTINUOUS
 10
45.041248
 20
404.452545
 11
1.066220
 21
404.452545
  0
LINE
  8
0
  6
CONTINUOUS
 10
45.041248
 20
346.452545
 11
1.066220
 21
346.452545
  0
LINE
  8
0
  6
CONTINUOUS
 10
2.541230
 20
422.452545
 11
45.041248
 21
422.452545
  0
LINE
  8
0
  6
CONTINUOUS
 10
2.541230
 20
328.452545
 11
45.041248
 21
328.452545
  0
ARC
  8
0
  6
CONTINUOUS
 10
2.541260
 20
417.452545
 40
5.000000
 50
90.000000
 51
180.000000
  0
ARC
  8
0
  6
CONTINUOUS
 10
2.541230
 20
333.452545
 40
5.000000
 50
180.000000
 51
270.000000
  0
LINE
  8
0
  6
CONTINUOUS
 10
-2.458740
 20
417.452545
 11
-2.458770
 21
333.452545
  0
LINE
  8
0
  6
CONTINUOUS
 10
45.041248
 20
125.727577
 11
54.541248
 21
125.727577
  0
LINE
  8
0
  6
CONTINUOUS
 10
54.541248
 20
115.136879
 11
45.041248
 21
115.136879
  0
LINE
  8
0
  6
CONTINUOUS
 10
45.041248
 20
35.727577
 11
54.541248
 21
35.727577
  0
LINE
  8
0
  6
CONTINUOUS
 10
54.541248
 20
46.318287
 11
45.041248
 21
46.318287
  0
LINE
  8
0
  6
CONTINUOUS
 10
45.041248
 20
127.727577
 11
45.041248
 21
33.727577
  0
LINE
  8
0
  6
CONTINUOUS
 10
45.041248
 20
109.727577
 11
1.066220
 21
109.727577
  0
LINE
  8
0
  6
CONTINUOUS
 10
45.041248
 20
51.727577
 11
1.066220
 21
51.727577
  0
LINE
  8
0
  6
CONTINUOUS
 10
55.041248
 20
127.227577
 11
55.041248
 21
125.727577
  0
LINE
  8
0
  6
CONTINUOUS
 10
48.041248
 20
127.227577
 11
48.041248
 21
125.727577
  0
LINE
  8
0
  6
CONTINUOUS
 10
48.041248
 20
127.227577
 11
55.041248
 21
127.227577
  0
LINE
  8
0
  6
CONTINUOUS
 10
52.441238
 20
140.227585
 11
52.441238
 21
127.227577
  0
LINE
  8
0
  6
CONTINUOUS
 10
50.641239
 20
140.852585
 11
50.641239
 21
127.227577
  0
LINE
  8
0
  6
CONTINUOUS
 10
48.841240
 20
138.790085
 11
48.841240
 21
127.227577
  0
LINE
  8
0
  6
CONTINUOUS
 10
54.241249
 20
139.602585
 11
54.241249
 21
127.227577
  0
LINE
  8
0
  6
CONTINUOUS
 10
50.641239
 20
140.852585
 11
52.441238
 21
140.227585
  0
LINE
  8
0
  6
CONTINUOUS
 10
48.841240
 20
138.790085
 11
50.641239
 21
139.415085
  0
LINE
  8
0
  6
CONTINUOUS
 10
54.241249
 20
139.602585
 11
52.442249
 21
139.154877
  0
LINE
  8
0
  6
CONTINUOUS
 10
2.541230
 20
127.727577
 11
45.041248
 21
127.727577
  0
LINE
  8
0
  6
CONTINUOUS
 10
2.541230
 20
33.727577
 11
45.041248
 21
33.727577
  0
ARC
  8
0
  6
CONTINUOUS
 10
2.541260
 20
122.727577
 40
5.000000
 50
90.000000
 51
180.000000
  0
ARC
  8
0
  6
CONTINUOUS
 10
2.541230
 20
38.727577
 40
5.000000
 50
180.000000
 51
270.000000
  0
LINE
  8
0
  6
CONTINUOUS
 10
-2.458740
 20
122.727577
 11
-2.458770
 21
38.727570
  0
LINE
  8
0
  6
CONTINUOUS
 10
54.541248
 20
35.727577
 11
54.541248
 21
125.727577
  0
ARC
  8
0
  6
CONTINUOUS
 10
45.041248
 20
109.256981
 40
4.500000
 50
0.000000
 51
90.000000
  0
ARC
  8
0
  6
CONTINUOUS
 10
45.041248
 20
109.256981
 40
3.000000
 50
0.000000
 51
90.000000
  0
ARC
  8
0
  6
CONTINUOUS
 10
45.041248
 20
109.256981
 40
1.500000
 50
0.000000
 51
90.000000
  0
LINE
  8
0
  6
CONTINUOUS
 10
46.541248
 20
109.256981
 11
46.541248
 21
104.241379
  0
LINE
  8
0
  6
CONTINUOUS
 10
48.041248
 20
109.256981
 11
48.041248
 21
104.756981
  0
LINE
  8
0
  6
CONTINUOUS
 10
49.541248
 20
109.256981
 11
49.541248
 21
104.756981
  0
LINE
  8
0
  6
CONTINUOUS
 10
46.541248
 20
104.256981
 11
48.041248
 21
104.756981
  0
LINE
  8
0
  6
CONTINUOUS
 10
48.041248
 20
105.256981
 11
49.541248
 21
104.756981
  0
ARC
  8
0
  6
CONTINUOUS
 10
45.041248
 20
336.182709
 40
4.500000
 50
0.000000
 51
90.000000
  0
ARC
  8
0
  6
CONTINUOUS
 10
45.041248
 20
336.182709
 40
3.000000
 50
0.000000
 51
90.000000
  0
ARC
  8
0
  6
CONTINUOUS
 10
45.041248
 20
336.182709
 40
1.500000
 50
0.000000
 51
90.000000
  0
LINE
  8
0
  6
CONTINUOUS
 10
46.541248
 20
336.182709
 11
46.541248
 21
331.167114
  0
LINE
  8
0
  6
CONTINUOUS
 10
48.041248
 20
336.182709
 11
48.041248
 21
331.682709
  0
LINE
  8
0
  6
CONTINUOUS
 10
49.541248
 20
336.182709
 11
49.541248
 21
331.682709
  0
LINE
  8
0
  6
CONTINUOUS
 10
46.541248
 20
331.182709
 11
48.041248
 21
331.682709
  0
LINE
  8
0
  6
CONTINUOUS
 10
48.041248
 20
332.182709
 11
49.541248
 21
331.682709
  0
LINE
  8
0
  6
CONTINUOUS
 10
164.541245
 20
346.452545
 11
164.541245
 21
332.452545
  0
TEXT
  8
0
 10
-22.000000
 20
-7.000000
 40
4.000000
 41
1.000000
  1
HLMN-28T-600~900-S60W
 50
0.000000
  0
ENDSEC
  0
EOF
