  0
SECTION
  2
HEADER
  9
$CLAYER
  8
1
  9
$LTSCALE
 40
3.0
  0
ENDSEC
  0
SECTION
  2
TABLES
  0
TABLE
  2
LTYPE
 70
     4
  0
LTYPE
  2
CONTINUOUS
  3
solid line
 70
    64
 72
    65
 73
     0
 40
0.0
  0
LTYPE
  2
DASHED
  3
__ __ __ __ __ __ __ __ __ __ __ __ __ __ __
 70
    64
 72
    65
 73
     2
 40
0.75
 49
0.5
 49
-0.25
  0
LTYPE
  2
CENTER
  3
____ _ ____ _ ____ _ ____ _ ____ _ ____ _ ____
 70
    64
 72
    65
 73
     4
 40
2.0
 49
1.25
 49
-0.25
 49
0.25
 49
-0.25
  0
LTYPE
  2
PHANTOM
  3
_____ _ _ _____ _ _ _____ _ _ _____ _ _ ____
 70
    64
 72
    65
 73
     6
 40
2.5
 49
1.25
 49
-0.25
 49
0.25
 49
-0.25
 49
0.25
 49
-0.25
  0
ENDTAB
  0
TABLE
  2
LAYER
 70
     1
  0
LAYER
  2
0
 70
    64
 62
     7
  6
CONTINUOUS
  0
ENDTAB
  0
TABLE
  2
STYLE
 70
     1
  0
STYLE
  2
STANDARD
 70
     0
 40
0.000000
 41
1.000000
 50
0.000000
 71
     0
 42
3.000000
  3
txt
  4
BIGFONT
  0
ENDTAB
  0
ENDSEC
  0
SECTION
  2
BLOCKS
  0
ENDSEC
  0
SECTION
  2
ENTITIES
  0
LINE
  8
0
  6
CONTINUOUS
 10
164.052505
 20
122.296326
 11
164.052505
 21
36.296307
  0
LINE
  8
0
  6
CONTINUOUS
 10
54.052502
 20
124.296326
 11
173.052505
 21
124.296326
  0
LINE
  8
0
  6
CONTINUOUS
 10
54.052502
 20
34.296329
 11
173.052505
 21
34.296329
  0
LINE
  8
0
  6
CONTINUOUS
 10
54.052502
 20
113.705627
 11
163.014816
 21
113.705627
  0
LINE
  8
0
  6
CONTINUOUS
 10
54.052502
 20
44.887028
 11
163.014816
 21
44.887028
  0
ARC
  8
0
  6
CONTINUOUS
 10
166.052505
 20
122.296349
 40
2.000000
 50
90.000000
 51
180.000000
  0
ARC
  8
0
  6
CONTINUOUS
 10
166.052505
 20
36.296329
 40
2.000000
 50
180.000000
 51
270.000000
  0
LINE
  8
0
  6
CONTINUOUS
 10
372.552490
 20
153.667953
 11
372.552490
 21
8.296328
  0
LINE
  8
0
  6
CONTINUOUS
 10
247.552505
 20
8.296328
 11
372.552490
 21
8.296328
  0
LINE
  8
0
  6
CENTER
 10
256.597290
 20
128.296326
 11
367.763763
 21
128.296326
  0
LINE
  8
0
  6
CENTER
 10
310.052490
 20
199.796295
 11
310.052490
 21
-0.203672
  0
LINE
  8
0
  6
CONTINUOUS
 10
287.606903
 20
182.796295
 11
332.498108
 21
182.796295
  0
LINE
  8
0
  6
CONTINUOUS
 10
335.332886
 20
181.914993
 11
370.387299
 21
157.786575
  0
LINE
  8
0
  6
CONTINUOUS
 10
250.552505
 20
23.296328
 11
369.552490
 21
23.296328
  0
LINE
  8
0
  6
CONTINUOUS
 10
362.552490
 20
21.758827
 11
362.552490
 21
8.296328
  0
LINE
  8
0
  6
CONTINUOUS
 10
258.552490
 20
21.758827
 11
258.552490
 21
8.296328
  0
LINE
  8
0
  6
CENTER
 10
350.052490
 20
30.546328
 11
350.052490
 21
1.546328
  0
LINE
  8
0
  6
CENTER
 10
270.052490
 20
30.546328
 11
270.052490
 21
2.796328
  0
LINE
  8
0
  6
DASHED
 10
355.552490
 20
23.296328
 11
355.552490
 21
8.296328
  0
LINE
  8
0
  6
DASHED
 10
344.552490
 20
23.296328
 11
344.552490
 21
8.296328
  0
LINE
  8
0
  6
DASHED
 10
275.552490
 20
23.296328
 11
275.552490
 21
8.296328
  0
LINE
  8
0
  6
DASHED
 10
264.552490
 20
23.296328
 11
264.552490
 21
8.296328
  0
ARC
  8
0
  6
CONTINUOUS
 10
290.052490
 20
78.296326
 40
26.500000
 50
170.529099
 51
270.000000
  0
ARC
  8
0
  6
CONTINUOUS
 10
330.052490
 20
78.296326
 40
26.500000
 50
-90.000000
 51
9.470950
  0
LINE
  8
0
  6
CONTINUOUS
 10
263.913696
 20
82.656799
 11
272.570496
 21
134.549164
  0
LINE
  8
0
  6
CONTINUOUS
 10
347.534485
 20
134.549164
 11
356.191315
 21
82.656830
  0
LINE
  8
0
  6
CONTINUOUS
 10
290.052490
 20
51.796329
 11
330.052490
 21
51.796329
  0
ARC
  8
0
  6
CONTINUOUS
 10
367.552490
 20
153.667892
 40
5.000000
 50
0.000000
 51
55.460110
  0
ARC
  8
0
  6
CONTINUOUS
 10
332.498108
 20
177.796295
 40
5.000000
 50
55.460079
 51
90.000000
  0
ARC
  8
0
  6
CONTINUOUS
 10
287.640900
 20
177.796295
 40
5.000000
 50
90.000000
 51
91.038872
  0
LINE
  8
0
  6
CONTINUOUS
 10
290.052490
 20
27.927101
 11
290.052490
 21
23.296328
  0
LINE
  8
0
  6
CONTINUOUS
 10
330.052490
 20
27.927101
 11
330.052490
 21
23.296328
  0
LINE
  8
0
  6
CONTINUOUS
 10
247.552505
 20
8.296328
 11
247.552505
 21
153.667908
  0
ARC
  8
0
  6
CONTINUOUS
 10
290.052490
 20
78.296326
 40
24.000000
 50
169.576294
 51
270.000000
  0
ARC
  8
0
  6
CONTINUOUS
 10
330.052490
 20
78.296326
 40
24.000000
 50
-90.000000
 51
9.471373
  0
LINE
  8
0
  6
CONTINUOUS
 10
290.052490
 20
54.296329
 11
330.052490
 21
54.296329
  0
CIRCLE
  8
0
  6
CONTINUOUS
 10
310.052490
 20
128.296326
 40
33.500000
  0
ARC
  8
0
  6
CONTINUOUS
 10
310.052490
 20
128.296326
 40
38.000000
 50
9.470961
 51
170.529099
  0
ARC
  8
0
  6
CONTINUOUS
 10
310.052490
 20
128.296326
 40
38.000000
 50
9.470963
 51
170.529007
  0
ARC
  8
0
  6
CONTINUOUS
 10
310.052490
 20
128.296326
 40
35.500000
 50
-189.470795
 51
9.471022
  0
LINE
  8
0
  6
CONTINUOUS
 10
266.379700
 20
82.245422
 11
275.036285
 21
134.137665
  0
LINE
  8
0
  6
CONTINUOUS
 10
345.068512
 20
134.137787
 11
353.725311
 21
82.245636
  0
LINE
  8
0
  6
CENTER
 10
146.356873
 20
92.296326
 11
271.302490
 21
92.296326
  0
LINE
  8
0
  6
CONTINUOUS
 10
227.552505
 20
92.296326
 11
227.552505
 21
28.296230
  0
LINE
  8
0
  6
CONTINUOUS
 10
227.552505
 20
92.296326
 11
227.552505
 21
156.296432
  0
LINE
  8
0
  6
CONTINUOUS
 10
249.717499
 20
157.786545
 11
284.772095
 21
181.914948
  0
ARC
  8
0
  6
CONTINUOUS
 10
287.606903
 20
177.796295
 40
5.000000
 50
90.000000
 51
124.540298
  0
ARC
  8
0
  6
CONTINUOUS
 10
252.552505
 20
153.667923
 40
5.000000
 50
124.540398
 51
180.000000
  0
ARC
  8
0
  6
CONTINUOUS
 10
250.552505
 20
20.296349
 40
3.000000
 50
90.000000
 51
180.000000
  0
ARC
  8
0
  6
CONTINUOUS
 10
369.552490
 20
20.296328
 40
3.000000
 50
0.000000
 51
90.000000
  0
LINE
  8
0
  6
CONTINUOUS
 10
299.756104
 20
64.296326
 11
295.595703
 21
64.296326
  0
LINE
  8
0
  6
CONTINUOUS
 10
302.052490
 20
71.265068
 11
302.052490
 21
64.296326
  0
LINE
  8
0
  6
CONTINUOUS
 10
306.052490
 20
73.796326
 11
306.052490
 21
76.296326
  0
LINE
  8
0
  6
CONTINUOUS
 10
314.052490
 20
73.796326
 11
314.052490
 21
76.296326
  0
LINE
  8
0
  6
CONTINUOUS
 10
309.271301
 20
74.827576
 11
309.271301
 21
65.608826
  0
LINE
  8
0
  6
CONTINUOUS
 10
310.771301
 20
74.827576
 11
310.771301
 21
65.608826
  0
LINE
  8
0
  6
CONTINUOUS
 10
318.646301
 20
74.827576
 11
318.646301
 21
65.546326
  0
LINE
  8
0
  6
CONTINUOUS
 10
320.021301
 20
69.905708
 11
320.021301
 21
65.546326
  0
LINE
  8
0
  6
CONTINUOUS
 10
300.154510
 20
74.702576
 11
296.299500
 21
74.702576
  0
LINE
  8
0
  6
CONTINUOUS
 10
296.299500
 20
74.702576
 11
295.396301
 21
73.582581
  0
LINE
  8
0
  6
CONTINUOUS
 10
295.504913
 20
76.296326
 11
294.052490
 21
74.436569
  0
LINE
  8
0
  6
CONTINUOUS
 10
295.396301
 20
66.669250
 11
296.313904
 21
65.702568
  0
LINE
  8
0
  6
CONTINUOUS
 10
294.052490
 20
65.853485
 11
295.595703
 21
64.296326
  0
LINE
  8
0
  6
CONTINUOUS
 10
294.052490
 20
74.436569
 11
294.052490
 21
65.853485
  0
LINE
  8
0
  6
CONTINUOUS
 10
295.396301
 20
73.582581
 11
295.396301
 21
66.669250
  0
LINE
  8
0
  6
CONTINUOUS
 10
300.896301
 20
73.985474
 11
300.139313
 21
74.702576
  0
LINE
  8
0
  6
CONTINUOUS
 10
300.884308
 20
76.296326
 11
302.052490
 21
74.999840
  0
LINE
  8
0
  6
CONTINUOUS
 10
300.896301
 20
73.796326
 11
302.052490
 21
73.796326
  0
LINE
  8
0
  6
CONTINUOUS
 10
295.504913
 20
76.296326
 11
300.884308
 21
76.296326
  0
LINE
  8
0
  6
CONTINUOUS
 10
298.802490
 20
71.265068
 11
302.052490
 21
71.265068
  0
LINE
  8
0
  6
CONTINUOUS
 10
300.896301
 20
69.952568
 11
298.802490
 21
69.952568
  0
LINE
  8
0
  6
CONTINUOUS
 10
298.396301
 20
65.702568
 11
296.313904
 21
65.702568
  0
LINE
  8
0
  6
CONTINUOUS
 10
300.896301
 20
68.702568
 11
300.896301
 21
69.702568
  0
ARC
  8
0
  6
CONTINUOUS
 10
298.396301
 20
68.202568
 40
2.500000
 50
-89.999786
 51
0.000109
  0
LINE
  8
0
  6
CONTINUOUS
 10
300.896301
 20
65.252892
 11
300.896301
 21
64.296326
  0
LINE
  8
0
  6
CONTINUOUS
 10
302.052490
 20
74.999840
 11
302.052490
 21
73.796326
  0
LINE
  8
0
  6
CONTINUOUS
 10
300.896301
 20
69.952568
 11
300.896301
 21
68.202568
  0
LINE
  8
0
  6
CONTINUOUS
 10
298.802490
 20
71.265068
 11
298.802490
 21
69.952568
  0
LINE
  8
0
  6
CONTINUOUS
 10
300.896301
 20
64.296326
 11
302.052490
 21
64.296326
  0
LINE
  8
0
  6
CONTINUOUS
 10
300.896301
 20
65.252892
 11
299.756104
 21
64.296326
  0
LINE
  8
0
  6
CONTINUOUS
 10
310.771301
 20
65.608826
 11
311.271301
 21
65.608826
  0
LINE
  8
0
  6
CONTINUOUS
 10
308.677490
 20
65.608826
 11
308.677490
 21
64.296326
  0
LINE
  8
0
  6
CONTINUOUS
 10
311.271301
 20
65.608826
 11
311.271301
 21
64.296326
  0
LINE
  8
0
  6
CONTINUOUS
 10
313.218109
 20
73.796326
 11
314.052490
 21
73.796326
  0
LINE
  8
0
  6
CONTINUOUS
 10
306.052490
 20
73.796326
 11
306.940491
 21
73.796326
  0
LINE
  8
0
  6
CONTINUOUS
 10
306.052490
 20
76.296326
 11
314.052490
 21
76.296326
  0
LINE
  8
0
  6
CONTINUOUS
 10
308.677490
 20
64.296326
 11
311.271301
 21
64.296326
  0
LINE
  8
0
  6
CONTINUOUS
 10
308.677490
 20
65.608826
 11
309.271301
 21
65.608826
  0
ARC
  8
0
  6
CONTINUOUS
 10
322.849304
 20
73.093201
 40
3.203126
 50
-73.981873
 51
90.003510
  0
ARC
  8
0
  6
CONTINUOUS
 10
322.849304
 20
73.093201
 40
1.954124
 50
-82.585274
 51
62.411850
  0
LINE
  8
0
  6
CONTINUOUS
 10
318.052490
 20
76.296326
 11
322.849304
 21
76.296326
  0
LINE
  8
0
  6
CONTINUOUS
 10
323.101501
 20
71.155411
 11
320.021301
 21
71.155411
  0
LINE
  8
0
  6
CONTINUOUS
 10
318.052490
 20
76.296326
 11
318.052490
 21
74.827576
  0
LINE
  8
0
  6
CONTINUOUS
 10
320.021301
 20
74.827576
 11
320.021301
 21
71.155411
  0
LINE
  8
0
  6
CONTINUOUS
 10
323.733307
 20
70.014450
 11
325.715698
 21
65.546326
  0
LINE
  8
0
  6
CONTINUOUS
 10
322.581696
 20
69.905708
 11
324.457886
 21
65.546326
  0
LINE
  8
0
  6
CONTINUOUS
 10
318.052490
 20
65.546326
 11
318.646301
 21
65.546326
  0
LINE
  8
0
  6
CONTINUOUS
 10
320.021301
 20
65.546326
 11
320.568115
 21
65.546326
  0
LINE
  8
0
  6
CONTINUOUS
 10
320.568115
 20
64.296326
 11
318.052490
 21
64.296326
  0
LINE
  8
0
  6
CONTINUOUS
 10
324.208710
 20
65.546326
 11
324.457886
 21
65.546326
  0
LINE
  8
0
  6
CONTINUOUS
 10
325.715698
 20
65.546326
 11
326.052490
 21
65.546326
  0
LINE
  8
0
  6
CONTINUOUS
 10
324.208710
 20
64.296326
 11
326.052490
 21
64.296326
  0
LINE
  8
0
  6
CONTINUOUS
 10
326.052490
 20
65.546326
 11
326.052490
 21
64.296326
  0
LINE
  8
0
  6
CONTINUOUS
 10
324.208710
 20
65.546326
 11
324.208710
 21
64.296326
  0
LINE
  8
0
  6
CONTINUOUS
 10
320.568115
 20
65.546326
 11
320.568115
 21
64.296326
  0
LINE
  8
0
  6
CONTINUOUS
 10
318.052490
 20
65.546326
 11
318.052490
 21
64.296326
  0
LINE
  8
0
  6
CONTINUOUS
 10
307.370300
 20
74.827576
 11
306.940491
 21
73.796326
  0
LINE
  8
0
  6
CONTINUOUS
 10
312.855713
 20
74.827576
 11
313.218109
 21
73.796326
  0
LINE
  8
0
  6
CONTINUOUS
 10
310.771301
 20
74.827576
 11
312.855713
 21
74.827576
  0
LINE
  8
0
  6
CONTINUOUS
 10
309.271301
 20
74.827576
 11
307.370300
 21
74.827576
  0
LINE
  8
0
  6
CONTINUOUS
 10
320.021301
 20
69.905708
 11
322.581696
 21
69.905708
  0
LINE
  8
0
  6
CONTINUOUS
 10
318.052490
 20
74.827576
 11
318.646301
 21
74.827576
  0
LINE
  8
0
  6
CONTINUOUS
 10
320.021301
 20
74.827576
 11
323.754303
 21
74.825150
  0
LINE
  8
0
  6
CONTINUOUS
 10
300.896301
 20
73.985474
 11
300.896301
 21
73.796326
  0
LINE
  8
0
  6
CONTINUOUS
 10
640.552490
 20
39.296329
 11
640.552490
 21
43.275047
  0
LINE
  8
0
  6
CONTINUOUS
 10
550.552490
 20
39.296329
 11
550.552490
 21
43.274986
  0
LINE
  8
0
  6
CONTINUOUS
 10
555.552490
 20
34.296329
 11
558.552490
 21
34.296329
  0
LINE
  8
0
  6
CONTINUOUS
 10
635.552490
 20
34.296329
 11
632.552490
 21
34.296329
  0
ARC
  8
0
  6
CONTINUOUS
 10
555.552490
 20
39.296329
 40
5.000000
 50
180.000000
 51
270.000000
  0
ARC
  8
0
  6
CONTINUOUS
 10
635.552490
 20
39.296329
 40
5.000000
 50
-90.000000
 51
0.000000
  0
ARC
  8
0
  6
CONTINUOUS
 10
636.564880
 20
51.284367
 40
8.000000
 50
306.780975
 51
358.958740
  0
ARC
  8
0
  6
CONTINUOUS
 10
554.540283
 20
51.284107
 40
8.000000
 50
181.041107
 51
233.216995
  0
ARC
  8
0
  6
CONTINUOUS
 10
642.552490
 20
43.275066
 40
2.000000
 50
126.781197
 51
180.000000
  0
ARC
  8
0
  6
CONTINUOUS
 10
548.552490
 20
43.274986
 40
2.000000
 50
0.000000
 51
53.217121
  0
LINE
  8
0
  6
CENTER
 10
595.552490
 20
-9.032512
 11
595.552490
 21
204.215652
  0
LINE
  8
0
  6
CENTER
 10
478.281494
 20
128.296326
 11
712.589478
 21
128.296326
  0
LINE
  8
0
  6
CONTINUOUS
 10
532.552490
 20
8.296328
 11
568.052490
 21
8.296328
  0
LINE
  8
0
  6
CONTINUOUS
 10
536.552490
 20
23.296328
 11
554.552490
 21
23.296328
  0
LINE
  8
0
  6
CONTINUOUS
 10
654.552490
 20
23.296328
 11
636.552490
 21
23.296328
  0
LINE
  8
0
  6
CONTINUOUS
 10
560.052490
 20
156.296326
 11
630.802490
 21
156.296326
  0
LINE
  8
0
  6
CONTINUOUS
 10
629.604919
 20
182.202209
 11
595.552490
 21
182.796326
  0
LINE
  8
0
  6
CONTINUOUS
 10
561.500122
 20
182.201813
 11
595.552490
 21
182.796326
  0
LINE
  8
0
  6
CONTINUOUS
 10
632.552490
 20
179.202667
 11
632.552490
 21
8.296308
  0
LINE
  8
0
  6
CONTINUOUS
 10
558.552490
 20
179.202271
 11
558.552490
 21
8.296328
  0
LINE
  8
0
  6
CONTINUOUS
 10
542.552490
 20
98.584061
 11
542.552490
 21
158.008575
  0
LINE
  8
0
  6
CONTINUOUS
 10
648.552490
 20
158.008591
 11
648.552490
 21
98.584068
  0
LINE
  8
0
  6
CONTINUOUS
 10
549.552490
 20
58.096748
 11
549.552490
 21
130.796326
  0
LINE
  8
0
  6
CONTINUOUS
 10
641.552490
 20
58.096748
 11
641.552490
 21
130.796326
  0
LINE
  8
0
  6
CONTINUOUS
 10
658.552490
 20
19.992266
 11
658.552490
 21
8.296328
  0
LINE
  8
0
  6
CONTINUOUS
 10
532.552490
 20
19.992266
 11
532.552490
 21
8.296328
  0
LINE
  8
0
  6
CENTER
 10
545.552490
 20
31.296328
 11
545.552490
 21
-3.057072
  0
LINE
  8
0
  6
CENTER
 10
645.552490
 20
31.796328
 11
645.552490
 21
-3.057072
  0
LINE
  8
0
  6
DASHED
 10
540.052490
 20
23.296328
 11
540.052490
 21
8.296328
  0
LINE
  8
0
  6
DASHED
 10
551.052490
 20
23.296328
 11
551.052490
 21
8.296328
  0
LINE
  8
0
  6
DASHED
 10
640.052490
 20
23.296328
 11
640.052490
 21
8.296328
  0
LINE
  8
0
  6
DASHED
 10
651.052490
 20
23.296328
 11
651.052490
 21
8.296328
  0
ARC
  8
0
  6
CONTINUOUS
 10
561.552490
 20
179.202286
 40
3.000000
 50
91.000526
 51
180.000000
  0
ARC
  8
0
  6
CONTINUOUS
 10
629.552490
 20
179.202652
 40
3.000000
 50
0.000000
 51
89.000580
  0
LINE
  8
0
  6
CONTINUOUS
 10
623.052490
 20
8.296328
 11
658.552490
 21
8.296328
  0
LINE
  8
0
  6
CONTINUOUS
 10
569.052490
 20
9.296328
 11
622.052490
 21
9.296328
  0
LINE
  8
0
  6
CONTINUOUS
 10
546.198730
 20
162.821854
 11
554.906128
 21
165.270813
  0
LINE
  8
0
  6
CONTINUOUS
 10
546.198730
 20
93.770805
 11
547.364685
 21
93.442879
  0
LINE
  8
0
  6
CONTINUOUS
 10
553.214294
 20
53.279167
 11
554.890686
 21
52.813488
  0
LINE
  8
0
  6
CONTINUOUS
 10
637.890686
 20
53.279167
 11
636.214294
 21
52.813488
  0
LINE
  8
0
  6
CONTINUOUS
 10
644.906128
 20
93.770813
 11
643.740295
 21
93.442886
  0
LINE
  8
0
  6
CONTINUOUS
 10
644.906128
 20
162.821854
 11
636.198914
 21
165.270813
  0
ARC
  8
0
  6
CONTINUOUS
 10
547.552490
 20
158.008606
 40
5.000000
 50
105.709000
 51
180.000000
  0
ARC
  8
0
  6
CONTINUOUS
 10
547.552490
 20
98.584099
 40
5.000000
 50
180.000000
 51
254.291702
  0
ARC
  8
0
  6
CONTINUOUS
 10
554.552490
 20
58.096786
 40
5.000000
 50
180.000000
 51
254.476196
  0
ARC
  8
0
  6
CONTINUOUS
 10
636.552490
 20
58.096748
 40
5.000000
 50
-74.475708
 51
0.000000
  0
ARC
  8
0
  6
CONTINUOUS
 10
643.552490
 20
98.584061
 40
5.000000
 50
-74.291199
 51
0.000000
  0
ARC
  8
0
  6
CONTINUOUS
 10
643.552490
 20
158.008575
 40
5.000000
 50
0.000000
 51
74.291527
  0
ARC
  8
0
  6
CONTINUOUS
 10
644.552490
 20
90.554947
 40
3.000000
 50
105.709000
 51
180.000000
  0
ARC
  8
0
  6
CONTINUOUS
 10
546.552490
 20
90.554916
 40
3.000000
 50
0.000000
 51
74.291397
  0
ARC
  8
0
  6
CONTINUOUS
 10
553.552490
 20
170.084061
 40
5.000000
 50
-74.291199
 51
0.000000
  0
ARC
  8
0
  6
CONTINUOUS
 10
637.552490
 20
170.084091
 40
5.000000
 50
180.000000
 51
254.291702
  0
ARC
  8
0
  6
CONTINUOUS
 10
637.552490
 20
47.995930
 40
5.000000
 50
105.524399
 51
180.000000
  0
ARC
  8
0
  6
CONTINUOUS
 10
553.552490
 20
47.995888
 40
5.000000
 50
0.000000
 51
74.475952
  0
LINE
  8
0
  6
CONTINUOUS
 10
623.052490
 20
8.296328
 11
622.052490
 21
9.296328
  0
LINE
  8
0
  6
CONTINUOUS
 10
568.052490
 20
8.296328
 11
569.052490
 21
9.296328
  0
LINE
  8
0
  6
CENTER
 10
518.653748
 20
92.296326
 11
675.073730
 21
92.296326
  0
LINE
  8
0
  6
CONTINUOUS
 10
320.052490
 20
124.296371
 11
320.052490
 21
132.296371
  0
LINE
  8
0
  6
CONTINUOUS
 10
327.052490
 20
124.296387
 11
327.052490
 21
132.296387
  0
LINE
  8
0
  6
CONTINUOUS
 10
327.052490
 20
124.296387
 11
320.052490
 21
124.296371
  0
LINE
  8
0
  6
CONTINUOUS
 10
327.052490
 20
132.296387
 11
320.052490
 21
132.296371
  0
ARC
  8
0
  6
CONTINUOUS
 10
310.052490
 20
128.296326
 40
14.000000
 50
16.601500
 51
343.398499
  0
LINE
  8
0
  6
CONTINUOUS
 10
495.552490
 20
114.296326
 11
495.552490
 21
142.296326
  0
LINE
  8
0
  6
CONTINUOUS
 10
540.552490
 20
142.296326
 11
495.552490
 21
142.296326
  0
LINE
  8
0
  6
CONTINUOUS
 10
540.552490
 20
114.296326
 11
495.552490
 21
114.296326
  0
LINE
  8
0
  6
CONTINUOUS
 10
540.552490
 20
143.296326
 11
540.552490
 21
113.296326
  0
LINE
  8
0
  6
CONTINUOUS
 10
542.552490
 20
113.296326
 11
540.552490
 21
113.296326
  0
ARC
  8
0
  6
CONTINUOUS
 10
531.552490
 20
128.296326
 40
4.000000
 50
-90.000000
 51
90.000000
  0
LINE
  8
0
  6
CONTINUOUS
 10
531.552490
 20
132.296326
 11
495.552490
 21
132.296326
  0
LINE
  8
0
  6
CONTINUOUS
 10
531.552490
 20
124.296326
 11
495.552490
 21
124.296326
  0
LINE
  8
0
  6
CONTINUOUS
 10
542.552490
 20
143.296326
 11
540.552490
 21
143.296326
  0
LINE
  8
0
  6
CONTINUOUS
 10
695.552490
 20
114.296326
 11
695.552490
 21
142.296326
  0
LINE
  8
0
  6
CONTINUOUS
 10
650.552490
 20
142.296326
 11
695.552490
 21
142.296326
  0
LINE
  8
0
  6
CONTINUOUS
 10
650.552490
 20
114.296326
 11
695.552490
 21
114.296326
  0
LINE
  8
0
  6
CONTINUOUS
 10
650.552490
 20
143.296326
 11
650.552490
 21
113.296326
  0
LINE
  8
0
  6
CONTINUOUS
 10
648.552490
 20
113.296326
 11
650.552490
 21
113.296326
  0
ARC
  8
0
  6
CONTINUOUS
 10
659.552490
 20
128.296326
 40
4.000000
 50
90.000000
 51
270.000000
  0
LINE
  8
0
  6
CONTINUOUS
 10
659.552490
 20
132.296326
 11
695.552490
 21
132.296326
  0
LINE
  8
0
  6
CONTINUOUS
 10
659.552490
 20
124.296326
 11
695.552490
 21
124.296326
  0
LINE
  8
0
  6
CONTINUOUS
 10
648.552490
 20
143.296326
 11
650.552490
 21
143.296326
  0
LINE
  8
0
  6
CONTINUOUS
 10
221.052505
 20
156.296432
 11
227.552505
 21
156.296432
  0
LINE
  8
0
  6
CONTINUOUS
 10
221.052505
 20
28.296230
 11
227.552505
 21
28.296230
  0
LINE
  8
0
  6
CONTINUOUS
 10
173.052505
 20
124.296326
 11
219.052505
 21
125.902687
  0
LINE
  8
0
  6
CONTINUOUS
 10
227.552505
 20
32.393147
 11
173.052505
 21
34.296329
  0
ARC
  8
0
  6
CONTINUOUS
 10
221.052521
 20
154.296448
 40
2.000000
 50
90.000000
 51
180.000000
  0
ARC
  8
0
  6
CONTINUOUS
 10
221.052505
 20
30.296230
 40
2.000000
 50
180.260773
 51
270.000000
  0
LINE
  8
0
  6
CENTER
 10
-16.601250
 20
79.296326
 11
271.302490
 21
79.296326
  0
LINE
  8
0
  6
CONTINUOUS
 10
173.052505
 20
124.296326
 11
173.052505
 21
34.296329
  0
LINE
  8
0
  6
CONTINUOUS
 10
218.320267
 20
132.064102
 11
212.605759
 21
126.349586
  0
LINE
  8
0
  6
CONTINUOUS
 10
249.815872
 20
411.021301
 11
368.958557
 21
411.021301
  0
ARC
  8
0
  6
CONTINUOUS
 10
368.958557
 20
408.021301
 40
3.000000
 50
1.000000
 51
90.000000
  0
LINE
  8
0
  6
CONTINUOUS
 10
355.046753
 20
416.375031
 11
355.937195
 21
413.209076
  0
ARC
  8
0
  6
CONTINUOUS
 10
358.825134
 20
414.021301
 40
3.000000
 50
195.708649
 51
270.000000
  0
ARC
  8
0
  6
CONTINUOUS
 10
241.630096
 20
428.247864
 40
3.000000
 50
1.500200
 51
77.801201
  0
LINE
  8
0
  6
CONTINUOUS
 10
244.629105
 20
428.326416
 11
244.985092
 21
414.731628
  0
ARC
  8
0
  6
CONTINUOUS
 10
242.897903
 20
434.112396
 40
3.000000
 50
-164.999893
 51
-102.198799
  0
LINE
  8
0
  6
CENTER
 10
-23.268749
 20
374.021301
 11
387.956360
 21
374.021301
  0
LINE
  8
0
  6
CONTINUOUS
 10
261.067383
 20
311.021301
 11
296.052490
 21
311.021301
  0
LINE
  8
0
  6
CONTINUOUS
 10
372.552490
 20
374.021301
 11
371.906677
 21
411.021301
  0
LINE
  8
0
  6
CONTINUOUS
 10
363.742401
 20
433.713959
 11
371.906677
 21
411.021301
  0
ARC
  8
0
  6
CONTINUOUS
 10
359.037628
 20
432.021301
 40
5.000000
 50
19.787489
 51
90.000000
  0
LINE
  8
0
  6
CONTINUOUS
 10
372.552490
 20
374.021301
 11
371.906677
 21
337.021301
  0
LINE
  8
0
  6
CONTINUOUS
 10
363.742401
 20
314.328644
 11
371.906677
 21
337.021301
  0
ARC
  8
0
  6
CONTINUOUS
 10
359.037628
 20
316.021301
 40
5.000000
 50
-90.000000
 51
-19.787489
  0
LINE
  8
0
  6
CONTINUOUS
 10
249.815872
 20
411.021301
 11
368.958557
 21
411.021301
  0
LINE
  8
0
  6
CENTER
 10
310.052490
 20
254.783752
 11
310.052490
 21
485.127502
  0
ARC
  8
0
  6
CONTINUOUS
 10
368.958557
 20
408.021301
 40
3.000000
 50
1.000000
 51
90.000000
  0
ARC
  8
0
  6
CONTINUOUS
 10
368.958557
 20
340.021301
 40
3.000000
 50
-90.000000
 51
-1.000000
  0
LINE
  8
0
  6
CONTINUOUS
 10
249.889099
 20
337.021301
 11
368.958557
 21
337.021301
  0
LINE
  8
0
  6
CONTINUOUS
 10
339.764771
 20
427.021301
 11
280.340240
 21
427.021301
  0
LINE
  8
0
  6
CONTINUOUS
 10
344.578003
 20
423.375031
 11
345.521240
 21
420.021301
  0
ARC
  8
0
  6
CONTINUOUS
 10
339.764771
 20
422.021301
 40
5.000000
 50
15.708638
 51
90.000000
  0
LINE
  8
0
  6
CONTINUOUS
 10
345.521240
 20
420.021301
 11
350.233521
 21
420.021301
  0
ARC
  8
0
  6
CONTINUOUS
 10
350.233521
 20
415.021301
 40
5.000000
 50
15.708638
 51
90.000000
  0
LINE
  8
0
  6
CONTINUOUS
 10
275.526978
 20
423.375031
 11
274.583740
 21
420.021301
  0
ARC
  8
0
  6
CONTINUOUS
 10
280.340240
 20
422.021301
 40
5.000000
 50
90.000000
 51
164.291367
  0
LINE
  8
0
  6
CONTINUOUS
 10
274.583740
 20
420.021301
 11
269.871490
 21
420.021301
  0
LINE
  8
0
  6
CONTINUOUS
 10
265.058228
 20
416.375031
 11
264.167816
 21
413.209076
  0
ARC
  8
0
  6
CONTINUOUS
 10
269.871490
 20
415.021301
 40
5.000000
 50
90.000000
 51
164.291367
  0
ARC
  8
0
  6
CONTINUOUS
 10
261.279846
 20
414.021301
 40
3.000000
 50
-90.000000
 51
-15.708638
  0
LINE
  8
0
  6
CONTINUOUS
 10
339.764771
 20
321.021301
 11
280.340240
 21
321.021301
  0
LINE
  8
0
  6
CONTINUOUS
 10
344.578003
 20
324.667572
 11
345.521240
 21
328.021301
  0
ARC
  8
0
  6
CONTINUOUS
 10
339.764771
 20
326.021301
 40
5.000000
 50
-90.000000
 51
-15.708638
  0
LINE
  8
0
  6
CONTINUOUS
 10
345.521240
 20
328.021301
 11
350.233521
 21
328.021301
  0
LINE
  8
0
  6
CONTINUOUS
 10
355.046753
 20
331.667572
 11
355.937195
 21
334.833527
  0
ARC
  8
0
  6
CONTINUOUS
 10
350.233521
 20
333.021301
 40
5.000000
 50
-90.000000
 51
-15.708638
  0
ARC
  8
0
  6
CONTINUOUS
 10
358.825134
 20
334.021301
 40
3.000000
 50
-270.000000
 51
-195.708633
  0
LINE
  8
0
  6
CONTINUOUS
 10
275.526978
 20
324.667572
 11
274.583740
 21
328.021301
  0
ARC
  8
0
  6
CONTINUOUS
 10
280.340240
 20
326.021301
 40
5.000000
 50
-164.291367
 51
-90.000000
  0
LINE
  8
0
  6
CONTINUOUS
 10
274.583740
 20
328.021301
 11
269.871490
 21
328.021301
  0
LINE
  8
0
  6
CONTINUOUS
 10
265.058228
 20
331.667572
 11
264.167816
 21
334.833527
  0
ARC
  8
0
  6
CONTINUOUS
 10
269.871490
 20
333.021301
 40
5.000000
 50
-164.291367
 51
-90.000000
  0
ARC
  8
0
  6
CONTINUOUS
 10
261.279846
 20
334.021301
 40
3.000000
 50
15.708638
 51
90.000000
  0
LINE
  8
0
  6
CONTINUOUS
 10
256.362610
 20
433.713959
 11
248.284760
 21
411.261505
  0
ARC
  8
0
  6
CONTINUOUS
 10
261.067383
 20
432.021301
 40
5.000000
 50
90.000000
 51
160.212509
  0
LINE
  8
0
  6
CONTINUOUS
 10
256.362610
 20
314.328644
 11
248.300598
 21
336.737061
  0
ARC
  8
0
  6
CONTINUOUS
 10
261.067383
 20
316.021301
 40
5.000000
 50
199.787491
 51
270.000000
  0
LINE
  8
0
  6
CONTINUOUS
 10
261.067383
 20
437.021301
 11
296.052490
 21
437.021301
  0
LINE
  8
0
  6
CENTER
 10
350.052490
 20
435.134583
 11
350.052490
 21
415.693176
  0
LINE
  8
0
  6
CENTER
 10
340.141602
 20
424.021301
 11
358.660156
 21
424.021301
  0
ARC
  8
0
  6
CONTINUOUS
 10
350.052490
 20
424.021301
 40
5.500000
 50
-59.465683
 51
187.598495
  0
ARC
  8
0
  6
CONTINUOUS
 10
270.052490
 20
424.021301
 40
5.500000
 50
-7.598608
 51
239.465683
  0
LINE
  8
0
  6
CENTER
 10
270.052490
 20
435.134583
 11
270.052490
 21
415.693176
  0
LINE
  8
0
  6
CENTER
 10
279.963379
 20
424.021301
 11
261.444824
 21
424.021301
  0
ARC
  8
0
  6
CONTINUOUS
 10
270.052490
 20
324.021301
 40
5.500000
 50
-239.465683
 51
7.598608
  0
LINE
  8
0
  6
CENTER
 10
279.963379
 20
324.021301
 11
261.444824
 21
324.021301
  0
LINE
  8
0
  6
CENTER
 10
270.052490
 20
312.908020
 11
270.052490
 21
332.349426
  0
LINE
  8
0
  6
CENTER
 10
350.052490
 20
312.908020
 11
350.052490
 21
332.349426
  0
LINE
  8
0
  6
CENTER
 10
340.141602
 20
324.021301
 11
358.660156
 21
324.021301
  0
ARC
  8
0
  6
CONTINUOUS
 10
350.052490
 20
324.021301
 40
5.500000
 50
-187.598602
 51
59.465683
  0
LINE
  8
0
  6
CONTINUOUS
 10
334.052490
 20
340.021301
 11
334.052490
 21
408.021301
  0
LINE
  8
0
  6
CONTINUOUS
 10
286.052490
 20
340.021301
 11
286.052490
 21
408.021301
  0
LINE
  8
0
  6
CONTINUOUS
 10
245.132797
 20
333.315399
 11
239.884171
 21
313.727203
  0
LINE
  8
0
  6
CONTINUOUS
 10
244.629105
 20
319.169250
 11
244.985092
 21
332.764069
  0
ARC
  8
0
  6
CONTINUOUS
 10
241.630096
 20
319.247864
 40
3.000000
 50
282.198792
 51
358.499786
  0
ARC
  8
0
  6
CONTINUOUS
 10
242.897903
 20
313.383270
 40
3.000000
 50
102.198799
 51
165.000031
  0
ARC
  8
0
  6
CONTINUOUS
 10
241.630096
 20
428.247864
 40
3.000000
 50
1.500200
 51
77.801201
  0
LINE
  8
0
  6
CONTINUOUS
 10
244.629105
 20
428.326416
 11
244.985092
 21
414.731628
  0
ARC
  8
0
  6
CONTINUOUS
 10
242.897903
 20
434.112396
 40
3.000000
 50
-164.999893
 51
-102.198799
  0
LINE
  8
0
  6
CONTINUOUS
 10
234.981293
 20
438.021301
 11
227.552505
 21
438.021301
  0
LINE
  8
0
  6
CONTINUOUS
 10
239.737656
 20
434.315369
 11
245.059494
 21
414.453796
  0
ARC
  8
0
  6
CONTINUOUS
 10
249.962418
 20
332.021301
 40
5.000000
 50
90.000000
 51
165.000031
  0
ARC
  8
0
  6
CONTINUOUS
 10
249.815872
 20
416.021301
 40
5.000000
 50
194.999847
 51
270.000000
  0
LINE
  8
0
  6
CONTINUOUS
 10
327.052490
 20
474.021301
 11
296.052490
 21
474.021301
  0
LINE
  8
0
  6
CONTINUOUS
 10
296.052490
 20
429.021301
 11
296.052490
 21
474.021301
  0
LINE
  8
0
  6
CONTINUOUS
 10
324.052490
 20
429.021301
 11
324.052490
 21
434.021301
  0
LINE
  8
0
  6
CONTINUOUS
 10
295.052490
 20
429.021301
 11
325.052490
 21
429.021301
  0
LINE
  8
0
  6
CONTINUOUS
 10
325.052490
 20
427.021301
 11
325.052490
 21
429.021301
  0
LINE
  8
0
  6
CONTINUOUS
 10
295.052490
 20
427.021301
 11
295.052490
 21
429.021301
  0
LINE
  8
0
  6
CONTINUOUS
 10
327.052490
 20
437.021301
 11
359.037628
 21
437.021301
  0
LINE
  8
0
  6
CONTINUOUS
 10
323.468903
 20
434.021301
 11
327.052490
 21
434.021301
  0
LINE
  8
0
  6
CONTINUOUS
 10
323.468903
 20
434.021301
 11
323.468903
 21
474.021301
  0
LINE
  8
0
  6
CONTINUOUS
 10
327.052490
 20
474.021301
 11
327.052490
 21
434.021301
  0
LINE
  8
0
  6
CONTINUOUS
 10
327.052490
 20
274.021301
 11
296.052490
 21
274.021301
  0
LINE
  8
0
  6
CONTINUOUS
 10
296.052490
 20
319.021301
 11
296.052490
 21
274.021301
  0
LINE
  8
0
  6
CONTINUOUS
 10
324.052490
 20
319.021301
 11
324.052490
 21
314.021301
  0
LINE
  8
0
  6
CONTINUOUS
 10
295.052490
 20
319.021301
 11
325.052490
 21
319.021301
  0
LINE
  8
0
  6
CONTINUOUS
 10
325.052490
 20
321.021301
 11
325.052490
 21
319.021301
  0
LINE
  8
0
  6
CONTINUOUS
 10
295.052490
 20
321.021301
 11
295.052490
 21
319.021301
  0
LINE
  8
0
  6
CONTINUOUS
 10
323.468903
 20
314.021301
 11
327.052490
 21
314.021301
  0
LINE
  8
0
  6
CONTINUOUS
 10
323.468903
 20
314.021301
 11
323.468903
 21
274.021301
  0
LINE
  8
0
  6
CONTINUOUS
 10
327.052490
 20
274.021301
 11
327.052490
 21
314.021301
  0
LINE
  8
0
  6
CONTINUOUS
 10
327.052490
 20
311.021301
 11
359.037628
 21
311.021301
  0
LINE
  8
0
  6
CONTINUOUS
 10
227.552505
 20
310.021301
 11
235.054535
 21
310.021301
  0
ARC
  8
0
  6
CONTINUOUS
 10
235.054535
 20
315.021301
 40
5.000000
 50
270.000000
 51
345.000031
  0
ARC
  8
0
  6
CONTINUOUS
 10
234.908035
 20
433.021301
 40
5.000000
 50
14.999846
 51
90.000000
  0
LINE
  8
0
  6
CONTINUOUS
 10
247.552505
 20
374.021301
 11
248.146881
 21
408.073669
  0
LINE
  8
0
  6
CONTINUOUS
 10
247.552505
 20
374.021301
 11
248.146881
 21
339.968933
  0
ARC
  8
0
  6
CONTINUOUS
 10
251.146423
 20
408.021301
 40
3.000000
 50
90.000000
 51
179.000000
  0
ARC
  8
0
  6
CONTINUOUS
 10
251.146423
 20
340.021301
 40
3.000000
 50
181.000000
 51
270.000000
  0
LINE
  8
0
  6
CONTINUOUS
 10
245.998138
 20
156.296432
 11
227.552505
 21
156.296432
  0
LINE
  8
0
  6
CONTINUOUS
 10
227.552505
 20
28.296230
 11
242.552505
 21
28.296230
  0
ARC
  8
0
  6
CONTINUOUS
 10
242.552521
 20
23.296211
 40
5.000000
 50
0.000000
 51
90.000000
  0
LINE
  8
0
  6
CONTINUOUS
 10
535.797119
 20
23.920303
 11
555.307861
 21
27.672365
  0
ARC
  8
0
  6
CONTINUOUS
 10
595.552490
 20
92.296326
 40
64.000099
 50
-54.681290
 51
20.105476
  0
ARC
  8
0
  6
CONTINUOUS
 10
595.552490
 20
92.296326
 40
64.000099
 50
159.894516
 51
234.681290
  0
ARC
  8
0
  6
CONTINUOUS
 10
536.552490
 20
19.296328
 40
4.000000
 50
90.000000
 51
180.000000
  0
ARC
  8
0
  6
CONTINUOUS
 10
536.552490
 20
19.992266
 40
4.000000
 50
100.885529
 51
180.000000
  0
ARC
  8
0
  6
CONTINUOUS
 10
554.552490
 20
31.600391
 40
4.000000
 50
-79.114502
 51
0.000000
  0
ARC
  8
0
  6
CONTINUOUS
 10
554.552490
 20
27.296328
 40
4.000000
 50
-90.000000
 51
0.000000
  0
LINE
  8
0
  6
CONTINUOUS
 10
655.307861
 20
23.920303
 11
635.797119
 21
27.672365
  0
ARC
  8
0
  6
CONTINUOUS
 10
654.552490
 20
19.296328
 40
4.000000
 50
0.000000
 51
90.000000
  0
ARC
  8
0
  6
CONTINUOUS
 10
654.552490
 20
19.992266
 40
4.000000
 50
0.000000
 51
79.114471
  0
ARC
  8
0
  6
CONTINUOUS
 10
636.552490
 20
31.600391
 40
4.000000
 50
180.000000
 51
259.114502
  0
ARC
  8
0
  6
CONTINUOUS
 10
636.552490
 20
27.296328
 40
4.000000
 50
180.000000
 51
270.000000
  0
LINE
  8
0
  6
CONTINUOUS
 10
291.494385
 20
28.296328
 11
328.610626
 21
28.296328
  0
LINE
  8
0
  6
CONTINUOUS
 10
289.151764
 20
27.170403
 11
286.953278
 21
24.422255
  0
ARC
  8
0
  6
CONTINUOUS
 10
284.610657
 20
26.296328
 40
3.000000
 50
270.000000
 51
321.340454
  0
ARC
  8
0
  6
CONTINUOUS
 10
291.494385
 20
25.296328
 40
3.000000
 50
90.000000
 51
141.340454
  0
LINE
  8
0
  6
CONTINUOUS
 10
330.953247
 20
27.170403
 11
333.151733
 21
24.422255
  0
ARC
  8
0
  6
CONTINUOUS
 10
335.494354
 20
26.296328
 40
3.000000
 50
-141.340454
 51
-90.000000
  0
ARC
  8
0
  6
CONTINUOUS
 10
328.610626
 20
25.296328
 40
3.000000
 50
38.659546
 51
90.000000
  0
ARC
  8
0
  6
CONTINUOUS
 10
245.998138
 20
161.296432
 40
5.000000
 50
270.000000
 51
304.539978
  0
LINE
  8
0
  6
CONTINUOUS
 10
227.552505
 20
438.021301
 11
227.552505
 21
310.021301
  0
LINE
  8
0
  6
CONTINUOUS
 10
246.052505
 20
143.896332
 11
247.552505
 21
143.896332
  0
LINE
  8
0
  6
CONTINUOUS
 10
246.052505
 20
40.696346
 11
247.552505
 21
40.696346
  0
ARC
  8
0
  6
CONTINUOUS
 10
430.005707
 20
92.296326
 40
191.053177
 50
164.330902
 51
195.669098
  0
ARC
  8
0
  6
CONTINUOUS
 10
430.005707
 20
92.296326
 40
190.053177
 50
178.548599
 51
181.478500
  0
LINE
  8
0
  6
CONTINUOUS
 10
242.052505
 20
97.296326
 11
241.047699
 21
97.296326
  0
LINE
  8
0
  6
CONTINUOUS
 10
244.552505
 20
94.796326
 11
244.552505
 21
89.796326
  0
ARC
  8
0
  6
CONTINUOUS
 10
241.047699
 20
98.294731
 40
1.000000
 50
178.182098
 51
270.000000
  0
ARC
  8
0
  6
CONTINUOUS
 10
242.052505
 20
94.796326
 40
2.500000
 50
0.000000
 51
90.000000
  0
LINE
  8
0
  6
CONTINUOUS
 10
242.052505
 20
87.296326
 11
241.047699
 21
87.296326
  0
ARC
  8
0
  6
CONTINUOUS
 10
241.047699
 20
86.297928
 40
1.000000
 50
-270.000000
 51
-178.182098
  0
ARC
  8
0
  6
CONTINUOUS
 10
242.052505
 20
89.796326
 40
2.500000
 50
-90.000000
 51
0.000000
  0
LINE
  8
0
  6
CONTINUOUS
 10
173.052505
 20
58.790329
 11
217.052505
 21
58.790329
  0
LINE
  8
0
  6
CONTINUOUS
 10
173.052505
 20
43.777328
 11
227.552505
 21
43.777328
  0
LINE
  8
0
  6
CONTINUOUS
 10
219.620468
 20
51.729328
 11
227.552505
 21
51.729328
  0
LINE
  8
0
  6
CONTINUOUS
 10
219.052505
 20
52.944061
 11
219.052505
 21
154.296448
  0
ARC
  8
0
  6
CONTINUOUS
 10
216.552551
 20
30.275749
 40
2.500000
 50
0.260773
 51
88.000000
  0
ARC
  8
0
  6
CONTINUOUS
 10
216.552505
 20
133.831863
 40
2.500000
 50
-45.000000
 51
0.000000
  0
ARC
  8
0
  6
CONTINUOUS
 10
210.837982
 20
128.117355
 40
2.500000
 50
272.000000
 51
315.000000
  0
LINE
  8
0
  6
CONTINUOUS
 10
219.052505
 20
312.021301
 11
219.052505
 21
436.021301
  0
LINE
  8
0
  6
CONTINUOUS
 10
173.052505
 20
419.021301
 11
216.616119
 21
420.542572
  0
LINE
  8
0
  6
CONTINUOUS
 10
173.052505
 20
329.021301
 11
216.616119
 21
327.500031
  0
LINE
  8
0
  6
CONTINUOUS
 10
173.052505
 20
423.033295
 11
173.052505
 21
325.009308
  0
LINE
  8
0
  6
CONTINUOUS
 10
221.052505
 20
438.021301
 11
227.552505
 21
438.021301
  0
LINE
  8
0
  6
CONTINUOUS
 10
221.052505
 20
310.021301
 11
227.552505
 21
310.021301
  0
LINE
  8
0
  6
CONTINUOUS
 10
211.909500
 20
398.021301
 11
219.024475
 21
398.021301
  0
LINE
  8
0
  6
CONTINUOUS
 10
212.514648
 20
350.021301
 11
219.024475
 21
350.021301
  0
LINE
  8
0
  6
CONTINUOUS
 10
211.909500
 20
395.816803
 11
211.909500
 21
352.104218
  0
LINE
  8
0
  6
CONTINUOUS
 10
164.052505
 20
417.021301
 11
164.052505
 21
403.021271
  0
LINE
  8
0
  6
CONTINUOUS
 10
54.052502
 20
419.021301
 11
173.052505
 21
419.021301
  0
LINE
  8
0
  6
CONTINUOUS
 10
54.052502
 20
329.021301
 11
173.052505
 21
329.021301
  0
ARC
  8
0
  6
CONTINUOUS
 10
166.052505
 20
417.021332
 40
2.000000
 50
90.000000
 51
180.000000
  0
ARC
  8
0
  6
CONTINUOUS
 10
166.052505
 20
331.021301
 40
2.000000
 50
180.000000
 51
270.000000
  0
LINE
  8
0
  6
CONTINUOUS
 10
173.052505
 20
419.021301
 11
173.052505
 21
329.021301
  0
ARC
  8
0
  6
CONTINUOUS
 10
221.052505
 20
436.021301
 40
2.000000
 50
90.000000
 51
180.000000
  0
ARC
  8
0
  6
CONTINUOUS
 10
221.052505
 20
312.021301
 40
2.000000
 50
180.000000
 51
270.000000
  0
ARC
  8
0
  6
CONTINUOUS
 10
216.528870
 20
423.041046
 40
2.500000
 50
272.000000
 51
359.895721
  0
ARC
  8
0
  6
CONTINUOUS
 10
216.528870
 20
325.001556
 40
2.500000
 50
0.104292
 51
88.000000
  0
LINE
  8
0
  6
CONTINUOUS
 10
219.052505
 20
420.627655
 11
219.024475
 21
420.626678
  0
LINE
  8
0
  6
CONTINUOUS
 10
173.552200
 20
423.550751
 11
219.052505
 21
425.139648
  0
LINE
  8
0
  6
CONTINUOUS
 10
173.052505
 20
423.033295
 11
173.552200
 21
423.550751
  0
LINE
  8
0
  6
CONTINUOUS
 10
173.552200
 20
324.491852
 11
219.052505
 21
322.902954
  0
LINE
  8
0
  6
CONTINUOUS
 10
173.052505
 20
325.009308
 11
173.552200
 21
324.491852
  0
LINE
  8
0
  6
CONTINUOUS
 10
44.552502
 20
419.021301
 11
54.052502
 21
419.021301
  0
LINE
  8
0
  6
CONTINUOUS
 10
45.052490
 20
403.021301
 11
44.552502
 21
403.021301
  0
LINE
  8
0
  6
CONTINUOUS
 10
44.552502
 20
329.021301
 11
54.052502
 21
329.021301
  0
LINE
  8
0
  6
CONTINUOUS
 10
54.052502
 20
329.021301
 11
54.052502
 21
343.021271
  0
LINE
  8
0
  6
CONTINUOUS
 10
45.052490
 20
345.021301
 11
44.552502
 21
345.021301
  0
LINE
  8
0
  6
CONTINUOUS
 10
54.052502
 20
405.021271
 11
54.052502
 21
419.021301
  0
LINE
  8
0
  6
CONTINUOUS
 10
44.552502
 20
421.021301
 11
44.552502
 21
327.021301
  0
LINE
  8
0
  6
CONTINUOUS
 10
44.552502
 20
403.021301
 11
0.577470
 21
403.021301
  0
LINE
  8
0
  6
CONTINUOUS
 10
44.552502
 20
345.021301
 11
0.577470
 21
345.021301
  0
LINE
  8
0
  6
CONTINUOUS
 10
2.052480
 20
421.021301
 11
44.552502
 21
421.021301
  0
LINE
  8
0
  6
CONTINUOUS
 10
2.052480
 20
327.021301
 11
44.552502
 21
327.021301
  0
ARC
  8
0
  6
CONTINUOUS
 10
2.052510
 20
416.021301
 40
5.000000
 50
90.000000
 51
180.000000
  0
ARC
  8
0
  6
CONTINUOUS
 10
2.052480
 20
332.021301
 40
5.000000
 50
180.000000
 51
270.000000
  0
LINE
  8
0
  6
CONTINUOUS
 10
-2.947490
 20
416.021301
 11
-2.947520
 21
332.021301
  0
LINE
  8
0
  6
CONTINUOUS
 10
44.552502
 20
124.296326
 11
54.052502
 21
124.296326
  0
LINE
  8
0
  6
CONTINUOUS
 10
54.052502
 20
113.705627
 11
44.552502
 21
113.705627
  0
LINE
  8
0
  6
CONTINUOUS
 10
44.552502
 20
34.296329
 11
54.052502
 21
34.296329
  0
LINE
  8
0
  6
CONTINUOUS
 10
54.052502
 20
44.887039
 11
44.552502
 21
44.887039
  0
LINE
  8
0
  6
CONTINUOUS
 10
44.552502
 20
126.296326
 11
44.552502
 21
32.296329
  0
LINE
  8
0
  6
CONTINUOUS
 10
44.552502
 20
108.296326
 11
0.577470
 21
108.296326
  0
LINE
  8
0
  6
CONTINUOUS
 10
44.552502
 20
50.296329
 11
0.577470
 21
50.296329
  0
LINE
  8
0
  6
CONTINUOUS
 10
2.052480
 20
126.296326
 11
44.552502
 21
126.296326
  0
LINE
  8
0
  6
CONTINUOUS
 10
2.052480
 20
32.296329
 11
44.552502
 21
32.296329
  0
ARC
  8
0
  6
CONTINUOUS
 10
2.052510
 20
121.296326
 40
5.000000
 50
90.000000
 51
180.000000
  0
ARC
  8
0
  6
CONTINUOUS
 10
2.052480
 20
37.296329
 40
5.000000
 50
180.000000
 51
270.000000
  0
LINE
  8
0
  6
CONTINUOUS
 10
-2.947490
 20
121.296326
 11
-2.947520
 21
37.296318
  0
LINE
  8
0
  6
CONTINUOUS
 10
54.052502
 20
34.296329
 11
54.052502
 21
124.296326
  0
LINE
  8
0
  6
CONTINUOUS
 10
45.052490
 20
403.021271
 11
45.052490
 21
345.021271
  0
LINE
  8
0
  6
CONTINUOUS
 10
107.052490
 20
345.021271
 11
107.052490
 21
403.021271
  0
LINE
  8
0
  6
CONTINUOUS
 10
47.052490
 20
405.021271
 11
105.052490
 21
405.021271
  0
LINE
  8
0
  6
CONTINUOUS
 10
47.052490
 20
343.021271
 11
105.052490
 21
343.021271
  0
LINE
  8
0
  6
CONTINUOUS
 10
105.052490
 20
405.021271
 11
107.052490
 21
403.021271
  0
LINE
  8
0
  6
CONTINUOUS
 10
107.052490
 20
345.021271
 11
105.052490
 21
343.021271
  0
LINE
  8
0
  6
CONTINUOUS
 10
45.052490
 20
345.021271
 11
47.052490
 21
343.021271
  0
LINE
  8
0
  6
CONTINUOUS
 10
45.052490
 20
403.021271
 11
47.052490
 21
405.021271
  0
LINE
  8
0
  6
CONTINUOUS
 10
99.052490
 20
400.021271
 11
99.052490
 21
405.021271
  0
LINE
  8
0
  6
CONTINUOUS
 10
102.052490
 20
397.021271
 11
107.052490
 21
397.021271
  0
CIRCLE
  8
0
  6
CONTINUOUS
 10
103.052490
 20
401.021271
 40
2.250000
  0
ARC
  8
0
  6
CONTINUOUS
 10
102.052490
 20
400.021271
 40
3.000000
 50
180.000000
 51
270.000000
  0
LINE
  8
0
  6
CONTINUOUS
 10
106.052490
 20
396.021271
 11
106.052490
 21
352.021271
  0
LINE
  8
0
  6
CONTINUOUS
 10
102.052490
 20
396.021271
 11
106.052490
 21
396.021271
  0
ARC
  8
0
  6
CONTINUOUS
 10
102.052490
 20
400.021271
 40
4.000000
 50
180.000000
 51
270.000000
  0
LINE
  8
0
  6
CONTINUOUS
 10
98.052490
 20
404.021271
 11
98.052490
 21
400.021271
  0
LINE
  8
0
  6
CONTINUOUS
 10
106.052490
 20
396.021271
 11
107.052490
 21
397.021271
  0
LINE
  8
0
  6
CONTINUOUS
 10
54.052490
 20
404.021271
 11
98.052490
 21
404.021271
  0
LINE
  8
0
  6
CONTINUOUS
 10
98.052490
 20
404.021271
 11
99.052490
 21
405.021271
  0
LINE
  8
0
  6
CONTINUOUS
 10
50.052490
 20
397.021271
 11
45.052490
 21
397.021271
  0
LINE
  8
0
  6
CONTINUOUS
 10
53.052490
 20
400.021271
 11
53.052490
 21
405.021271
  0
CIRCLE
  8
0
  6
CONTINUOUS
 10
49.052490
 20
401.021271
 40
2.250000
  0
ARC
  8
0
  6
CONTINUOUS
 10
50.052490
 20
400.021271
 40
3.000000
 50
-90.000000
 51
0.000000
  0
LINE
  8
0
  6
CONTINUOUS
 10
54.052490
 20
400.021271
 11
54.052490
 21
404.021271
  0
ARC
  8
0
  6
CONTINUOUS
 10
50.052490
 20
400.021271
 40
4.000000
 50
-90.000000
 51
0.000000
  0
LINE
  8
0
  6
CONTINUOUS
 10
46.052490
 20
396.021271
 11
50.052490
 21
396.021271
  0
LINE
  8
0
  6
CONTINUOUS
 10
54.052490
 20
404.021271
 11
53.052490
 21
405.021271
  0
LINE
  8
0
  6
CONTINUOUS
 10
46.052490
 20
396.021271
 11
45.052490
 21
397.021271
  0
LINE
  8
0
  6
CONTINUOUS
 10
53.052490
 20
348.021271
 11
53.052490
 21
343.021271
  0
LINE
  8
0
  6
CONTINUOUS
 10
50.052490
 20
351.021271
 11
45.052490
 21
351.021271
  0
CIRCLE
  8
0
  6
CONTINUOUS
 10
49.052490
 20
347.021271
 40
2.250000
  0
ARC
  8
0
  6
CONTINUOUS
 10
50.052490
 20
348.021271
 40
3.000000
 50
0.000000
 51
90.000000
  0
LINE
  8
0
  6
CONTINUOUS
 10
50.052490
 20
352.021271
 11
46.052490
 21
352.021271
  0
ARC
  8
0
  6
CONTINUOUS
 10
50.052490
 20
348.021271
 40
4.000000
 50
0.000000
 51
90.000000
  0
LINE
  8
0
  6
CONTINUOUS
 10
54.052490
 20
344.021271
 11
54.052490
 21
348.021271
  0
LINE
  8
0
  6
CONTINUOUS
 10
46.052490
 20
352.021271
 11
45.052490
 21
351.021271
  0
LINE
  8
0
  6
CONTINUOUS
 10
54.052490
 20
344.021271
 11
53.052490
 21
343.021271
  0
LINE
  8
0
  6
CONTINUOUS
 10
102.052490
 20
351.021271
 11
107.052490
 21
351.021271
  0
LINE
  8
0
  6
CONTINUOUS
 10
99.052490
 20
348.021271
 11
99.052490
 21
343.021271
  0
CIRCLE
  8
0
  6
CONTINUOUS
 10
103.052490
 20
347.021271
 40
2.250000
  0
ARC
  8
0
  6
CONTINUOUS
 10
102.052490
 20
348.021271
 40
3.000000
 50
90.000000
 51
180.000000
  0
LINE
  8
0
  6
CONTINUOUS
 10
98.052490
 20
348.021271
 11
98.052490
 21
344.021271
  0
ARC
  8
0
  6
CONTINUOUS
 10
102.052490
 20
348.021271
 40
4.000000
 50
90.000000
 51
180.000000
  0
LINE
  8
0
  6
CONTINUOUS
 10
106.052490
 20
352.021271
 11
102.052490
 21
352.021271
  0
LINE
  8
0
  6
CONTINUOUS
 10
98.052490
 20
344.021271
 11
99.052490
 21
343.021271
  0
LINE
  8
0
  6
CONTINUOUS
 10
106.052490
 20
352.021271
 11
107.052490
 21
351.021271
  0
LINE
  8
0
  6
CONTINUOUS
 10
54.052490
 20
344.021271
 11
98.052490
 21
344.021271
  0
LINE
  8
0
  6
CONTINUOUS
 10
46.052490
 20
396.021271
 11
46.052490
 21
352.021271
  0
LINE
  8
0
  6
CENTER
 10
76.052490
 20
410.267517
 11
76.052490
 21
337.574707
  0
LINE
  8
0
  6
CONTINUOUS
 10
107.052490
 20
403.021271
 11
164.052505
 21
403.021271
  0
LINE
  8
0
  6
CONTINUOUS
 10
107.052490
 20
345.021271
 11
164.052505
 21
345.021271
  0
LINE
  8
0
  6
CONTINUOUS
 10
46.552490
 20
125.796341
 11
105.052513
 21
125.796326
  0
LINE
  8
0
  6
CONTINUOUS
 10
46.552490
 20
125.796326
 11
46.552490
 21
124.296326
  0
LINE
  8
0
  6
CONTINUOUS
 10
92.552490
 20
125.796326
 11
92.552490
 21
124.296326
  0
LINE
  8
0
  6
CONTINUOUS
 10
45.052490
 20
174.796326
 11
45.052490
 21
127.796341
  0
LINE
  8
0
  6
CONTINUOUS
 10
107.052513
 20
174.796341
 11
107.052513
 21
127.796326
  0
LINE
  8
0
  6
CONTINUOUS
 10
107.052513
 20
127.796326
 11
105.052513
 21
125.796326
  0
LINE
  8
0
  6
CONTINUOUS
 10
45.052490
 20
127.796341
 11
47.052490
 21
125.796341
  0
LINE
  8
0
  6
CONTINUOUS
 10
45.052490
 20
127.796341
 11
107.052513
 21
127.796326
  0
LINE
  8
0
  6
CONTINUOUS
 10
45.052490
 20
137.796341
 11
107.052513
 21
137.796341
  0
LINE
  8
0
  6
CENTER
 10
76.052490
 20
186.352585
 11
76.052490
 21
121.202309
  0
LINE
  8
0
  6
CONTINUOUS
 10
45.052490
 20
138.796341
 11
107.052513
 21
138.796341
  0
LINE
  8
0
  6
CONTINUOUS
 10
46.052490
 20
175.796326
 11
106.052513
 21
175.796341
  0
LINE
  8
0
  6
CONTINUOUS
 10
106.052513
 20
175.796341
 11
107.052513
 21
174.796341
  0
LINE
  8
0
  6
CONTINUOUS
 10
45.052490
 20
174.796326
 11
46.052490
 21
175.796326
  0
LINE
  8
0
  6
CONTINUOUS
 10
45.052490
 20
174.796326
 11
107.052513
 21
174.796341
  0
LINE
  8
0
  6
CENTER
 10
42.427490
 20
158.796341
 11
48.177490
 21
158.796341
  0
LINE
  8
0
  6
CONTINUOUS
 10
43.927490
 20
169.296341
 11
47.052490
 21
169.296341
  0
LINE
  8
0
  6
CONTINUOUS
 10
43.927490
 20
148.296341
 11
47.052490
 21
148.296341
  0
LINE
  8
0
  6
CONTINUOUS
 10
164.052505
 20
345.021271
 11
164.052505
 21
331.021271
  0
TEXT
  8
0
 10
-23.000000
 20
-9.000000
 40
4.000000
 41
1.000000
  1
HLMN-28T-600~900-T60WC
 50
0.000000
  0
ENDSEC
  0
EOF
