  0
SECTION
  2
HEADER
  9
$ACADVER
  1
AC1014
  9
$ACADMAINTVER
 70
     9
  9
$DWGCODEPAGE
  3
ANSI_932
  9
$INSBASE
 10
0.0
 20
0.0
 30
0.0
  9
$EXTMIN
 10
59.57058270640676
 20
69.49518137593196
 30
0.0
  9
$EXTMAX
 10
773.2190425309537
 20
572.9903997640317
 30
0.0
  9
$LIMMIN
 10
0.0
 20
0.0
  9
$LIMMAX
 10
297.0
 20
210.0
  9
$ORTHOMODE
 70
     1
  9
$REGENMODE
 70
     1
  9
$FILLMODE
 70
     1
  9
$QTEXTMODE
 70
     0
  9
$MIRRTEXT
 70
     0
  9
$DRAGMODE
 70
     2
  9
$LTSCALE
 40
3.0
  9
$OSMODE
 70
    37
  9
$ATTMODE
 70
     1
  9
$TEXTSIZE
 40
2.0
  9
$TRACEWID
 40
1.0
  9
$TEXTSTYLE
  7
STANDARD
  9
$CLAYER
  8
0
  9
$CELTYPE
  6
BYLAYER
  9
$CECOLOR
 62
   256
  9
$CELTSCALE
 40
1.0
  9
$DELOBJ
 70
     1
  9
$DISPSILH
 70
     0
  9
$DIMSCALE
 40
3.0
  9
$DIMASZ
 40
1.8
  9
$DIMEXO
 40
0.625
  9
$DIMDLI
 40
3.75
  9
$DIMRND
 40
0.0
  9
$DIMDLE
 40
0.0
  9
$DIMEXE
 40
0.8
  9
$DIMTP
 40
0.0
  9
$DIMTM
 40
0.0
  9
$DIMTXT
 40
1.8
  9
$DIMCEN
 40
2.5
  9
$DIMTSZ
 40
0.0
  9
$DIMTOL
 70
     0
  9
$DIMLIM
 70
     0
  9
$DIMTIH
 70
     0
  9
$DIMTOH
 70
     0
  9
$DIMSE1
 70
     0
  9
$DIMSE2
 70
     0
  9
$DIMTAD
 70
     1
  9
$DIMZIN
 70
     8
  9
$DIMBLK
  1

  9
$DIMASO
 70
     1
  9
$DIMSHO
 70
     1
  9
$DIMPOST
  1

  9
$DIMAPOST
  1

  9
$DIMALT
 70
     0
  9
$DIMALTD
 70
     4
  9
$DIMALTF
 40
0.0394
  9
$DIMLFAC
 40
1.0
  9
$DIMTOFL
 70
     1
  9
$DIMTVP
 40
0.0
  9
$DIMTIX
 70
     0
  9
$DIMSOXD
 70
     0
  9
$DIMSAH
 70
     0
  9
$DIMBLK1
  1

  9
$DIMBLK2
  1

  9
$DIMSTYLE
  2
STANDARD
  9
$DIMCLRD
 70
     0
  9
$DIMCLRE
 70
     0
  9
$DIMCLRT
 70
     0
  9
$DIMTFAC
 40
1.0
  9
$DIMGAP
 40
0.75
  9
$DIMJUST
 70
     0
  9
$DIMSD1
 70
     0
  9
$DIMSD2
 70
     0
  9
$DIMTOLJ
 70
     1
  9
$DIMTZIN
 70
     0
  9
$DIMALTZ
 70
     0
  9
$DIMALTTZ
 70
     0
  9
$DIMFIT
 70
     3
  9
$DIMUPT
 70
     0
  9
$DIMUNIT
 70
     8
  9
$DIMDEC
 70
     2
  9
$DIMTDEC
 70
     2
  9
$DIMALTU
 70
     8
  9
$DIMALTTD
 70
     4
  9
$DIMTXSTY
  7
STANDARD
  9
$DIMAUNIT
 70
     0
  9
$LUNITS
 70
     2
  9
$LUPREC
 70
     3
  9
$SKETCHINC
 40
1.0
  9
$FILLETRAD
 40
10.0
  9
$AUNITS
 70
     0
  9
$AUPREC
 70
     2
  9
$MENU
  1
.
  9
$ELEVATION
 40
0.0
  9
$PELEVATION
 40
0.0
  9
$THICKNESS
 40
0.0
  9
$LIMCHECK
 70
     0
  9
$BLIPMODE
 70
     0
  9
$CHAMFERA
 40
0.0
  9
$CHAMFERB
 40
0.0
  9
$CHAMFERC
 40
20.0
  9
$CHAMFERD
 40
0.0
  9
$SKPOLY
 70
     0
  9
$TDCREATE
 40
2453753.551685833
  9
$TDUPDATE
 40
2453832.465801504
  9
$TDINDWG
 40
0.2109091088
  9
$TDUSRTIMER
 40
0.2109091088
  9
$USRTIMER
 70
     1
  9
$ANGBASE
 50
0.0
  9
$ANGDIR
 70
     0
  9
$PDMODE
 70
     0
  9
$PDSIZE
 40
-10.0
  9
$PLINEWID
 40
0.0
  9
$COORDS
 70
     0
  9
$SPLFRAME
 70
     0
  9
$SPLINETYPE
 70
     6
  9
$SPLINESEGS
 70
     8
  9
$ATTDIA
 70
     0
  9
$ATTREQ
 70
     1
  9
$HANDLING
 70
-16383
  9
$HANDSEED
  5
1EF0
  9
$SURFTAB1
 70
     6
  9
$SURFTAB2
 70
     6
  9
$SURFTYPE
 70
     6
  9
$SURFU
 70
     6
  9
$SURFV
 70
     6
  9
$UCSNAME
  2

  9
$UCSORG
 10
0.0
 20
0.0
 30
0.0
  9
$UCSXDIR
 10
1.0
 20
0.0
 30
0.0
  9
$UCSYDIR
 10
0.0
 20
1.0
 30
0.0
  9
$PUCSNAME
  2

  9
$PUCSORG
 10
0.0
 20
0.0
 30
0.0
  9
$PUCSXDIR
 10
1.0
 20
0.0
 30
0.0
  9
$PUCSYDIR
 10
0.0
 20
1.0
 30
0.0
  9
$USERI1
 70
     0
  9
$USERI2
 70
     0
  9
$USERI3
 70
     0
  9
$USERI4
 70
     0
  9
$USERI5
 70
     0
  9
$USERR1
 40
0.0
  9
$USERR2
 40
0.0
  9
$USERR3
 40
0.0
  9
$USERR4
 40
0.0
  9
$USERR5
 40
0.0
  9
$WORLDVIEW
 70
     1
  9
$SHADEDGE
 70
     3
  9
$SHADEDIF
 70
    70
  9
$TILEMODE
 70
     1
  9
$MAXACTVP
 70
    48
  9
$PINSBASE
 10
0.0
 20
0.0
 30
0.0
  9
$PLIMCHECK
 70
     0
  9
$PEXTMIN
 10
3.0
 20
3.999999999999998
 30
0.0
  9
$PEXTMAX
 10
280.0
 20
194.0
 30
0.0
  9
$PLIMMIN
 10
-5.873748779296875
 20
-5.873749732971191
  9
$PLIMMAX
 10
291.05224609375
 20
204.0995779037475
  9
$UNITMODE
 70
     0
  9
$VISRETAIN
 70
     1
  9
$PLINEGEN
 70
     0
  9
$PSLTSCALE
 70
     0
  9
$TREEDEPTH
 70
  3020
  9
$PICKSTYLE
 70
     1
  9
$CMLSTYLE
  2
STANDARD
  9
$CMLJUST
 70
     0
  9
$CMLSCALE
 40
1.0
  9
$PROXYGRAPHICS
 70
     1
  9
$MEASUREMENT
 70
     0
  0
ENDSEC
  0
SECTION
  2
CLASSES
  0
CLASS
  1
DICTIONARYVAR
  2
AcDbDictionaryVar
  3
AutoCAD 2000
 90
        0
280
     0
281
     0
  0
CLASS
  1
ACDBDICTIONARYWDFLT
  2
AcDbDictionaryWithDefault
  3
AutoCAD 2000
 90
        0
280
     0
281
     0
  0
CLASS
  1
ACDBPLACEHOLDER
  2
AcDbPlaceHolder
  3
AutoCAD 2000
 90
        0
280
     0
281
     0
  0
CLASS
  1
LAYOUT
  2
AcDbLayout
  3
AutoCAD 2000
 90
        0
280
     0
281
     0
  0
CLASS
  1
LONG_TRANSACTION
  2
AcDbLongTransaction
  3
AutoCAD 2000
 90
        0
280
     0
281
     0
  0
CLASS
  1
LWPOLYLINE
  2
AcDbPolyline
  3
AutoCAD 2000
 90
        0
280
     0
281
     1
  0
CLASS
  1
HATCH
  2
AcDbHatch
  3
AutoCAD 2000
 90
        0
280
     0
281
     1
  0
CLASS
  1
XRECORD
  2
AcDbXrecord
  3
AutoCAD 2000
 90
        0
280
     0
281
     0
  0
ENDSEC
  0
SECTION
  2
TABLES
  0
TABLE
  2
VPORT
  5
6E
330
0
100
AcDbSymbolTable
 70
     2
  0
VPORT
  5
1EC5
330
6E
100
AcDbSymbolTableRecord
100
AcDbViewportTableRecord
  2
*ACTIVE
 70
     0
 10
0.0
 20
0.0
 11
1.0
 21
1.0
 12
413.9533104290157
 22
303.3257450520173
 13
0.0
 23
0.0
 14
10.0
 24
10.0
 15
10.0
 25
10.0
 16
0.0
 26
0.0
 36
1.0
 17
0.0
 27
0.0
 37
0.0
 40
543.5671232325378
 41
1.566970091027308
 42
50.0
 43
0.0
 44
0.0
 50
0.0
 51
0.0
 71
     0
 72
   100
 73
     1
 74
     3
 75
     0
 76
     0
 77
     0
 78
     0
  0
ENDTAB
  0
TABLE
  2
LTYPE
  5
69
330
0
100
AcDbSymbolTable
 70
     3
  0
LTYPE
  5
6A
330
69
100
AcDbSymbolTableRecord
100
AcDbLinetypeTableRecord
  2
BYBLOCK
 70
     0
  3

 72
    65
 73
     0
 40
0.0
  0
LTYPE
  5
6B
330
69
100
AcDbSymbolTableRecord
100
AcDbLinetypeTableRecord
  2
BYLAYER
 70
     0
  3

 72
    65
 73
     0
 40
0.0
  0
LTYPE
  5
8
330
69
100
AcDbSymbolTableRecord
100
AcDbLinetypeTableRecord
  2
CONTINUOUS
 70
     0
  3
Solid line
 72
    65
 73
     0
 40
0.0
  0
LTYPE
  5
27C
330
69
100
AcDbSymbolTableRecord
100
AcDbLinetypeTableRecord
  2
SEKKEI_A2_
 70
     0
  3
center(A2)  ____ _ ____ _ ____ _ ____ _ ____ _ 
 72
    65
 73
     4
 40
14.28749999999999
 49
9.525
 74
     0
 49
-1.587499999999999
 74
     0
 49
1.587499999999999
 74
     0
 49
-1.587499999999999
 74
     0
  0
LTYPE
  5
2B4
330
69
100
AcDbSymbolTableRecord
100
AcDbLinetypeTableRecord
  2
HIDDEN2
 70
     0
  3
Hidden (.5x) _ _ _ _ _ _ _ _ _ _ _ _ _ _ _ _ _
 72
    65
 73
     2
 40
4.762499999999999
 49
3.174999999999999
 74
     0
 49
-1.587499999999999
 74
     0
  0
ENDTAB
  0
TABLE
  2
LAYER
  5
66
330
0
100
AcDbSymbolTable
 70
     9
  0
LAYER
  5
5E
330
66
100
AcDbSymbolTableRecord
100
AcDbLayerTableRecord
  2
0
 70
     0
 62
     7
  6
CONTINUOUS
  0
LAYER
  5
3E
330
66
100
AcDbSymbolTableRecord
100
AcDbLayerTableRecord
  2
CENTER
 70
     0
 62
     3
  6
SEKKEI_A2_
  0
LAYER
  5
4
330
66
100
AcDbSymbolTableRecord
100
AcDbLayerTableRecord
  2
WAKU
 70
     0
 62
     5
  6
CONTINUOUS
  0
LAYER
  5
E4
330
66
100
AcDbSymbolTableRecord
100
AcDbLayerTableRecord
  2
TEXT
 70
     0
 62
     4
  6
CONTINUOUS
  0
LAYER
  5
135
330
66
100
AcDbSymbolTableRecord
100
AcDbLayerTableRecord
  2
DEFPOINTS
 70
     0
 62
     7
  6
CONTINUOUS
  0
LAYER
  5
2B5
330
66
100
AcDbSymbolTableRecord
100
AcDbLayerTableRecord
  2
HIDS
 70
     0
 62
     1
  6
HIDDEN2
  0
LAYER
  5
2BA
330
66
100
AcDbSymbolTableRecord
100
AcDbLayerTableRecord
  2
HOJO
 70
     0
 62
     4
  6
CONTINUOUS
  0
LAYER
  5
3FA
330
66
100
AcDbSymbolTableRecord
100
AcDbLayerTableRecord
  2
TITLE
 70
     0
 62
     4
  6
CONTINUOUS
  0
ENDTAB
  0
TABLE
  2
STYLE
  5
67
330
0
100
AcDbSymbolTable
 70
     1
  0
STYLE
  5
16
330
67
100
AcDbSymbolTableRecord
100
AcDbTextStyleTableRecord
  2
STANDARD
 70
     0
 40
0.0
 41
1.0
 50
0.0
 71
     0
 42
2.0
  3
simplex.shx
  4
extfont.shx
  0
ENDTAB
  0
TABLE
  2
VIEW
  5
6C
330
0
100
AcDbSymbolTable
 70
     0
  0
ENDTAB
  0
TABLE
  2
UCS
  5
6D
330
0
100
AcDbSymbolTable
 70
     0
  0
ENDTAB
  0
TABLE
  2
APPID
  5
70
330
0
100
AcDbSymbolTable
 70
     2
  0
APPID
  5
71
330
70
100
AcDbSymbolTableRecord
100
AcDbRegAppTableRecord
  2
ACAD
 70
     0
  0
APPID
  5
1EE9
330
70
100
AcDbSymbolTableRecord
100
AcDbRegAppTableRecord
  2
CONTENTBLOCKICON
 70
     0
  0
ENDTAB
  0
TABLE
  2
DIMSTYLE
  5
72
330
0
100
AcDbSymbolTable
 70
     1
  0
DIMSTYLE
105
73
330
72
100
AcDbSymbolTableRecord
100
AcDbDimStyleTableRecord
  2
STANDARD
 70
     0
  3

  4

  5

  6

  7

 40
3.0
 41
1.8
 42
0.625
 43
3.75
 44
0.8
 45
0.0
 46
0.0
 47
0.0
 48
0.0
140
1.8
141
2.5
142
0.0
143
0.0394
144
1.0
145
0.0
146
1.0
147
0.75
 71
     0
 72
     0
 73
     0
 74
     0
 75
     0
 76
     0
 77
     1
 78
     8
170
     0
171
     4
172
     1
173
     0
174
     0
175
     0
176
     0
177
     0
178
     0
270
     8
271
     2
272
     2
273
     8
274
     4
340
16
275
     0
280
     0
281
     0
282
     0
283
     1
284
     0
285
     0
286
     0
287
     3
288
     0
  0
ENDTAB
  0
TABLE
  2
BLOCK_RECORD
  5
1
330
0
100
AcDbSymbolTable
 70
    75
  0
BLOCK_RECORD
  5
2
102
{ACAD_XDICTIONARY
360
1EE7
102
}
330
1
100
AcDbSymbolTableRecord
100
AcDbBlockTableRecord
  2
*MODEL_SPACE
  0
BLOCK_RECORD
  5
1534
102
{ACAD_XDICTIONARY
360
1EEA
102
}
330
1
100
AcDbSymbolTableRecord
100
AcDbBlockTableRecord
  2
*PAPER_SPACE
  0
BLOCK_RECORD
  5
40C
330
1
100
AcDbSymbolTableRecord
100
AcDbBlockTableRecord
  2
外寸枠A4テンプレート
1001
CONTENTBLOCKICON
1071
        0
1004
2800000020000000200000000100080000000000000400000000000000000000000000000000000000000000000080000080000000808000800000008000800080800000C0C0C000C0DCC000F0CAA6000020400000206000002080000020A0000020C0000020E00000400000004020000040400000406000004080000040A0
1004
000040C0000040E00000600000006020000060400000606000006080000060A0000060C0000060E00000800000008020000080400000806000008080000080A0000080C0000080E00000A0000000A0200000A0400000A0600000A0800000A0A00000A0C00000A0E00000C0000000C0200000C0400000C0600000C0800000C0
1004
A00000C0C00000C0E00000E0000000E0200000E0400000E0600000E0800000E0A00000E0C00000E0E00040000000400020004000400040006000400080004000A0004000C0004000E00040200000402020004020400040206000402080004020A0004020C0004020E000404000004040200040404000404060004040800040
1004
40A0004040C0004040E00040600000406020004060400040606000406080004060A0004060C0004060E00040800000408020004080400040806000408080004080A0004080C0004080E00040A0000040A0200040A0400040A0600040A0800040A0A00040A0C00040A0E00040C0000040C0200040C0400040C0600040C08000
1004
40C0A00040C0C00040C0E00040E0000040E0200040E0400040E0600040E0800040E0A00040E0C00040E0E00080000000800020008000400080006000800080008000A0008000C0008000E00080200000802020008020400080206000802080008020A0008020C0008020E00080400000804020008040400080406000804080
1004
008040A0008040C0008040E00080600000806020008060400080606000806080008060A0008060C0008060E00080800000808020008080400080806000808080008080A0008080C0008080E00080A0000080A0200080A0400080A0600080A0800080A0A00080A0C00080A0E00080C0000080C0200080C0400080C0600080C0
1004
800080C0A00080C0C00080C0E00080E0000080E0200080E0400080E0600080E0800080E0A00080E0C00080E0E000C0000000C0002000C0004000C0006000C0008000C000A000C000C000C000E000C0200000C0202000C0204000C0206000C0208000C020A000C020C000C020E000C0400000C0402000C0404000C0406000C0
1004
408000C040A000C040C000C040E000C0600000C0602000C0604000C0606000C0608000C060A000C060C000C060E000C0800000C0802000C0804000C0806000C0808000C080A000C080C000C080E000C0A00000C0A02000C0A04000C0A06000C0A08000C0A0A000C0A0C000C0A0E000C0C00000C0C02000C0C04000C0C06000
1004
C0C08000C0C0A000F0FBFF00A4A0A000808080000000FF0000FF000000FFFF00FF000000FF00FF00FFFF0000FFFFFF0000000000000000000000000000000000000000000000000000000000000000000000000000000000000000000000000000000000000000000000000000000000000000000000000000000000000000
1004
000000000000000000000000000000000000000000000000000000000000000000000000000000000000000000000000000000000000000000000000000000000000000000000000000000000000000000000000000000000000000000000000000000000000000000000000000000000000FCFCFCFCFCFCFCFCFCFCFCFCFC
1004
FCFCFCFCFCFCFCFCFEFEFEFDFDFCFDFDFD0000FC0000000000000000000000000000000000000000FDFDFDFDFDFDFDFDFD0000FC0000000000000000000000000000000000000000FDFDFEFEFEFEFDFDFD0000FC0000000000000000000000000000000000000000FDFCFEFEFEFEFCFCFC0000FC0000000000000000000000
1004
0000000000000000000000000000000000FC0000FC00000000000000000000000000000000000000000000000000000000FC0000FC00000000000000000000000000000000000000000000000000000000FC0000FC00000000000000000000000000000000000000000000000000000000FC0000FC00000000000000000000
1004
000000000000000000000000000000000000FC0000FC00000000000000000000000000000000000000000000000000000000FC0000FC00000000000000000000000000000000000000000000000000000000FC0000FC00000000000000000000000000000000000000000000000000000000FC0000FC000000000000000000
1004
00000000000000000000000000000000000000FC0000FC00000000000000000000000000000000000000000000000000000000FC0000FC00000000000000000000000000000000000000000000000000000000FC0000FC00000000000000000000000000000000000000000000000000000000FC0000FC0000000000000000
1004
0000000000000000000000000000000000000000FC0000FC00000000000000000000000000000000000000000000000000000000FC0000FC00000000000000000000000000000000000000000000FCFCFCFCFCFCFC0000FCFCFCFCFCFCFCFCFCFCFCFCFCFCFCFCFCFCFCFCFCFCFCFCFDFCFCFCFCFC00000000000000000000
1004
00000000000000000000000000000000000000000000000000000000000000000000000000000000000000000000000000000000000000000000000000000000000000000000000000000000000000000000000000000000000000000000000000000000000000000000000000000000000000000000000000000000000000
1004
0000000000000000000000000000000000000000000000000000000000000000000000000000000000000000000000000000000000000000
  0
BLOCK_RECORD
  5
4DC
330
1
100
AcDbSymbolTableRecord
100
AcDbBlockTableRecord
  2
1
  0
BLOCK_RECORD
  5
1624
330
1
100
AcDbSymbolTableRecord
100
AcDbBlockTableRecord
  2
GSPEC_H-28T-600-900
  0
BLOCK_RECORD
  5
1669
330
1
100
AcDbSymbolTableRecord
100
AcDbBlockTableRecord
  2
GSPEC_H-28T-300-450
  0
BLOCK_RECORD
  5
18EC
330
1
100
AcDbSymbolTableRecord
100
AcDbBlockTableRecord
  2
MSPEC_S60WF-90
  0
BLOCK_RECORD
  5
1916
330
1
100
AcDbSymbolTableRecord
100
AcDbBlockTableRecord
  2
MSPEC_S90F-90
  0
BLOCK_RECORD
  5
193C
330
1
100
AcDbSymbolTableRecord
100
AcDbBlockTableRecord
  2
MSPEC_S90WF-90
  0
BLOCK_RECORD
  5
196B
330
1
100
AcDbSymbolTableRecord
100
AcDbBlockTableRecord
  2
BSPEC_90-90-0038
  0
BLOCK_RECORD
  5
19E7
330
1
100
AcDbSymbolTableRecord
100
AcDbBlockTableRecord
  2
BSPEC_90-90-0055
  0
BLOCK_RECORD
  5
1A4F
330
1
100
AcDbSymbolTableRecord
100
AcDbBlockTableRecord
  2
BSPEC_90-45-0055
  0
BLOCK_RECORD
  5
1B03
330
1
100
AcDbSymbolTableRecord
100
AcDbBlockTableRecord
  2
17
  0
ENDTAB
  0
ENDSEC
  0
SECTION
  2
BLOCKS
  0
BLOCK
  5
5D
330
2
100
AcDbEntity
  8
0
100
AcDbBlockBegin
  2
*MODEL_SPACE
 70
     0
 10
0.0
 20
0.0
 30
0.0
  3
*MODEL_SPACE
  1

  0
ENDBLK
  5
5F
330
2
100
AcDbEntity
  8
0
100
AcDbBlockEnd
  0
BLOCK
  5
1541
330
1534
100
AcDbEntity
 67
     1
  8
0
100
AcDbBlockBegin
  2
*PAPER_SPACE
 70
     0
 10
0.0
 20
0.0
 30
0.0
  3
*PAPER_SPACE
  1

  0
ENDBLK
  5
1542
330
1534
100
AcDbEntity
 67
     1
  8
0
100
AcDbBlockEnd
  0
BLOCK
  5
463
330
40C
100
AcDbEntity
  8
0
100
AcDbBlockBegin
  2
外寸枠A4テンプレート
 70
     2
 10
0.0
 20
0.0
 30
0.0
  3
外寸枠A4テンプレート
  1

  0
LWPOLYLINE
  5
40D
330
40C
100
AcDbEntity
  8
WAKU
100
AcDbPolyline
 90
        4
 70
     1
 43
0.0
 10
3.0
 20
4.0
 10
280.0
 20
4.0
 10
280.0
 20
194.0
 10
3.0
 20
194.0
  0
LWPOLYLINE
  5
40E
330
40C
100
AcDbEntity
  8
WAKU
100
AcDbPolyline
 90
        4
 70
     1
 43
0.0
 10
3.0
 20
4.0
 10
280.0
 20
4.0
 10
280.0
 20
194.0
 10
3.0
 20
194.0
  0
LINE
  5
40F
330
40C
100
AcDbEntity
  8
WAKU
100
AcDbLine
 10
280.0
 20
182.0
 30
0.0
 11
226.4018178786999
 21
182.0
 31
0.0
  0
TEXT
  5
410
330
40C
100
AcDbEntity
  8
WAKU
 62
     6
100
AcDbText
 10
228.3816999999999
 20
190.11095
 30
0.0
 40
2.1213
  1
REVISIONS
 41
0.7
100
AcDbText
  0
LINE
  5
411
330
40C
100
AcDbEntity
  8
WAKU
100
AcDbLine
 10
226.4018178786999
 20
194.0
 30
0.0
 11
226.4018178786999
 21
181.9999999999999
 31
0.0
  0
LINE
  5
412
330
40C
100
AcDbEntity
  8
WAKU
 62
     6
100
AcDbLine
 10
203.6331999999998
 20
29.0030567071
 30
0.0
 11
280.0
 21
29.0030567071
 31
0.0
  0
LINE
  5
413
330
40C
100
AcDbEntity
  8
WAKU
 62
     6
100
AcDbLine
 10
203.6331999999998
 20
24.47761529289999
 30
0.0
 11
280.0
 21
24.47761529289999
 31
0.0
  0
LINE
  5
414
330
40C
100
AcDbEntity
  8
WAKU
 62
     6
100
AcDbLine
 10
203.6331999999998
 20
19.9521752929
 30
0.0
 11
280.0
 21
19.9521752929
 31
0.0
  0
LINE
  5
415
330
40C
100
AcDbEntity
  8
WAKU
 62
     6
100
AcDbLine
 10
203.6331999999998
 20
15.42673599999999
 30
0.0
 11
280.0
 21
15.42673599999999
 31
0.0
  0
LINE
  5
416
330
40C
100
AcDbEntity
  8
WAKU
 62
     6
100
AcDbLine
 10
203.6331999999998
 20
29.0030567071
 30
0.0
 11
280.0
 21
29.0030567071
 31
0.0
  0
LINE
  5
417
330
40C
100
AcDbEntity
  8
WAKU
 62
     6
100
AcDbLine
 10
203.6331999999998
 20
24.47761529289999
 30
0.0
 11
280.0
 21
24.47761529289999
 31
0.0
  0
LINE
  5
418
330
40C
100
AcDbEntity
  8
WAKU
 62
     6
100
AcDbLine
 10
203.6331999999998
 20
19.9521752929
 30
0.0
 11
280.0
 21
19.9521752929
 31
0.0
  0
LINE
  5
419
330
40C
100
AcDbEntity
  8
WAKU
 62
     6
100
AcDbLine
 10
203.6331999999998
 20
15.42673599999999
 30
0.0
 11
280.0
 21
15.42673599999999
 31
0.0
  0
LINE
  5
41A
330
40C
100
AcDbEntity
  8
WAKU
 62
     6
100
AcDbLine
 10
203.6331999999998
 20
29.0030567071
 30
0.0
 11
280.0
 21
29.0030567071
 31
0.0
  0
LINE
  5
41B
330
40C
100
AcDbEntity
  8
WAKU
 62
     6
100
AcDbLine
 10
203.6331999999998
 20
24.47761529289999
 30
0.0
 11
280.0
 21
24.47761529289999
 31
0.0
  0
LINE
  5
41C
330
40C
100
AcDbEntity
  8
WAKU
 62
     6
100
AcDbLine
 10
203.6331999999998
 20
19.9521752929
 30
0.0
 11
280.0
 21
19.9521752929
 31
0.0
  0
LINE
  5
41D
330
40C
100
AcDbEntity
  8
WAKU
 62
     6
100
AcDbLine
 10
203.6331999999998
 20
15.42673599999999
 30
0.0
 11
280.0
 21
15.42673599999999
 31
0.0
  0
LINE
  5
41E
330
40C
100
AcDbEntity
  8
WAKU
100
AcDbLine
 10
203.6331999999998
 20
38.053936
 30
0.0
 11
280.0
 21
38.053936
 31
0.0
  0
LINE
  5
41F
330
40C
100
AcDbEntity
  8
WAKU
100
AcDbLine
 10
203.6331999999998
 20
38.053936
 30
0.0
 11
280.0
 21
38.053936
 31
0.0
  0
LINE
  5
420
330
40C
100
AcDbEntity
  8
WAKU
100
AcDbLine
 10
203.6331999999998
 20
38.053936
 30
0.0
 11
280.0
 21
38.053936
 31
0.0
  0
TEXT
  5
421
330
40C
100
AcDbEntity
  8
WAKU
 62
     6
100
AcDbText
 10
231.4464545235218
 20
12.856420429
 30
0.0
 40
1.76775
  1
SCALE
 41
0.7
100
AcDbText
  0
TEXT
  5
422
330
40C
100
AcDbEntity
  8
TEXT
100
AcDbText
 10
228.8293221750166
 20
29.96641277760619
 30
0.0
 40
2.5
  1
外　形　寸　法　図
100
AcDbText
  0
ATTDEF
  5
423
330
40C
100
AcDbEntity
  8
TEXT
100
AcDbText
 10
241.8165999999999
 20
35.58735183158626
 30
0.0
 40
2.500000000000001
  1

 72
     4
 11
241.8165999999999
 21
35.58735183158626
 31
0.0
100
AcDbAttributeDefinition
  3
タイトル
  2
T　I　T　L　E
 70
     0
  0
LINE
  5
424
330
40C
100
AcDbEntity
  8
WAKU
100
AcDbLine
 10
203.6331999999998
 20
38.053936
 30
0.0
 11
203.6331999999998
 21
3.999999999999998
 31
0.0
  0
LINE
  5
425
330
40C
100
AcDbEntity
  8
WAKU
100
AcDbLine
 10
203.6331999999998
 20
38.053936
 30
0.0
 11
203.6331999999998
 21
3.999999999999998
 31
0.0
  0
LINE
  5
426
330
40C
100
AcDbEntity
  8
WAKU
100
AcDbLine
 10
203.6331999999998
 20
38.053936
 30
0.0
 11
203.6331999999998
 21
3.999999999999998
 31
0.0
  0
TEXT
  5
427
330
40C
100
AcDbEntity
  8
WAKU
 62
     6
100
AcDbText
 10
204.7645642425999
 20
25.805189179
 30
0.0
 40
2.1213
  1
DRAWING  NO.
 41
0.7
100
AcDbText
  0
TEXT
  5
428
330
40C
100
AcDbEntity
  8
WAKU
 62
     6
100
AcDbText
 10
204.7645642425999
 20
16.75430988609998
 30
0.0
 40
2.1213
  1
NOTICE
 41
0.7
100
AcDbText
  0
TEXT
  5
429
330
40C
100
AcDbEntity
  8
WAKU
 62
     6
100
AcDbText
 10
204.8446469479863
 20
12.674695729
 30
0.0
 40
1.8097340625
  1
APPROVE
 41
0.512174
100
AcDbText
  0
TEXT
  5
42A
330
40C
100
AcDbEntity
  8
WAKU
 62
     6
100
AcDbText
 10
204.7645642425999
 20
21.279749179
 30
0.0
 40
2.1213
  1
USER
 41
0.7
100
AcDbText
  0
TEXT
  5
42B
330
40C
100
AcDbEntity
  8
WAKU
 62
     6
100
AcDbText
 10
222.3147516895863
 20
12.6973292929
 30
0.0
 40
1.7832163983
  1
DESIGN
 41
0.5729449999999999
100
AcDbText
  0
LINE
  5
42C
330
40C
100
AcDbEntity
  8
WAKU
 62
     6
100
AcDbLine
 10
212.3823646725999
 20
15.42673599999999
 30
0.0
 11
212.3823646725999
 21
3.999999999999998
 31
0.0
  0
LINE
  5
42D
330
40C
100
AcDbEntity
  8
WAKU
 62
     6
100
AcDbLine
 10
212.3823646725999
 20
15.42673599999999
 30
0.0
 11
212.3823646725999
 21
3.999999999999998
 31
0.0
  0
LINE
  5
42E
330
40C
100
AcDbEntity
  8
WAKU
 62
     6
100
AcDbLine
 10
212.3823646725999
 20
15.42673599999999
 30
0.0
 11
212.3823646725999
 21
3.999999999999998
 31
0.0
  0
LINE
  5
42F
330
40C
100
AcDbEntity
  8
WAKU
 62
     6
100
AcDbLine
 10
221.1033047415999
 20
15.42673599999999
 30
0.0
 11
221.1033047415999
 21
3.999999999999998
 31
0.0
  0
LINE
  5
430
330
40C
100
AcDbEntity
  8
WAKU
 62
     6
100
AcDbLine
 10
221.1033047415999
 20
15.42673599999999
 30
0.0
 11
221.1033047415999
 21
3.999999999999998
 31
0.0
  0
LINE
  5
431
330
40C
100
AcDbEntity
  8
WAKU
 62
     6
100
AcDbLine
 10
221.1033047415999
 20
15.42673599999999
 30
0.0
 11
221.1033047415999
 21
3.999999999999998
 31
0.0
  0
TEXT
  5
432
330
40C
100
AcDbEntity
  8
WAKU
 62
     6
100
AcDbText
 10
213.5938010140863
 20
12.674695729
 30
0.0
 40
1.76775
  1
CHECK
 41
0.7
100
AcDbText
  0
LINE
  5
433
330
40C
100
AcDbEntity
  8
WAKU
 62
     6
100
AcDbLine
 10
229.8241790502999
 20
15.42673599999999
 30
0.0
 11
229.8241790502999
 21
3.999999999999998
 31
0.0
  0
LINE
  5
434
330
40C
100
AcDbEntity
  8
WAKU
 62
     6
100
AcDbLine
 10
229.8241790502999
 20
15.42673599999999
 30
0.0
 11
229.8241790502999
 21
3.999999999999998
 31
0.0
  0
LINE
  5
435
330
40C
100
AcDbEntity
  8
WAKU
 62
     6
100
AcDbLine
 10
229.8241790502999
 20
15.42673599999999
 30
0.0
 11
229.8241790502999
 21
3.999999999999998
 31
0.0
  0
TEXT
  5
436
330
40C
100
AcDbEntity
  8
WAKU
 62
     6
100
AcDbText
 10
204.7645642425999
 20
35.31568488609999
 30
0.0
 40
2.1213
  1
TITLE
 41
0.7
100
AcDbText
  0
ATTDEF
  5
437
330
40C
100
AcDbEntity
  8
TEXT
100
AcDbText
 10
234.056163734276
 20
8.134449518875573
 30
0.0
 40
2.0
  1

 72
     4
 11
234.056163734276
 21
8.134449518875573
 31
0.0
100
AcDbAttributeDefinition
  3
SCALE
  2
FREE
 70
     0
  0
ATTDEF
  5
438
330
40C
100
AcDbEntity
  8
TEXT
100
AcDbText
 10
207.865184683976
 20
8.134449518875573
 30
0.0
 40
2.500000000000004
  1

 72
     4
 11
207.865184683976
 21
8.134449518875573
 31
0.0
100
AcDbAttributeDefinition
  3
承認
  2
海野
 70
     0
  0
ATTDEF
  5
439
330
40C
100
AcDbEntity
  8
TEXT
100
AcDbText
 10
225.335289425576
 20
8.134449518875575
 30
0.0
 40
2.500000000000004
  1

 72
     4
 11
225.335289425576
 21
8.134449518875575
 31
0.0
100
AcDbAttributeDefinition
  3
作成
  2
鳥居
 70
     0
  0
ATTDEF
  5
43A
330
40C
100
AcDbEntity
  8
TEXT
100
AcDbText
 10
216.614349356576
 20
8.134449518875575
 30
0.0
 40
2.500000000000004
  1

 72
     4
 11
216.614349356576
 21
8.134449518875575
 31
0.0
100
AcDbAttributeDefinition
  3
確認
  2
永坂
 70
     0
  0
LINE
  5
43B
330
40C
100
AcDbEntity
  8
WAKU
 62
     6
100
AcDbLine
 10
238.6487948283999
 20
8.638576
 30
0.0
 11
280.0
 21
8.638576
 31
0.0
  0
LINE
  5
43C
330
40C
100
AcDbEntity
  8
WAKU
 62
     6
100
AcDbLine
 10
238.6487948283999
 20
8.638576
 30
0.0
 11
280.0
 21
8.638576
 31
0.0
  0
LINE
  5
43D
330
40C
100
AcDbEntity
  8
WAKU
 62
     6
100
AcDbLine
 10
238.6487948283999
 20
8.638576
 30
0.0
 11
280.0
 21
8.638576
 31
0.0
  0
TEXT
  5
43E
330
40C
100
AcDbEntity
  8
WAKU
 62
     6
100
AcDbText
 10
241.15294501234
 20
5.246258800300003
 30
0.0
 40
2.1213
  1
NISSEI  CORPORATION
100
AcDbText
  0
LINE
  5
43F
330
40C
100
AcDbEntity
  8
WAKU
100
AcDbLine
 10
246.5683127070999
 20
13.02259600000001
 30
0.0
 11
250.5280769496998
 21
14.01253599999999
 31
0.0
  0
LINE
  5
440
330
40C
100
AcDbEntity
  8
WAKU
100
AcDbLine
 10
246.5683127070999
 20
13.02259600000001
 30
0.0
 11
250.5280769496998
 21
14.01253599999999
 31
0.0
  0
LINE
  5
441
330
40C
100
AcDbEntity
  8
WAKU
100
AcDbLine
 10
246.5683127070999
 20
13.02259600000001
 30
0.0
 11
250.5280769496998
 21
14.01253599999999
 31
0.0
  0
LINE
  5
442
330
40C
100
AcDbEntity
  8
WAKU
100
AcDbLine
 10
246.5683127070999
 20
11.0427152929
 30
0.0
 11
250.5280769496998
 21
10.052776
 31
0.0
  0
LINE
  5
443
330
40C
100
AcDbEntity
  8
WAKU
100
AcDbLine
 10
246.5683127070999
 20
11.0427152929
 30
0.0
 11
250.5280769496998
 21
10.052776
 31
0.0
  0
LINE
  5
444
330
40C
100
AcDbEntity
  8
WAKU
100
AcDbLine
 10
246.5683127070999
 20
11.0427152929
 30
0.0
 11
250.5280769496998
 21
10.052776
 31
0.0
  0
LINE
  5
445
330
40C
100
AcDbEntity
  8
CENTER
 62
     6
100
AcDbLine
 10
239.4478107573998
 20
12.0326567071
 30
0.0
 11
251.3624499999998
 21
12.0326567071
 31
0.0
  0
LINE
  5
446
330
40C
100
AcDbEntity
  8
CENTER
 62
     6
100
AcDbLine
 10
239.4478107573998
 20
12.0326567071
 30
0.0
 11
251.3624499999998
 21
12.0326567071
 31
0.0
  0
LINE
  5
447
330
40C
100
AcDbEntity
  8
CENTER
 62
     6
100
AcDbLine
 10
239.4478107573998
 20
12.0326567071
 30
0.0
 11
251.3624499999998
 21
12.0326567071
 31
0.0
  0
LINE
  5
448
330
40C
100
AcDbEntity
  8
WAKU
 62
     6
100
AcDbLine
 10
238.6487948283999
 20
15.42673599999999
 30
0.0
 11
238.6487948283999
 21
3.999999999999998
 31
0.0
  0
LINE
  5
449
330
40C
100
AcDbEntity
  8
WAKU
 62
     6
100
AcDbLine
 10
238.6487948283999
 20
15.42673599999999
 30
0.0
 11
238.6487948283999
 21
3.999999999999998
 31
0.0
  0
LINE
  5
44A
330
40C
100
AcDbEntity
  8
WAKU
 62
     6
100
AcDbLine
 10
238.6487948283999
 20
15.42673599999999
 30
0.0
 11
238.6487948283999
 21
3.999999999999998
 31
0.0
  0
CIRCLE
  5
44B
330
40C
100
AcDbEntity
  8
WAKU
100
AcDbCircle
 10
242.0428769496999
 20
12.0326567071
 30
0.0
 40
0.9899399999999999
  0
CIRCLE
  5
44C
330
40C
100
AcDbEntity
  8
WAKU
100
AcDbCircle
 10
242.0428769496999
 20
12.0326567071
 30
0.0
 40
0.9899399999999999
  0
CIRCLE
  5
44D
330
40C
100
AcDbEntity
  8
WAKU
100
AcDbCircle
 10
242.0428769496999
 20
12.0326567071
 30
0.0
 40
0.9899399999999999
  0
CIRCLE
  5
44E
330
40C
100
AcDbEntity
  8
WAKU
100
AcDbCircle
 10
242.0428769496999
 20
12.0326567071
 30
0.0
 40
1.979879999999999
  0
CIRCLE
  5
44F
330
40C
100
AcDbEntity
  8
WAKU
100
AcDbCircle
 10
242.0428769496999
 20
12.0326567071
 30
0.0
 40
1.979879999999999
  0
CIRCLE
  5
450
330
40C
100
AcDbEntity
  8
WAKU
100
AcDbCircle
 10
242.0428769496999
 20
12.0326567071
 30
0.0
 40
1.979879999999999
  0
LINE
  5
451
330
40C
100
AcDbEntity
  8
WAKU
100
AcDbLine
 10
246.5683127070999
 20
13.02259600000001
 30
0.0
 11
246.5683127070999
 21
11.0427152929
 31
0.0
  0
LINE
  5
452
330
40C
100
AcDbEntity
  8
WAKU
100
AcDbLine
 10
246.5683127070999
 20
13.02259600000001
 30
0.0
 11
246.5683127070999
 21
11.0427152929
 31
0.0
  0
LINE
  5
453
330
40C
100
AcDbEntity
  8
WAKU
100
AcDbLine
 10
246.5683127070999
 20
13.02259600000001
 30
0.0
 11
246.5683127070999
 21
11.0427152929
 31
0.0
  0
LINE
  5
454
330
40C
100
AcDbEntity
  8
CENTER
 62
     6
100
AcDbLine
 10
242.0428769496999
 20
14.96005
 30
0.0
 11
242.0428769496999
 21
9.267895000000009
 31
0.0
  0
LINE
  5
455
330
40C
100
AcDbEntity
  8
CENTER
 62
     6
100
AcDbLine
 10
242.0428769496999
 20
14.96005
 30
0.0
 11
242.0428769496999
 21
9.267895000000009
 31
0.0
  0
LINE
  5
456
330
40C
100
AcDbEntity
  8
CENTER
 62
     6
100
AcDbLine
 10
242.0428769496999
 20
14.96005
 30
0.0
 11
242.0428769496999
 21
9.267895000000009
 31
0.0
  0
TEXT
  5
457
330
40C
100
AcDbEntity
  8
TEXT
100
AcDbText
 10
257.3078171288039
 20
9.492177985111482
 30
0.0
 40
2.0
  1
mm
100
AcDbText
  0
LINE
  5
458
330
40C
100
AcDbEntity
  8
WAKU
 62
     6
100
AcDbLine
 10
252.2251127070999
 20
15.42673599999999
 30
0.0
 11
252.2251127070999
 21
8.638576
 31
0.0
  0
LINE
  5
459
330
40C
100
AcDbEntity
  8
WAKU
 62
     6
100
AcDbLine
 10
252.2251127070999
 20
15.42673599999999
 30
0.0
 11
252.2251127070999
 21
8.638576
 31
0.0
  0
LINE
  5
45A
330
40C
100
AcDbEntity
  8
WAKU
 62
     6
100
AcDbLine
 10
252.2251127070999
 20
15.42673599999999
 30
0.0
 11
252.2251127070999
 21
8.638576
 31
0.0
  0
LINE
  5
45B
330
40C
100
AcDbEntity
  8
WAKU
100
AcDbLine
 10
250.5280769496998
 20
14.01253599999999
 30
0.0
 11
250.5280769496998
 21
10.052776
 31
0.0
  0
LINE
  5
45C
330
40C
100
AcDbEntity
  8
WAKU
100
AcDbLine
 10
250.5280769496998
 20
14.01253599999999
 30
0.0
 11
250.5280769496998
 21
10.052776
 31
0.0
  0
LINE
  5
45D
330
40C
100
AcDbEntity
  8
WAKU
100
AcDbLine
 10
250.5280769496998
 20
14.01253599999999
 30
0.0
 11
250.5280769496998
 21
10.052776
 31
0.0
  0
TEXT
  5
45E
330
40C
100
AcDbEntity
  8
WAKU
 62
     6
100
AcDbText
 10
253.4130357573999
 20
13.0508792929
 30
0.0
 40
1.76775
  1
UNIT
 41
0.7
100
AcDbText
  0
TEXT
  5
45F
330
40C
100
AcDbEntity
  8
WAKU
 62
     6
100
AcDbText
 10
266.9893642426
 20
13.0508792929
 30
0.0
 40
1.76775
  1
DATE
 41
0.7
100
AcDbText
  0
LINE
  5
460
330
40C
100
AcDbEntity
  8
WAKU
 62
     6
100
AcDbLine
 10
265.7448611715999
 20
15.42673599999999
 30
0.0
 11
265.7448611715999
 21
8.638576
 31
0.0
  0
LINE
  5
461
330
40C
100
AcDbEntity
  8
WAKU
 62
     6
100
AcDbLine
 10
265.7448611715999
 20
15.42673599999999
 30
0.0
 11
265.7448611715999
 21
8.638576
 31
0.0
  0
LINE
  5
462
330
40C
100
AcDbEntity
  8
WAKU
 62
     6
100
AcDbLine
 10
265.7448611715999
 20
15.42673599999999
 30
0.0
 11
265.7448611715999
 21
8.638576
 31
0.0
  0
ENDBLK
  5
464
330
40C
100
AcDbEntity
  8
0
100
AcDbBlockEnd
  0
BLOCK
  5
4DE
330
4DC
100
AcDbEntity
  8
0
100
AcDbBlockBegin
  2
1
 70
     0
 10
0.0
 20
0.0
 30
0.0
  3
1
  1

  0
TEXT
  5
4DD
330
4DC
100
AcDbEntity
  8
0
100
AcDbText
 10
0.0
 20
0.0
 30
0.0
 40
2.0
  1
注。出力軸キーは JIS B 1301-1976平行キーに依ります。
100
AcDbText
  0
ENDBLK
  5
4DF
330
4DC
100
AcDbEntity
  8
0
100
AcDbBlockEnd
  0
BLOCK
  5
163C
330
1624
100
AcDbEntity
  8
0
100
AcDbBlockBegin
  2
GSPEC_H-28T-600-900
 70
     0
 10
0.0
 20
0.0
 30
0.0
  3
GSPEC_H-28T-600-900
  1

  0
LINE
  5
1625
330
1624
100
AcDbEntity
  8
0
100
AcDbLine
 10
131.0
 20
20.32250000000001
 30
0.0
 11
183.0
 21
20.32250000000001
 31
0.0
  0
LINE
  5
1626
330
1624
100
AcDbEntity
  8
0
100
AcDbLine
 10
131.0
 20
16.78700000000002
 30
0.0
 11
183.0
 21
16.78700000000002
 31
0.0
  0
LINE
  5
1627
330
1624
100
AcDbEntity
  8
0
100
AcDbLine
 10
131.0
 20
23.85799999999999
 30
0.0
 11
183.0
 21
23.85799999999999
 31
0.0
  0
LINE
  5
1628
330
1624
100
AcDbEntity
  8
0
100
AcDbLine
 10
131.0
 20
34.46450000000001
 30
0.0
 11
183.0
 21
34.46450000000001
 31
0.0
  0
LINE
  5
1629
330
1624
100
AcDbEntity
  8
0
100
AcDbLine
 10
131.0
 20
30.929
 30
0.0
 11
183.0
 21
30.92899999999997
 31
0.0
  0
LINE
  5
162A
330
1624
100
AcDbEntity
  8
0
100
AcDbLine
 10
131.0
 20
38.0
 30
0.0
 11
183.0
 21
38.0
 31
0.0
  0
LINE
  5
162B
330
1624
100
AcDbEntity
  8
0
100
AcDbLine
 10
131.0
 20
16.78700000000002
 30
0.0
 11
131.0
 21
38.0
 31
0.0
  0
TEXT
  5
162C
330
1624
100
AcDbEntity
  8
0
100
AcDbText
 10
131.6780944417463
 20
21.0296
 30
0.0
 40
2.0
  1
潤滑
100
AcDbText
  0
TEXT
  5
162D
330
1624
100
AcDbEntity
  8
0
100
AcDbText
 10
131.6780944417462
 20
17.40054220928055
 30
0.0
 40
2.0
  1
塗色
100
AcDbText
  0
TEXT
  5
162E
330
1624
100
AcDbEntity
  8
0
100
AcDbText
 10
131.6780944417462
 20
26.36442426805074
 30
0.0
 40
2.0
  1
減速比
100
AcDbText
  0
TEXT
  5
162F
330
1624
100
AcDbEntity
  8
0
100
AcDbText
 10
131.6780944417462
 20
31.6361
 30
0.0
 40
2.0
  1
枠番
100
AcDbText
  0
TEXT
  5
1630
330
1624
100
AcDbEntity
  8
0
100
AcDbText
 10
131.6780944417462
 20
35.17159999999998
 30
0.0
 40
2.0
  1
名称
100
AcDbText
  0
LINE
  5
1631
330
1624
100
AcDbEntity
  8
0
100
AcDbLine
 10
183.0
 20
16.78700000000002
 30
0.0
 11
183.0
 21
38.0
 31
0.0
  0
LINE
  5
1632
330
1624
100
AcDbEntity
  8
0
100
AcDbLine
 10
142.5
 20
20.32250000000001
 30
0.0
 11
142.5
 21
38.0
 31
0.0
  0
TEXT
  5
1633
330
1624
100
AcDbEntity
  8
0
100
AcDbText
 10
143.3531994322572
 20
28.10060000000001
 30
0.0
 40
2.0
  1
1/600 1/750 1/900 
100
AcDbText
  0
TEXT
  5
1634
330
1624
100
AcDbEntity
  8
0
100
AcDbText
 10
143.3531994322572
 20
17.49409999999999
 30
0.0
 40
2.0
  1
グレー（マンセル値 9B6/0.5）
100
AcDbText
  0
TEXT
  5
1635
330
1624
100
AcDbEntity
  8
0
100
AcDbText
 10
143.3531994322572
 20
21.0296
 30
0.0
 40
2.0
  1
グリース
100
AcDbText
  0
LINE
  5
1636
330
1624
100
AcDbEntity
  8
0
100
AcDbLine
 10
150.4725366217368
 20
39.41419999999999
 30
0.0
 11
163.5274633782631
 21
39.41419999999999
 31
0.0
  0
LINE
  5
1637
330
1624
100
AcDbEntity
  8
0
100
AcDbLine
 10
150.4725366217368
 20
40.12129999999999
 30
0.0
 11
163.5274633782631
 21
40.12129999999999
 31
0.0
  0
TEXT
  5
1638
330
1624
100
AcDbEntity
  8
0
100
AcDbText
 10
151.1299348544099
 20
40.47485
 30
0.0
 40
2.0
  1
減速機仕様
100
AcDbText
  0
TEXT
  5
1639
330
1624
100
AcDbEntity
  8
0
100
AcDbText
 10
143.3531994322572
 20
31.6361
 30
0.0
 40
2.0
  1
28T
100
AcDbText
  0
TEXT
  5
163A
330
1624
100
AcDbEntity
  8
0
100
AcDbText
 10
143.3531994322572
 20
35.17159999999998
 30
0.0
 40
2.0
  1
GTR
100
AcDbText
  0
LINE
  5
163B
330
1624
100
AcDbEntity
  8
0
100
AcDbLine
 10
142.5
 20
27.39349999999995
 30
0.0
 11
183.0
 21
27.39349999999993
 31
0.0
  0
ENDBLK
  5
163D
330
1624
100
AcDbEntity
  8
0
100
AcDbBlockEnd
  0
BLOCK
  5
1681
330
1669
100
AcDbEntity
  8
0
100
AcDbBlockBegin
  2
GSPEC_H-28T-300-450
 70
     0
 10
0.0
 20
0.0
 30
0.0
  3
GSPEC_H-28T-300-450
  1

  0
LINE
  5
166A
330
1669
100
AcDbEntity
  8
0
100
AcDbLine
 10
131.0
 20
20.3225
 30
0.0
 11
183.0
 21
20.3225
 31
0.0
  0
LINE
  5
166B
330
1669
100
AcDbEntity
  8
0
100
AcDbLine
 10
131.0
 20
16.78700000000002
 30
0.0
 11
183.0
 21
16.78700000000002
 31
0.0
  0
LINE
  5
166C
330
1669
100
AcDbEntity
  8
0
100
AcDbLine
 10
131.0
 20
23.85799999999999
 30
0.0
 11
183.0
 21
23.85799999999999
 31
0.0
  0
LINE
  5
166D
330
1669
100
AcDbEntity
  8
0
100
AcDbLine
 10
131.0
 20
34.46450000000001
 30
0.0
 11
183.0
 21
34.46450000000001
 31
0.0
  0
LINE
  5
166E
330
1669
100
AcDbEntity
  8
0
100
AcDbLine
 10
131.0
 20
30.929
 30
0.0
 11
183.0
 21
30.92899999999997
 31
0.0
  0
LINE
  5
166F
330
1669
100
AcDbEntity
  8
0
100
AcDbLine
 10
131.0
 20
38.0
 30
0.0
 11
183.0
 21
38.0
 31
0.0
  0
LINE
  5
1670
330
1669
100
AcDbEntity
  8
0
100
AcDbLine
 10
131.0
 20
16.78700000000002
 30
0.0
 11
131.0
 21
38.0
 31
0.0
  0
TEXT
  5
1671
330
1669
100
AcDbEntity
  8
0
100
AcDbText
 10
131.6780944417463
 20
21.0296
 30
0.0
 40
2.0
  1
潤滑
100
AcDbText
  0
TEXT
  5
1672
330
1669
100
AcDbEntity
  8
0
100
AcDbText
 10
131.6780944417462
 20
17.40054220928054
 30
0.0
 40
2.0
  1
塗色
100
AcDbText
  0
TEXT
  5
1673
330
1669
100
AcDbEntity
  8
0
100
AcDbText
 10
131.6780944417462
 20
26.36442426805075
 30
0.0
 40
2.0
  1
減速比
100
AcDbText
  0
TEXT
  5
1674
330
1669
100
AcDbEntity
  8
0
100
AcDbText
 10
131.6780944417462
 20
31.6361
 30
0.0
 40
2.0
  1
枠番
100
AcDbText
  0
TEXT
  5
1675
330
1669
100
AcDbEntity
  8
0
100
AcDbText
 10
131.6780944417462
 20
35.17159999999998
 30
0.0
 40
2.0
  1
名称
100
AcDbText
  0
LINE
  5
1676
330
1669
100
AcDbEntity
  8
0
100
AcDbLine
 10
183.0
 20
16.78700000000002
 30
0.0
 11
183.0
 21
38.0
 31
0.0
  0
LINE
  5
1677
330
1669
100
AcDbEntity
  8
0
100
AcDbLine
 10
142.5
 20
16.78700000000002
 30
0.0
 11
142.5
 21
38.0
 31
0.0
  0
TEXT
  5
1678
330
1669
100
AcDbEntity
  8
0
100
AcDbText
 10
143.3531994322572
 20
28.10060000000001
 30
0.0
 40
2.0
  1
1/300 1/375 1/450 
100
AcDbText
  0
TEXT
  5
1679
330
1669
100
AcDbEntity
  8
0
100
AcDbText
 10
143.3531994322572
 20
17.49409999999999
 30
0.0
 40
2.0
  1
グレー（マンセル値 9B6/0.5）
100
AcDbText
  0
TEXT
  5
167A
330
1669
100
AcDbEntity
  8
0
100
AcDbText
 10
143.3531994322572
 20
21.0296
 30
0.0
 40
2.0
  1
グリース
100
AcDbText
  0
LINE
  5
167B
330
1669
100
AcDbEntity
  8
0
100
AcDbLine
 10
150.4725366217368
 20
39.41419999999999
 30
0.0
 11
163.5274633782631
 21
39.41419999999999
 31
0.0
  0
LINE
  5
167C
330
1669
100
AcDbEntity
  8
0
100
AcDbLine
 10
150.4725366217368
 20
40.12129999999999
 30
0.0
 11
163.5274633782631
 21
40.12129999999999
 31
0.0
  0
TEXT
  5
167D
330
1669
100
AcDbEntity
  8
0
100
AcDbText
 10
151.1299348544099
 20
40.47485
 30
0.0
 40
2.0
  1
減速機仕様
100
AcDbText
  0
TEXT
  5
167E
330
1669
100
AcDbEntity
  8
0
100
AcDbText
 10
143.3531994322572
 20
31.6361
 30
0.0
 40
2.0
  1
28T
100
AcDbText
  0
TEXT
  5
167F
330
1669
100
AcDbEntity
  8
0
100
AcDbText
 10
143.3531994322572
 20
35.17159999999998
 30
0.0
 40
2.0
  1
GTR
100
AcDbText
  0
LINE
  5
1680
330
1669
100
AcDbEntity
  8
0
100
AcDbLine
 10
142.5
 20
27.39349999999995
 30
0.0
 11
183.0
 21
27.39349999999993
 31
0.0
  0
ENDBLK
  5
1682
330
1669
100
AcDbEntity
  8
0
100
AcDbBlockEnd
  0
BLOCK
  5
190F
330
18EC
100
AcDbEntity
  8
0
100
AcDbBlockBegin
  2
MSPEC_S60WF-90
 70
     0
 10
0.0
 20
0.0
 30
0.0
  3
MSPEC_S60WF-90
  1

  0
LINE
  5
18ED
330
18EC
100
AcDbEntity
  8
0
100
AcDbLine
 10
126.0
 20
6.180499999999994
 30
0.0
 11
126.0
 21
37.99999999999997
 31
0.0
  0
TEXT
  5
18EE
330
18EC
100
AcDbEntity
  8
0
100
AcDbText
 10
86.35319943225727
 20
28.10060000000001
 30
0.0
 40
2.0
  1
60 W
100
AcDbText
  0
TEXT
  5
18EF
330
18EC
100
AcDbEntity
  8
0
100
AcDbText
 10
74.67809444174623
 20
28.10059999999998
 30
0.0
 40
2.0
  1
出力
100
AcDbText
  0
LINE
  5
18F0
330
18EC
100
AcDbEntity
  8
0
100
AcDbLine
 10
85.5
 20
6.180499999999994
 30
0.0
 11
85.5
 21
38.0
 31
0.0
  0
LINE
  5
18F1
330
18EC
100
AcDbEntity
  8
0
100
AcDbLine
 10
73.99999999999998
 20
6.180500000000023
 30
0.0
 11
74.0
 21
38.0
 31
0.0
  0
TEXT
  5
18F2
330
18EC
100
AcDbEntity
  8
0
100
AcDbText
 10
86.35319943225727
 20
13.95859999999993
 30
0.0
 40
2.0
  1
1500/1800 rpm
100
AcDbText
  0
LINE
  5
18F3
330
18EC
100
AcDbEntity
  8
0
100
AcDbLine
 10
74.0
 20
6.180500000000023
 30
0.0
 11
126.0
 21
6.180499999999994
 31
0.0
  0
LINE
  5
18F4
330
18EC
100
AcDbEntity
  8
0
100
AcDbLine
 10
74.0
 20
9.716000000000008
 30
0.0
 11
126.0
 21
9.715999999999979
 31
0.0
  0
LINE
  5
18F5
330
18EC
100
AcDbEntity
  8
0
100
AcDbLine
 10
74.0
 20
13.25149999999999
 30
0.0
 11
126.0
 21
13.25149999999996
 31
0.0
  0
LINE
  5
18F6
330
18EC
100
AcDbEntity
  8
0
100
AcDbLine
 10
74.0
 20
23.85799999999994
 30
0.0
 11
126.0
 21
23.85799999999992
 31
0.0
  0
LINE
  5
18F7
330
18EC
100
AcDbEntity
  8
0
100
AcDbLine
 10
74.0
 20
16.78699999999997
 30
0.0
 11
126.0
 21
16.78699999999994
 31
0.0
  0
LINE
  5
18F8
330
18EC
100
AcDbEntity
  8
0
100
AcDbLine
 10
74.0
 20
20.32249999999996
 30
0.0
 11
126.0
 21
20.32249999999993
 31
0.0
  0
LINE
  5
18F9
330
18EC
100
AcDbEntity
  8
0
100
AcDbLine
 10
74.0
 20
27.39349999999999
 30
0.0
 11
126.0
 21
27.39349999999996
 31
0.0
  0
TEXT
  5
18FA
330
18EC
100
AcDbEntity
  8
0
100
AcDbText
 10
86.35319943225727
 20
24.56510000000003
 30
0.0
 40
2.0
  1
200 V
100
AcDbText
  0
TEXT
  5
18FB
330
18EC
100
AcDbEntity
  8
0
100
AcDbText
 10
86.35319943225727
 20
21.02959999999995
 30
0.0
 40
2.0
  1
50/60 Hz
100
AcDbText
  0
TEXT
  5
18FC
330
18EC
100
AcDbEntity
  8
0
100
AcDbText
 10
74.67809444174623
 20
10.3295422092805
 30
0.0
 40
2.0
  1
定格
100
AcDbText
  0
TEXT
  5
18FD
330
18EC
100
AcDbEntity
  8
0
100
AcDbText
 10
74.67809444174623
 20
6.794042209280519
 30
0.0
 40
2.0
  1
絶縁
100
AcDbText
  0
TEXT
  5
18FE
330
18EC
100
AcDbEntity
  8
0
100
AcDbText
 10
86.35319943225727
 20
10.42309999999994
 30
0.0
 40
2.0
  1
連続
100
AcDbText
  0
TEXT
  5
18FF
330
18EC
100
AcDbEntity
  8
0
100
AcDbText
 10
86.35319943225727
 20
6.887599999999963
 30
0.0
 40
2.0
  1
E種
100
AcDbText
  0
TEXT
  5
1900
330
18EC
100
AcDbEntity
  8
0
100
AcDbText
 10
74.67809444174623
 20
13.86504220928048
 30
0.0
 40
2.0
  1
回転速度
100
AcDbText
  0
TEXT
  5
1901
330
18EC
100
AcDbEntity
  8
0
100
AcDbText
 10
74.67809444174633
 20
21.02959999999995
 30
0.0
 40
2.0
  1
周波数
100
AcDbText
  0
TEXT
  5
1902
330
18EC
100
AcDbEntity
  8
0
100
AcDbText
 10
74.67809444174623
 20
17.4005422092805
 30
0.0
 40
2.0
  1
極数
100
AcDbText
  0
TEXT
  5
1903
330
18EC
100
AcDbEntity
  8
0
100
AcDbText
 10
74.67809444174623
 20
24.56509999999997
 30
0.0
 40
2.0
  1
電圧
100
AcDbText
  0
TEXT
  5
1904
330
18EC
100
AcDbEntity
  8
0
100
AcDbText
 10
86.35319943225727
 20
17.49409999999994
 30
0.0
 40
2.0
  1
4
100
AcDbText
  0
TEXT
  5
1905
330
18EC
100
AcDbEntity
  8
0
100
AcDbText
 10
86.35319943225727
 20
31.6361
 30
0.0
 40
2.0
  1
全閉外扇形（ｺﾝﾃﾞﾝｻﾗﾝ）DS-90
100
AcDbText
  0
LINE
  5
1906
330
18EC
100
AcDbEntity
  8
0
100
AcDbLine
 10
74.0
 20
38.0
 30
0.0
 11
126.0
 21
37.99999999999997
 31
0.0
  0
LINE
  5
1907
330
18EC
100
AcDbEntity
  8
0
100
AcDbLine
 10
74.0
 20
30.929
 30
0.0
 11
126.0
 21
30.92899999999994
 31
0.0
  0
LINE
  5
1908
330
18EC
100
AcDbEntity
  8
0
100
AcDbLine
 10
74.0
 20
34.46450000000001
 30
0.0
 11
126.0
 21
34.46449999999998
 31
0.0
  0
TEXT
  5
1909
330
18EC
100
AcDbEntity
  8
0
100
AcDbText
 10
86.35319943225727
 20
35.17159999999998
 30
0.0
 40
2.0
  1
単相誘導電動機
100
AcDbText
  0
TEXT
  5
190A
330
18EC
100
AcDbEntity
  8
0
100
AcDbText
 10
74.67809444174623
 20
31.6361
 30
0.0
 40
2.0
  1
型式
100
AcDbText
  0
TEXT
  5
190B
330
18EC
100
AcDbEntity
  8
0
100
AcDbText
 10
74.67809444174623
 20
35.17159999999998
 30
0.0
 40
2.0
  1
名称
100
AcDbText
  0
LINE
  5
190C
330
18EC
100
AcDbEntity
  8
0
100
AcDbLine
 10
93.80123573807338
 20
40.12129999999999
 30
0.0
 11
106.1987642619266
 21
40.12129999999999
 31
0.0
  0
LINE
  5
190D
330
18EC
100
AcDbEntity
  8
0
100
AcDbLine
 10
93.80123573807338
 20
39.41419999999999
 30
0.0
 11
106.1987642619266
 21
39.41419999999999
 31
0.0
  0
TEXT
  5
190E
330
18EC
100
AcDbEntity
  8
0
100
AcDbText
 10
93.99902987649658
 20
40.47485
 30
0.0
 40
2.0
  1
モータ仕様
100
AcDbText
  0
ENDBLK
  5
1910
330
18EC
100
AcDbEntity
  8
0
100
AcDbBlockEnd
  0
BLOCK
  5
1939
330
1916
100
AcDbEntity
  8
0
100
AcDbBlockBegin
  2
MSPEC_S90F-90
 70
     0
 10
0.0
 20
0.0
 30
0.0
  3
MSPEC_S90F-90
  1

  0
LINE
  5
1917
330
1916
100
AcDbEntity
  8
0
100
AcDbLine
 10
126.0
 20
6.180499999999994
 30
0.0
 11
126.0
 21
37.99999999999997
 31
0.0
  0
TEXT
  5
1918
330
1916
100
AcDbEntity
  8
0
100
AcDbText
 10
86.35319943225727
 20
28.10060000000001
 30
0.0
 40
2.0
  1
90 W
100
AcDbText
  0
TEXT
  5
1919
330
1916
100
AcDbEntity
  8
0
100
AcDbText
 10
74.67809444174623
 20
28.10059999999998
 30
0.0
 40
2.0
  1
出力
100
AcDbText
  0
LINE
  5
191A
330
1916
100
AcDbEntity
  8
0
100
AcDbLine
 10
85.5
 20
6.180499999999994
 30
0.0
 11
85.5
 21
38.0
 31
0.0
  0
LINE
  5
191B
330
1916
100
AcDbEntity
  8
0
100
AcDbLine
 10
73.99999999999998
 20
6.180500000000023
 30
0.0
 11
74.0
 21
38.0
 31
0.0
  0
TEXT
  5
191C
330
1916
100
AcDbEntity
  8
0
100
AcDbText
 10
86.35319943225727
 20
13.95859999999993
 30
0.0
 40
2.0
  1
1500/1800 rpm
100
AcDbText
  0
LINE
  5
191D
330
1916
100
AcDbEntity
  8
0
100
AcDbLine
 10
74.0
 20
6.180500000000023
 30
0.0
 11
126.0
 21
6.180499999999994
 31
0.0
  0
LINE
  5
191E
330
1916
100
AcDbEntity
  8
0
100
AcDbLine
 10
74.0
 20
9.716000000000008
 30
0.0
 11
126.0
 21
9.715999999999979
 31
0.0
  0
LINE
  5
191F
330
1916
100
AcDbEntity
  8
0
100
AcDbLine
 10
74.0
 20
13.25149999999999
 30
0.0
 11
126.0
 21
13.25149999999996
 31
0.0
  0
LINE
  5
1920
330
1916
100
AcDbEntity
  8
0
100
AcDbLine
 10
74.0
 20
23.85799999999994
 30
0.0
 11
126.0
 21
23.85799999999992
 31
0.0
  0
LINE
  5
1921
330
1916
100
AcDbEntity
  8
0
100
AcDbLine
 10
74.0
 20
16.78699999999997
 30
0.0
 11
126.0
 21
16.78699999999994
 31
0.0
  0
LINE
  5
1922
330
1916
100
AcDbEntity
  8
0
100
AcDbLine
 10
74.0
 20
20.32249999999996
 30
0.0
 11
126.0
 21
20.32249999999993
 31
0.0
  0
LINE
  5
1923
330
1916
100
AcDbEntity
  8
0
100
AcDbLine
 10
74.0
 20
27.39349999999999
 30
0.0
 11
126.0
 21
27.39349999999996
 31
0.0
  0
TEXT
  5
1924
330
1916
100
AcDbEntity
  8
0
100
AcDbText
 10
86.35319943225727
 20
24.56510000000003
 30
0.0
 40
2.0
  1
100 V
100
AcDbText
  0
TEXT
  5
1925
330
1916
100
AcDbEntity
  8
0
100
AcDbText
 10
86.35319943225727
 20
21.02959999999995
 30
0.0
 40
2.0
  1
50/60 Hz
100
AcDbText
  0
TEXT
  5
1926
330
1916
100
AcDbEntity
  8
0
100
AcDbText
 10
74.67809444174623
 20
10.3295422092805
 30
0.0
 40
2.0
  1
定格
100
AcDbText
  0
TEXT
  5
1927
330
1916
100
AcDbEntity
  8
0
100
AcDbText
 10
74.67809444174623
 20
6.794042209280519
 30
0.0
 40
2.0
  1
絶縁
100
AcDbText
  0
TEXT
  5
1928
330
1916
100
AcDbEntity
  8
0
100
AcDbText
 10
86.35319943225727
 20
10.42309999999994
 30
0.0
 40
2.0
  1
連続
100
AcDbText
  0
TEXT
  5
1929
330
1916
100
AcDbEntity
  8
0
100
AcDbText
 10
86.35319943225727
 20
6.887599999999963
 30
0.0
 40
2.0
  1
E種
100
AcDbText
  0
TEXT
  5
192A
330
1916
100
AcDbEntity
  8
0
100
AcDbText
 10
74.67809444174623
 20
13.86504220928048
 30
0.0
 40
2.0
  1
回転速度
100
AcDbText
  0
TEXT
  5
192B
330
1916
100
AcDbEntity
  8
0
100
AcDbText
 10
74.67809444174633
 20
21.02959999999995
 30
0.0
 40
2.0
  1
周波数
100
AcDbText
  0
TEXT
  5
192C
330
1916
100
AcDbEntity
  8
0
100
AcDbText
 10
74.67809444174623
 20
17.4005422092805
 30
0.0
 40
2.0
  1
極数
100
AcDbText
  0
TEXT
  5
192D
330
1916
100
AcDbEntity
  8
0
100
AcDbText
 10
74.67809444174623
 20
24.56509999999997
 30
0.0
 40
2.0
  1
電圧
100
AcDbText
  0
TEXT
  5
192E
330
1916
100
AcDbEntity
  8
0
100
AcDbText
 10
86.35319943225727
 20
17.49409999999994
 30
0.0
 40
2.0
  1
4
100
AcDbText
  0
TEXT
  5
192F
330
1916
100
AcDbEntity
  8
0
100
AcDbText
 10
86.35319943225727
 20
31.6361
 30
0.0
 40
2.0
  1
全閉外扇形（ｺﾝﾃﾞﾝｻﾗﾝ）DS-90
100
AcDbText
  0
LINE
  5
1930
330
1916
100
AcDbEntity
  8
0
100
AcDbLine
 10
74.0
 20
38.0
 30
0.0
 11
126.0
 21
37.99999999999997
 31
0.0
  0
LINE
  5
1931
330
1916
100
AcDbEntity
  8
0
100
AcDbLine
 10
74.0
 20
30.929
 30
0.0
 11
126.0
 21
30.92899999999994
 31
0.0
  0
LINE
  5
1932
330
1916
100
AcDbEntity
  8
0
100
AcDbLine
 10
74.0
 20
34.46450000000001
 30
0.0
 11
126.0
 21
34.46449999999998
 31
0.0
  0
TEXT
  5
1933
330
1916
100
AcDbEntity
  8
0
100
AcDbText
 10
86.35319943225727
 20
35.17159999999998
 30
0.0
 40
2.0
  1
単相誘導電動機
100
AcDbText
  0
TEXT
  5
1934
330
1916
100
AcDbEntity
  8
0
100
AcDbText
 10
74.67809444174623
 20
31.6361
 30
0.0
 40
2.0
  1
型式
100
AcDbText
  0
TEXT
  5
1935
330
1916
100
AcDbEntity
  8
0
100
AcDbText
 10
74.67809444174623
 20
35.17159999999998
 30
0.0
 40
2.0
  1
名称
100
AcDbText
  0
LINE
  5
1936
330
1916
100
AcDbEntity
  8
0
100
AcDbLine
 10
93.80123573807338
 20
40.12129999999999
 30
0.0
 11
106.1987642619266
 21
40.12129999999999
 31
0.0
  0
LINE
  5
1937
330
1916
100
AcDbEntity
  8
0
100
AcDbLine
 10
93.80123573807338
 20
39.41419999999999
 30
0.0
 11
106.1987642619266
 21
39.41419999999999
 31
0.0
  0
TEXT
  5
1938
330
1916
100
AcDbEntity
  8
0
100
AcDbText
 10
93.99902987649658
 20
40.47485
 30
0.0
 40
2.0
  1
モータ仕様
100
AcDbText
  0
ENDBLK
  5
193A
330
1916
100
AcDbEntity
  8
0
100
AcDbBlockEnd
  0
BLOCK
  5
195F
330
193C
100
AcDbEntity
  8
0
100
AcDbBlockBegin
  2
MSPEC_S90WF-90
 70
     0
 10
0.0
 20
0.0
 30
0.0
  3
MSPEC_S90WF-90
  1

  0
LINE
  5
193D
330
193C
100
AcDbEntity
  8
0
100
AcDbLine
 10
126.0
 20
6.180499999999994
 30
0.0
 11
126.0
 21
37.99999999999997
 31
0.0
  0
TEXT
  5
193E
330
193C
100
AcDbEntity
  8
0
100
AcDbText
 10
86.35319943225727
 20
28.10060000000001
 30
0.0
 40
2.0
  1
90 W
100
AcDbText
  0
TEXT
  5
193F
330
193C
100
AcDbEntity
  8
0
100
AcDbText
 10
74.67809444174623
 20
28.10059999999998
 30
0.0
 40
2.0
  1
出力
100
AcDbText
  0
LINE
  5
1940
330
193C
100
AcDbEntity
  8
0
100
AcDbLine
 10
85.5
 20
6.180499999999994
 30
0.0
 11
85.5
 21
38.0
 31
0.0
  0
LINE
  5
1941
330
193C
100
AcDbEntity
  8
0
100
AcDbLine
 10
73.99999999999998
 20
6.180500000000023
 30
0.0
 11
74.0
 21
38.0
 31
0.0
  0
TEXT
  5
1942
330
193C
100
AcDbEntity
  8
0
100
AcDbText
 10
86.35319943225727
 20
13.95859999999993
 30
0.0
 40
2.0
  1
1500/1800 rpm
100
AcDbText
  0
LINE
  5
1943
330
193C
100
AcDbEntity
  8
0
100
AcDbLine
 10
74.0
 20
6.180500000000023
 30
0.0
 11
126.0
 21
6.180499999999994
 31
0.0
  0
LINE
  5
1944
330
193C
100
AcDbEntity
  8
0
100
AcDbLine
 10
74.0
 20
9.716000000000008
 30
0.0
 11
126.0
 21
9.715999999999979
 31
0.0
  0
LINE
  5
1945
330
193C
100
AcDbEntity
  8
0
100
AcDbLine
 10
74.0
 20
13.25149999999999
 30
0.0
 11
126.0
 21
13.25149999999996
 31
0.0
  0
LINE
  5
1946
330
193C
100
AcDbEntity
  8
0
100
AcDbLine
 10
74.0
 20
23.85799999999994
 30
0.0
 11
126.0
 21
23.85799999999992
 31
0.0
  0
LINE
  5
1947
330
193C
100
AcDbEntity
  8
0
100
AcDbLine
 10
74.0
 20
16.78699999999997
 30
0.0
 11
126.0
 21
16.78699999999994
 31
0.0
  0
LINE
  5
1948
330
193C
100
AcDbEntity
  8
0
100
AcDbLine
 10
74.0
 20
20.32249999999996
 30
0.0
 11
126.0
 21
20.32249999999993
 31
0.0
  0
LINE
  5
1949
330
193C
100
AcDbEntity
  8
0
100
AcDbLine
 10
74.0
 20
27.39349999999999
 30
0.0
 11
126.0
 21
27.39349999999996
 31
0.0
  0
TEXT
  5
194A
330
193C
100
AcDbEntity
  8
0
100
AcDbText
 10
86.35319943225727
 20
24.56510000000003
 30
0.0
 40
2.0
  1
200 V
100
AcDbText
  0
TEXT
  5
194B
330
193C
100
AcDbEntity
  8
0
100
AcDbText
 10
86.35319943225727
 20
21.02959999999995
 30
0.0
 40
2.0
  1
50/60 Hz
100
AcDbText
  0
TEXT
  5
194C
330
193C
100
AcDbEntity
  8
0
100
AcDbText
 10
74.67809444174623
 20
10.3295422092805
 30
0.0
 40
2.0
  1
定格
100
AcDbText
  0
TEXT
  5
194D
330
193C
100
AcDbEntity
  8
0
100
AcDbText
 10
74.67809444174623
 20
6.794042209280519
 30
0.0
 40
2.0
  1
絶縁
100
AcDbText
  0
TEXT
  5
194E
330
193C
100
AcDbEntity
  8
0
100
AcDbText
 10
86.35319943225727
 20
10.42309999999994
 30
0.0
 40
2.0
  1
連続
100
AcDbText
  0
TEXT
  5
194F
330
193C
100
AcDbEntity
  8
0
100
AcDbText
 10
86.35319943225727
 20
6.887599999999963
 30
0.0
 40
2.0
  1
E種
100
AcDbText
  0
TEXT
  5
1950
330
193C
100
AcDbEntity
  8
0
100
AcDbText
 10
74.67809444174623
 20
13.86504220928048
 30
0.0
 40
2.0
  1
回転速度
100
AcDbText
  0
TEXT
  5
1951
330
193C
100
AcDbEntity
  8
0
100
AcDbText
 10
74.67809444174633
 20
21.02959999999995
 30
0.0
 40
2.0
  1
周波数
100
AcDbText
  0
TEXT
  5
1952
330
193C
100
AcDbEntity
  8
0
100
AcDbText
 10
74.67809444174623
 20
17.4005422092805
 30
0.0
 40
2.0
  1
極数
100
AcDbText
  0
TEXT
  5
1953
330
193C
100
AcDbEntity
  8
0
100
AcDbText
 10
74.67809444174623
 20
24.56509999999997
 30
0.0
 40
2.0
  1
電圧
100
AcDbText
  0
TEXT
  5
1954
330
193C
100
AcDbEntity
  8
0
100
AcDbText
 10
86.35319943225727
 20
17.49409999999994
 30
0.0
 40
2.0
  1
4
100
AcDbText
  0
TEXT
  5
1955
330
193C
100
AcDbEntity
  8
0
100
AcDbText
 10
86.35319943225727
 20
31.6361
 30
0.0
 40
2.0
  1
全閉外扇形（ｺﾝﾃﾞﾝｻﾗﾝ）DS-90
100
AcDbText
  0
LINE
  5
1956
330
193C
100
AcDbEntity
  8
0
100
AcDbLine
 10
74.0
 20
38.0
 30
0.0
 11
126.0
 21
37.99999999999997
 31
0.0
  0
LINE
  5
1957
330
193C
100
AcDbEntity
  8
0
100
AcDbLine
 10
74.0
 20
30.929
 30
0.0
 11
126.0
 21
30.92899999999994
 31
0.0
  0
LINE
  5
1958
330
193C
100
AcDbEntity
  8
0
100
AcDbLine
 10
74.0
 20
34.46450000000001
 30
0.0
 11
126.0
 21
34.46449999999998
 31
0.0
  0
TEXT
  5
1959
330
193C
100
AcDbEntity
  8
0
100
AcDbText
 10
86.35319943225727
 20
35.17159999999998
 30
0.0
 40
2.0
  1
単相誘導電動機
100
AcDbText
  0
TEXT
  5
195A
330
193C
100
AcDbEntity
  8
0
100
AcDbText
 10
74.67809444174623
 20
31.6361
 30
0.0
 40
2.0
  1
型式
100
AcDbText
  0
TEXT
  5
195B
330
193C
100
AcDbEntity
  8
0
100
AcDbText
 10
74.67809444174623
 20
35.17159999999998
 30
0.0
 40
2.0
  1
名称
100
AcDbText
  0
LINE
  5
195C
330
193C
100
AcDbEntity
  8
0
100
AcDbLine
 10
93.80123573807338
 20
40.12129999999999
 30
0.0
 11
106.1987642619266
 21
40.12129999999999
 31
0.0
  0
LINE
  5
195D
330
193C
100
AcDbEntity
  8
0
100
AcDbLine
 10
93.80123573807338
 20
39.41419999999999
 30
0.0
 11
106.1987642619266
 21
39.41419999999999
 31
0.0
  0
TEXT
  5
195E
330
193C
100
AcDbEntity
  8
0
100
AcDbText
 10
93.99902987649658
 20
40.47485
 30
0.0
 40
2.0
  1
モータ仕様
100
AcDbText
  0
ENDBLK
  5
1960
330
193C
100
AcDbEntity
  8
0
100
AcDbBlockEnd
  0
BLOCK
  5
1982
330
196B
100
AcDbEntity
  8
0
100
AcDbBlockBegin
  2
BSPEC_90-90-0038
 70
     0
 10
0.0
 20
0.0
 30
0.0
  3
BSPEC_90-90-0038
  1

  0
TEXT
  5
196C
330
196B
100
AcDbEntity
  8
0
100
AcDbText
 10
35.94757247309064
 20
40.47485
 30
0.0
 40
2.0
  1
ブレーキ仕様
100
AcDbText
  0
LINE
  5
196D
330
196B
100
AcDbEntity
  8
0
100
AcDbLine
 10
35.94757247309064
 20
40.12129999999999
 30
0.0
 11
50.05242752690936
 21
40.12129999999999
 31
0.0
  0
LINE
  5
196E
330
196B
100
AcDbEntity
  8
0
100
AcDbLine
 10
35.94757247309064
 20
39.41419999999999
 30
0.0
 11
50.05242752690936
 21
39.41419999999999
 31
0.0
  0
TEXT
  5
196F
330
196B
100
AcDbEntity
  8
0
100
AcDbText
 10
29.35319943225727
 20
21.29776682820352
 30
0.0
 40
2.0
  1
0.37N・m（0.038kgf・m）
100
AcDbText
  0
TEXT
  5
1970
330
196B
100
AcDbEntity
  8
0
100
AcDbText
 10
29.35319943225727
 20
24.56510000000003
 30
0.0
 40
2.0
  1
12 W （於75℃）
100
AcDbText
  0
TEXT
  5
1971
330
196B
100
AcDbEntity
  8
0
100
AcDbText
 10
29.35319943225727
 20
31.6361
 30
0.0
 40
2.0
  1
無励磁作動形（スプリングクローズ）
100
AcDbText
  0
LINE
  5
1972
330
196B
100
AcDbEntity
  8
0
100
AcDbLine
 10
17.0
 20
20.32249999999996
 30
0.0
 11
69.0
 21
20.32249999999996
 31
0.0
  0
LINE
  5
1973
330
196B
100
AcDbEntity
  8
0
100
AcDbLine
 10
17.0
 20
23.85799999999994
 30
0.0
 11
69.0
 21
23.85799999999994
 31
0.0
  0
LINE
  5
1974
330
196B
100
AcDbEntity
  8
0
100
AcDbLine
 10
17.0
 20
27.39349999999999
 30
0.0
 11
69.0
 21
27.39349999999999
 31
0.0
  0
LINE
  5
1975
330
196B
100
AcDbEntity
  8
0
100
AcDbLine
 10
17.0
 20
30.929
 30
0.0
 11
69.0
 21
30.92899999999997
 31
0.0
  0
LINE
  5
1976
330
196B
100
AcDbEntity
  8
0
100
AcDbLine
 10
17.0
 20
34.46450000000001
 30
0.0
 11
69.0
 21
34.46450000000001
 31
0.0
  0
LINE
  5
1977
330
196B
100
AcDbEntity
  8
0
100
AcDbLine
 10
17.0
 20
38.0
 30
0.0
 11
69.0
 21
38.0
 31
0.0
  0
TEXT
  5
1978
330
196B
100
AcDbEntity
  8
0
100
AcDbText
 10
29.35319943225727
 20
28.10060000000001
 30
0.0
 40
2.0
  1
DC 90V
100
AcDbText
  0
TEXT
  5
1979
330
196B
100
AcDbEntity
  8
0
100
AcDbText
 10
17.67809444174622
 20
28.10059999999998
 30
0.0
 40
2.0
  1
入力電圧
100
AcDbText
  0
LINE
  5
197A
330
196B
100
AcDbEntity
  8
0
100
AcDbLine
 10
28.5
 20
20.32249999999996
 30
0.0
 11
28.5
 21
38.0
 31
0.0
  0
LINE
  5
197B
330
196B
100
AcDbEntity
  8
0
100
AcDbLine
 10
17.0
 20
20.32249999999996
 30
0.0
 11
17.0
 21
38.0
 31
0.0
  0
TEXT
  5
197C
330
196B
100
AcDbEntity
  8
0
100
AcDbText
 10
17.67809444174622
 20
20.93604220928048
 30
0.0
 40
2.0
  1
定格トルク
 41
0.85
100
AcDbText
  0
TEXT
  5
197D
330
196B
100
AcDbEntity
  8
0
100
AcDbText
 10
17.67809444174622
 20
24.56509999999994
 30
0.0
 40
2.0
  1
容量
100
AcDbText
  0
TEXT
  5
197E
330
196B
100
AcDbEntity
  8
0
100
AcDbText
 10
17.67809444174622
 20
35.17159999999998
 30
0.0
 40
2.0
  1
型式
100
AcDbText
  0
TEXT
  5
197F
330
196B
100
AcDbEntity
  8
0
100
AcDbText
 10
17.67809444174622
 20
31.6361
 30
0.0
 40
2.0
  1
方式
100
AcDbText
  0
TEXT
  5
1980
330
196B
100
AcDbEntity
  8
0
100
AcDbText
 10
29.35319943225727
 20
35.17159999999998
 30
0.0
 40
2.0
  1
BS-90
100
AcDbText
  0
LINE
  5
1981
330
196B
100
AcDbEntity
  8
0
100
AcDbLine
 10
69.0
 20
20.32249999999996
 30
0.0
 11
69.0
 21
38.0
 31
0.0
  0
ENDBLK
  5
1983
330
196B
100
AcDbEntity
  8
0
100
AcDbBlockEnd
  0
BLOCK
  5
19FE
330
19E7
100
AcDbEntity
  8
0
100
AcDbBlockBegin
  2
BSPEC_90-90-0055
 70
     0
 10
0.0
 20
0.0
 30
0.0
  3
BSPEC_90-90-0055
  1

  0
TEXT
  5
19E8
330
19E7
100
AcDbEntity
  8
0
100
AcDbText
 10
35.94757247309064
 20
40.47485
 30
0.0
 40
2.0
  1
ブレーキ仕様
100
AcDbText
  0
LINE
  5
19E9
330
19E7
100
AcDbEntity
  8
0
100
AcDbLine
 10
35.94757247309064
 20
40.12129999999999
 30
0.0
 11
50.05242752690936
 21
40.12129999999999
 31
0.0
  0
LINE
  5
19EA
330
19E7
100
AcDbEntity
  8
0
100
AcDbLine
 10
35.94757247309064
 20
39.41419999999999
 30
0.0
 11
50.05242752690936
 21
39.41419999999999
 31
0.0
  0
TEXT
  5
19EB
330
19E7
100
AcDbEntity
  8
0
100
AcDbText
 10
29.35319943225727
 20
21.29776682820352
 30
0.0
 40
2.0
  1
0.54N・m（0.055kgf・m）
100
AcDbText
  0
TEXT
  5
19EC
330
19E7
100
AcDbEntity
  8
0
100
AcDbText
 10
29.35319943225727
 20
24.56510000000003
 30
0.0
 40
2.0
  1
12 W （於75℃）
100
AcDbText
  0
TEXT
  5
19ED
330
19E7
100
AcDbEntity
  8
0
100
AcDbText
 10
29.35319943225727
 20
31.6361
 30
0.0
 40
2.0
  1
無励磁作動形（スプリングクローズ）
100
AcDbText
  0
LINE
  5
19EE
330
19E7
100
AcDbEntity
  8
0
100
AcDbLine
 10
17.0
 20
20.32249999999996
 30
0.0
 11
69.0
 21
20.32249999999996
 31
0.0
  0
LINE
  5
19EF
330
19E7
100
AcDbEntity
  8
0
100
AcDbLine
 10
17.0
 20
23.85799999999994
 30
0.0
 11
69.0
 21
23.85799999999994
 31
0.0
  0
LINE
  5
19F0
330
19E7
100
AcDbEntity
  8
0
100
AcDbLine
 10
17.0
 20
27.39349999999999
 30
0.0
 11
69.0
 21
27.39349999999999
 31
0.0
  0
LINE
  5
19F1
330
19E7
100
AcDbEntity
  8
0
100
AcDbLine
 10
17.0
 20
30.929
 30
0.0
 11
69.0
 21
30.92899999999997
 31
0.0
  0
LINE
  5
19F2
330
19E7
100
AcDbEntity
  8
0
100
AcDbLine
 10
17.0
 20
34.46450000000001
 30
0.0
 11
69.0
 21
34.46450000000001
 31
0.0
  0
LINE
  5
19F3
330
19E7
100
AcDbEntity
  8
0
100
AcDbLine
 10
17.0
 20
38.0
 30
0.0
 11
69.0
 21
38.0
 31
0.0
  0
TEXT
  5
19F4
330
19E7
100
AcDbEntity
  8
0
100
AcDbText
 10
29.35319943225727
 20
28.10060000000001
 30
0.0
 40
2.0
  1
DC 90V
100
AcDbText
  0
TEXT
  5
19F5
330
19E7
100
AcDbEntity
  8
0
100
AcDbText
 10
17.67809444174622
 20
28.10059999999998
 30
0.0
 40
2.0
  1
入力電圧
100
AcDbText
  0
LINE
  5
19F6
330
19E7
100
AcDbEntity
  8
0
100
AcDbLine
 10
28.5
 20
20.32249999999996
 30
0.0
 11
28.5
 21
38.0
 31
0.0
  0
LINE
  5
19F7
330
19E7
100
AcDbEntity
  8
0
100
AcDbLine
 10
17.0
 20
20.32249999999996
 30
0.0
 11
17.0
 21
38.0
 31
0.0
  0
TEXT
  5
19F8
330
19E7
100
AcDbEntity
  8
0
100
AcDbText
 10
17.67809444174622
 20
20.93604220928048
 30
0.0
 40
2.0
  1
定格トルク
 41
0.85
100
AcDbText
  0
TEXT
  5
19F9
330
19E7
100
AcDbEntity
  8
0
100
AcDbText
 10
17.67809444174622
 20
24.56509999999994
 30
0.0
 40
2.0
  1
容量
100
AcDbText
  0
TEXT
  5
19FA
330
19E7
100
AcDbEntity
  8
0
100
AcDbText
 10
17.67809444174622
 20
35.17159999999998
 30
0.0
 40
2.0
  1
型式
100
AcDbText
  0
TEXT
  5
19FB
330
19E7
100
AcDbEntity
  8
0
100
AcDbText
 10
17.67809444174622
 20
31.6361
 30
0.0
 40
2.0
  1
方式
100
AcDbText
  0
TEXT
  5
19FC
330
19E7
100
AcDbEntity
  8
0
100
AcDbText
 10
29.35319943225727
 20
35.17159999999998
 30
0.0
 40
2.0
  1
BS-90
100
AcDbText
  0
LINE
  5
19FD
330
19E7
100
AcDbEntity
  8
0
100
AcDbLine
 10
69.0
 20
20.32249999999996
 30
0.0
 11
69.0
 21
38.0
 31
0.0
  0
ENDBLK
  5
19FF
330
19E7
100
AcDbEntity
  8
0
100
AcDbBlockEnd
  0
BLOCK
  5
1A66
330
1A4F
100
AcDbEntity
  8
0
100
AcDbBlockBegin
  2
BSPEC_90-45-0055
 70
     0
 10
0.0
 20
0.0
 30
0.0
  3
BSPEC_90-45-0055
  1

  0
TEXT
  5
1A50
330
1A4F
100
AcDbEntity
  8
0
100
AcDbText
 10
35.94757247309064
 20
40.47485
 30
0.0
 40
2.0
  1
ブレーキ仕様
100
AcDbText
  0
LINE
  5
1A51
330
1A4F
100
AcDbEntity
  8
0
100
AcDbLine
 10
35.94757247309064
 20
40.12129999999999
 30
0.0
 11
50.05242752690936
 21
40.12129999999999
 31
0.0
  0
LINE
  5
1A52
330
1A4F
100
AcDbEntity
  8
0
100
AcDbLine
 10
35.94757247309064
 20
39.41419999999999
 30
0.0
 11
50.05242752690936
 21
39.41419999999999
 31
0.0
  0
TEXT
  5
1A53
330
1A4F
100
AcDbEntity
  8
0
100
AcDbText
 10
29.35319943225727
 20
21.29776682820352
 30
0.0
 40
2.0
  1
0.54N・m（0.055kgf・m）
100
AcDbText
  0
TEXT
  5
1A54
330
1A4F
100
AcDbEntity
  8
0
100
AcDbText
 10
29.35319943225727
 20
24.56510000000003
 30
0.0
 40
2.0
  1
10 W （於75℃）
100
AcDbText
  0
TEXT
  5
1A55
330
1A4F
100
AcDbEntity
  8
0
100
AcDbText
 10
29.35319943225727
 20
31.6361
 30
0.0
 40
2.0
  1
無励磁作動形（スプリングクローズ）
100
AcDbText
  0
LINE
  5
1A56
330
1A4F
100
AcDbEntity
  8
0
100
AcDbLine
 10
17.0
 20
20.32249999999996
 30
0.0
 11
69.0
 21
20.32249999999996
 31
0.0
  0
LINE
  5
1A57
330
1A4F
100
AcDbEntity
  8
0
100
AcDbLine
 10
17.0
 20
23.85799999999994
 30
0.0
 11
69.0
 21
23.85799999999994
 31
0.0
  0
LINE
  5
1A58
330
1A4F
100
AcDbEntity
  8
0
100
AcDbLine
 10
17.0
 20
27.39349999999999
 30
0.0
 11
69.0
 21
27.39349999999999
 31
0.0
  0
LINE
  5
1A59
330
1A4F
100
AcDbEntity
  8
0
100
AcDbLine
 10
17.0
 20
30.929
 30
0.0
 11
69.0
 21
30.92899999999997
 31
0.0
  0
LINE
  5
1A5A
330
1A4F
100
AcDbEntity
  8
0
100
AcDbLine
 10
17.0
 20
34.46450000000001
 30
0.0
 11
69.0
 21
34.46450000000001
 31
0.0
  0
LINE
  5
1A5B
330
1A4F
100
AcDbEntity
  8
0
100
AcDbLine
 10
17.0
 20
38.0
 30
0.0
 11
69.0
 21
38.0
 31
0.0
  0
TEXT
  5
1A5C
330
1A4F
100
AcDbEntity
  8
0
100
AcDbText
 10
29.35319943225727
 20
28.10060000000001
 30
0.0
 40
2.0
  1
DC 45V
100
AcDbText
  0
TEXT
  5
1A5D
330
1A4F
100
AcDbEntity
  8
0
100
AcDbText
 10
17.67809444174622
 20
28.10059999999998
 30
0.0
 40
2.0
  1
入力電圧
100
AcDbText
  0
LINE
  5
1A5E
330
1A4F
100
AcDbEntity
  8
0
100
AcDbLine
 10
28.5
 20
20.32249999999996
 30
0.0
 11
28.5
 21
38.0
 31
0.0
  0
LINE
  5
1A5F
330
1A4F
100
AcDbEntity
  8
0
100
AcDbLine
 10
17.0
 20
20.32249999999996
 30
0.0
 11
17.0
 21
38.0
 31
0.0
  0
TEXT
  5
1A60
330
1A4F
100
AcDbEntity
  8
0
100
AcDbText
 10
17.67809444174622
 20
20.93604220928048
 30
0.0
 40
2.0
  1
定格トルク
 41
0.85
100
AcDbText
  0
TEXT
  5
1A61
330
1A4F
100
AcDbEntity
  8
0
100
AcDbText
 10
17.67809444174622
 20
24.56509999999994
 30
0.0
 40
2.0
  1
容量
100
AcDbText
  0
TEXT
  5
1A62
330
1A4F
100
AcDbEntity
  8
0
100
AcDbText
 10
17.67809444174622
 20
35.17159999999998
 30
0.0
 40
2.0
  1
型式
100
AcDbText
  0
TEXT
  5
1A63
330
1A4F
100
AcDbEntity
  8
0
100
AcDbText
 10
17.67809444174622
 20
31.6361
 30
0.0
 40
2.0
  1
方式
100
AcDbText
  0
TEXT
  5
1A64
330
1A4F
100
AcDbEntity
  8
0
100
AcDbText
 10
29.35319943225727
 20
35.17159999999998
 30
0.0
 40
2.0
  1
BS-90
100
AcDbText
  0
LINE
  5
1A65
330
1A4F
100
AcDbEntity
  8
0
100
AcDbLine
 10
69.0
 20
20.32249999999996
 30
0.0
 11
69.0
 21
38.0
 31
0.0
  0
ENDBLK
  5
1A67
330
1A4F
100
AcDbEntity
  8
0
100
AcDbBlockEnd
  0
BLOCK
  5
1B06
330
1B03
100
AcDbEntity
  8
0
100
AcDbBlockBegin
  2
17
 70
     0
 10
0.0
 20
0.0
 30
0.0
  3
17
  1

  0
TEXT
  5
1B04
330
1B03
100
AcDbEntity
  8
0
100
AcDbText
 10
0.0
 20
3.5
 30
0.0
 40
2.0
  1
注。K型ターミナルボックスにはコネクター（キャプコン、膜付ゴム
100
AcDbText
  0
TEXT
  5
1B05
330
1B03
100
AcDbEntity
  8
0
100
AcDbText
 10
0.0
 20
0.0
 30
0.0
 40
2.0
  1
　　ブッシュ）が付属されています。
100
AcDbText
  0
ENDBLK
  5
1B07
330
1B03
100
AcDbEntity
  8
0
100
AcDbBlockEnd
  0
ENDSEC
  0
SECTION
  2
ENTITIES
  0
ARC
  5
6B3
330
2
100
AcDbEntity
  8
0
100
AcDbCircle
 10
401.1287027064067
 20
96.49518037593196
 30
0.0
 40
3.0
100
AcDbArc
 50
38.65954599999965
 51
90.0
  0
LINE
  5
6B4
330
2
100
AcDbEntity
  8
0
100
AcDbLine
 10
399.5705977064067
 20
399.9903997640317
 30
0.0
 11
431.5557047064067
 21
399.9903997640317
 31
0.0
  0
LINE
  5
6B5
330
2
100
AcDbEntity
  8
0
100
AcDbLine
 10
399.5705977064067
 20
525.9903997640317
 30
0.0
 11
431.5557047064067
 21
525.9903997640317
 31
0.0
  0
LINE
  5
6B6
330
2
100
AcDbEntity
  8
0
100
AcDbLine
 10
412.2828477064067
 20
409.9903997640317
 30
0.0
 11
352.8583167064067
 21
409.9903997640317
 31
0.0
  0
LINE
  5
6B7
330
2
100
AcDbEntity
  8
0
100
AcDbLine
 10
412.2828477064067
 20
515.9903997640317
 30
0.0
 11
352.8583167064067
 21
515.9903997640317
 31
0.0
  0
LINE
  5
6B8
330
2
100
AcDbEntity
  8
0
100
AcDbLine
 10
322.4071907064067
 20
425.9903997640317
 30
0.0
 11
441.4766647064068
 21
425.9903997640317
 31
0.0
  0
LINE
  5
6B9
330
2
100
AcDbEntity
  8
0
100
AcDbLine
 10
322.3339637064067
 20
499.9903997640317
 30
0.0
 11
441.4766647064068
 21
499.9903997640317
 31
0.0
  0
LINE
  5
6BA
330
2
100
AcDbEntity
  8
CENTER
100
AcDbLine
 10
59.57058270640676
 20
462.9903997640318
 30
0.0
 11
455.0705977064067
 21
462.9903997640317
 31
0.0
  0
LINE
  5
6BB
330
2
100
AcDbEntity
  8
0
100
AcDbLine
 10
322.3339637064067
 20
499.9903997640317
 30
0.0
 11
441.4766647064068
 21
499.9903997640317
 31
0.0
  0
ARC
  5
6BC
330
2
100
AcDbEntity
  8
0
100
AcDbCircle
 10
382.5705977064067
 20
199.4951883759319
 30
0.0
 40
35.5
100
AcDbArc
 50
170.5292050000001
 51
9.47102199999972
  0
ARC
  5
6BD
330
2
100
AcDbEntity
  8
0
100
AcDbCircle
 10
382.5705977064067
 20
199.4951883759319
 30
0.0
 40
38.0
100
AcDbArc
 50
9.470962999999663
 51
170.5290070000004
  0
ARC
  5
6BE
330
2
100
AcDbEntity
  8
0
100
AcDbCircle
 10
382.5705977064067
 20
199.4951883759319
 30
0.0
 40
38.0
100
AcDbArc
 50
9.470961000000125
 51
170.5290989999998
  0
CIRCLE
  5
6BF
330
2
100
AcDbEntity
  8
0
100
AcDbCircle
 10
382.5705977064067
 20
199.4951883759319
 30
0.0
 40
33.5
  0
LINE
  5
6C0
330
2
100
AcDbEntity
  8
0
100
AcDbLine
 10
362.5705977064067
 20
125.4951803759319
 30
0.0
 11
402.5705977064067
 21
125.4951803759319
 31
0.0
  0
LINE
  5
6C1
330
2
100
AcDbEntity
  8
0
100
AcDbLine
 10
362.5705977064067
 20
122.9951803759319
 30
0.0
 11
402.5705977064067
 21
122.9951803759319
 31
0.0
  0
LINE
  5
6C2
330
2
100
AcDbEntity
  8
0
100
AcDbLine
 10
323.0705827064067
 20
94.49518037593197
 30
0.0
 11
442.0705977064066
 21
94.49518037593197
 31
0.0
  0
LINE
  5
6C3
330
2
100
AcDbEntity
  8
0
100
AcDbLine
 10
360.1249797064067
 20
253.9951423759319
 30
0.0
 11
405.0161847064067
 21
253.9951423759319
 31
0.0
  0
LINE
  5
6C4
330
2
100
AcDbEntity
  8
CENTER
100
AcDbLine
 10
334.0454868591768
 20
199.4951883759319
 30
0.0
 11
431.095704541792
 21
199.495188375932
 31
0.0
  0
LINE
  5
6C5
330
2
100
AcDbEntity
  8
0
100
AcDbLine
 10
320.0705827064067
 20
79.49518137593196
 30
0.0
 11
445.0705977064067
 21
79.49518137593196
 31
0.0
  0
LINE
  5
6C6
330
2
100
AcDbEntity
  8
CENTER
100
AcDbLine
 10
59.570582706408
 20
150.4951803759319
 30
0.0
 11
343.8205977064067
 21
150.4951803759319
 31
0.0
  0
LINE
  5
6C7
330
2
100
AcDbEntity
  8
0
100
AcDbLine
 10
126.5705857064067
 20
116.0858823759319
 30
0.0
 11
235.5329087064067
 21
116.0858823759319
 31
0.0
  0
LINE
  5
6C8
330
2
100
AcDbEntity
  8
0
100
AcDbLine
 10
126.5705857064067
 20
184.9044823759319
 30
0.0
 11
235.5329087064067
 21
184.9044823759319
 31
0.0
  0
LINE
  5
6C9
330
2
100
AcDbEntity
  8
0
100
AcDbLine
 10
126.5705857064067
 20
105.4951803759319
 30
0.0
 11
245.5705827064067
 21
105.4951803759319
 31
0.0
  0
LINE
  5
6CA
330
2
100
AcDbEntity
  8
0
100
AcDbLine
 10
126.5705857064067
 20
195.4951803759319
 30
0.0
 11
245.5705827064067
 21
195.4951803759319
 31
0.0
  0
LINE
  5
6CB
330
2
100
AcDbEntity
  8
0
100
AcDbLine
 10
126.5705857064067
 20
105.4951803759319
 30
0.0
 11
126.5705857064067
 21
195.4951803759319
 31
0.0
  0
LINE
  5
6CC
330
2
100
AcDbEntity
  8
0
100
AcDbLine
 10
69.57059770640672
 20
192.4951803759319
 30
0.0
 11
69.57056770640679
 21
108.4951733759319
 31
0.0
  0
LINE
  5
6CD
330
2
100
AcDbEntity
  8
0
100
AcDbLine
 10
117.0705857064067
 20
197.4951803759319
 30
0.0
 11
117.0705857064067
 21
103.4951803759319
 31
0.0
  0
ARC
  5
6CF
330
2
100
AcDbEntity
  8
0
100
AcDbCircle
 10
74.57056770640679
 20
108.4951803759319
 30
0.0
 40
5.0
100
AcDbArc
 50
180.0
 51
270.0
  0
LINE
  5
6D0
330
2
100
AcDbEntity
  8
0
100
AcDbLine
 10
126.5705857064067
 20
116.0858903759319
 30
0.0
 11
117.0705857064067
 21
116.0858903759319
 31
0.0
  0
LINE
  5
6D1
330
2
100
AcDbEntity
  8
0
100
AcDbLine
 10
117.0705857064067
 20
105.4951803759319
 30
0.0
 11
126.5705857064067
 21
105.4951803759319
 31
0.0
  0
LINE
  5
6D2
330
2
100
AcDbEntity
  8
0
100
AcDbLine
 10
74.57056770640679
 20
103.4951803759319
 30
0.0
 11
117.0705857064067
 21
103.4951803759319
 31
0.0
  0
LINE
  5
6D3
330
2
100
AcDbEntity
  8
0
100
AcDbLine
 10
117.0705857064067
 20
121.4951803759319
 30
0.0
 11
73.09555770640679
 21
121.4951803759319
 31
0.0
  0
ARC
  5
6D4
330
2
100
AcDbEntity
  8
0
100
AcDbCircle
 10
74.57059770640672
 20
192.4951803759319
 30
0.0
 40
5.0
100
AcDbArc
 50
90.0
 51
180.0
  0
LINE
  5
6D6
330
2
100
AcDbEntity
  8
0
100
AcDbLine
 10
126.5705857064067
 20
184.9044823759319
 30
0.0
 11
117.0705857064067
 21
184.9044823759319
 31
0.0
  0
LINE
  5
6D7
330
2
100
AcDbEntity
  8
0
100
AcDbLine
 10
117.0705857064067
 20
195.4951803759319
 30
0.0
 11
126.5705857064067
 21
195.4951803759319
 31
0.0
  0
LINE
  5
6D8
330
2
100
AcDbEntity
  8
0
100
AcDbLine
 10
117.0705857064067
 20
179.4951803759319
 30
0.0
 11
73.09555770640679
 21
179.4951803759319
 31
0.0
  0
LINE
  5
6D9
330
2
100
AcDbEntity
  8
HOJO
100
AcDbLine
 10
118.5705857064067
 20
174.0245843759319
 30
0.0
 11
120.0705857064067
 21
174.5245843759319
 31
0.0
  0
LINE
  5
6DA
330
2
100
AcDbEntity
  8
0
100
AcDbLine
 10
118.5705857064067
 20
179.0245843759319
 30
0.0
 11
118.5705857064067
 21
174.0089823759319
 31
0.0
  0
ARC
  5
6DB
330
2
100
AcDbEntity
  8
0
100
AcDbCircle
 10
117.0705857064067
 20
179.0245843759319
 30
0.0
 40
4.5
100
AcDbArc
 50
0.0
 51
90.0
  0
ARC
  5
6DC
330
2
100
AcDbEntity
  8
0
100
AcDbCircle
 10
117.0705857064067
 20
179.0245843759319
 30
0.0
 40
3.0
100
AcDbArc
 50
0.0
 51
90.0
  0
ARC
  5
6DD
330
2
100
AcDbEntity
  8
0
100
AcDbCircle
 10
117.0705857064067
 20
179.0245843759319
 30
0.0
 40
1.5
100
AcDbArc
 50
0.0
 51
90.0
  0
LINE
  5
6DE
330
2
100
AcDbEntity
  8
HOJO
100
AcDbLine
 10
120.0705857064067
 20
175.0245843759319
 30
0.0
 11
121.5705857064067
 21
174.5245843759319
 31
0.0
  0
LINE
  5
6DF
330
2
100
AcDbEntity
  8
0
100
AcDbLine
 10
121.5705857064067
 20
179.0245843759319
 30
0.0
 11
121.5705857064067
 21
174.5245843759319
 31
0.0
  0
LINE
  5
6E0
330
2
100
AcDbEntity
  8
0
100
AcDbLine
 10
120.0705857064067
 20
179.0245843759319
 30
0.0
 11
120.0705857064067
 21
174.5245843759319
 31
0.0
  0
LINE
  5
6E1
330
2
100
AcDbEntity
  8
0
100
AcDbLine
 10
74.57056770640679
 20
197.4951803759319
 30
0.0
 11
117.0705857064067
 21
197.4951803759319
 31
0.0
  0
LINE
  5
6EB
330
2
100
AcDbEntity
  8
0
100
AcDbLine
 10
291.5705827064067
 20
124.1429163759319
 30
0.0
 11
291.5705827064067
 21
225.4953103759319
 31
0.0
  0
ARC
  5
6EC
330
2
100
AcDbEntity
  8
0
100
AcDbCircle
 10
502.5237837064066
 20
163.4951803759319
 30
0.0
 40
191.053177
100
AcDbArc
 50
164.3309020000002
 51
195.6690979999997
  0
LINE
  5
6ED
330
2
100
AcDbEntity
  8
0
100
AcDbLine
 10
245.5705827064067
 20
195.4951803759319
 30
0.0
 11
245.5705827064067
 21
105.4951803759319
 31
0.0
  0
LINE
  5
6EE
330
2
100
AcDbEntity
  8
0
100
AcDbLine
 10
300.0705827064067
 20
227.4952793759319
 30
0.0
 11
300.0705827064067
 21
99.49508337593199
 31
0.0
  0
LINE
  5
6EF
330
2
100
AcDbEntity
  8
0
100
AcDbLine
 10
338.8977767064068
 20
153.4442773759319
 30
0.0
 11
347.5543927064068
 21
205.3365273759319
 31
0.0
  0
LINE
  5
6F0
330
2
100
AcDbEntity
  8
0
100
AcDbLine
 10
320.0705827064067
 20
79.49518137593196
 30
0.0
 11
320.0705827064067
 21
224.8667553759319
 31
0.0
  0
LINE
  5
6F1
330
2
100
AcDbEntity
  8
0
100
AcDbLine
 10
336.4317727064067
 20
153.8556543759319
 30
0.0
 11
345.0886027064067
 21
205.7480263759319
 31
0.0
  0
LINE
  5
6F2
330
2
100
AcDbEntity
  8
CENTER
100
AcDbLine
 10
382.5705977064068
 20
263.9951423759319
 30
0.0
 11
382.5705977064067
 21
69.49518137593196
 31
0.0
  0
LINE
  5
6F3
330
2
100
AcDbEntity
  8
0
100
AcDbLine
 10
236.5705827064067
 20
193.4951803759319
 30
0.0
 11
236.5705827064067
 21
107.4951613759319
 31
0.0
  0
ARC
  5
6F4
330
2
100
AcDbEntity
  8
0
100
AcDbCircle
 10
289.0706277064067
 20
101.4746023759319
 30
0.0
 40
2.5
100
AcDbArc
 50
0.2607730000002915
 51
88.00000000000043
  0
LINE
  5
6F5
330
2
100
AcDbEntity
  8
0
100
AcDbLine
 10
245.5705827064067
 20
114.9761793759319
 30
0.0
 11
300.0705827064067
 21
114.9761833759319
 31
0.0
  0
ARC
  5
6F6
330
2
100
AcDbEntity
  8
0
100
AcDbCircle
 10
293.5705827064067
 20
101.4950833759319
 30
0.0
 40
2.0
100
AcDbArc
 50
180.2607730000002
 51
270.0
  0
LINE
  5
6F7
330
2
100
AcDbEntity
  8
0
100
AcDbLine
 10
300.0705827064067
 20
103.5919973759319
 30
0.0
 11
245.5705827064067
 21
105.4951803759319
 31
0.0
  0
ARC
  5
6F8
330
2
100
AcDbEntity
  8
0
100
AcDbCircle
 10
238.5705827064067
 20
107.4951803759319
 30
0.0
 40
2.0
100
AcDbArc
 50
180.0
 51
270.0
  0
LINE
  5
6F9
330
2
100
AcDbEntity
  8
0
100
AcDbLine
 10
245.5705827064067
 20
129.9891803759319
 30
0.0
 11
289.5705827064067
 21
129.9891803759319
 31
0.0
  0
LINE
  5
6FA
330
2
100
AcDbEntity
  8
CENTER
100
AcDbLine
 10
342.5705977064068
 20
99.495180375932
 30
0.0
 11
342.5705977064068
 21
74.49518137593196
 31
0.0
  0
ARC
  5
6FB
330
2
100
AcDbEntity
  8
0
100
AcDbCircle
 10
362.5705977064067
 20
149.4951803759319
 30
0.0
 40
24.0
100
AcDbArc
 50
169.5762940000003
 51
270.0
  0
ARC
  5
6FC
330
2
100
AcDbEntity
  8
0
100
AcDbCircle
 10
362.5705977064067
 20
149.4951803759319
 30
0.0
 40
26.5
100
AcDbArc
 50
170.5290989999998
 51
270.0
  0
LINE
  5
6FD
330
2
100
AcDbEntity
  8
0
100
AcDbLine
 10
318.5705827064067
 20
111.8952013759319
 30
0.0
 11
320.0705827064067
 21
111.8952013759319
 31
0.0
  0
ARC
  5
6FE
330
2
100
AcDbEntity
  8
0
100
AcDbCircle
 10
315.0706127064068
 20
94.49506637593197
 30
0.0
 40
5.0
100
AcDbArc
 50
0.0
 51
90.0
  0
LINE
  5
6FF
330
2
100
AcDbEntity
  8
0
100
AcDbLine
 10
300.0705827064067
 20
99.49508337593199
 30
0.0
 11
315.0705827064067
 21
99.49508337593199
 31
0.0
  0
LINE
  5
700
330
2
100
AcDbEntity
  8
0
100
AcDbLine
 10
293.5705827064067
 20
99.49508337593199
 30
0.0
 11
300.0705827064067
 21
99.49508337593199
 31
0.0
  0
LINE
  5
701
330
2
100
AcDbEntity
  8
0
100
AcDbLine
 10
331.0705977064067
 20
92.95768237593197
 30
0.0
 11
331.0705977064067
 21
79.49518137593196
 31
0.0
  0
ARC
  5
702
330
2
100
AcDbEntity
  8
0
100
AcDbCircle
 10
323.0705827064067
 20
91.49520137593198
 30
0.0
 40
3.0
100
AcDbArc
 50
90.0
 51
180.0
  0
LINE
  5
703
330
2
100
AcDbEntity
  8
HIDS
100
AcDbLine
 10
337.0705977064067
 20
94.49518037593197
 30
0.0
 11
337.0705977064067
 21
79.49518137593196
 31
0.0
  0
LINE
  5
704
330
2
100
AcDbEntity
  8
0
100
AcDbLine
 10
292.1385597064067
 20
122.9281833759319
 30
0.0
 11
300.0705827064067
 21
122.9281833759319
 31
0.0
  0
LINE
  5
705
330
2
100
AcDbEntity
  8
0
100
AcDbLine
 10
364.0124617064068
 20
99.49518037593197
 30
0.0
 11
401.1287027064067
 21
99.49518037593197
 31
0.0
  0
LINE
  5
706
330
2
100
AcDbEntity
  8
0
100
AcDbLine
 10
361.6698407064067
 20
98.36925537593197
 30
0.0
 11
359.4713547064067
 21
95.62110737593195
 31
0.0
  0
LINE
  5
707
330
2
100
AcDbEntity
  8
0
100
AcDbLine
 10
362.5705977064067
 20
99.12595637593197
 30
0.0
 11
362.5705977064067
 21
94.49518037593197
 31
0.0
  0
LINE
  5
708
330
2
100
AcDbEntity
  8
HIDS
100
AcDbLine
 10
348.0705977064067
 20
94.49518037593197
 30
0.0
 11
348.0705977064067
 21
79.49518137593196
 31
0.0
  0
ARC
  5
709
330
2
100
AcDbEntity
  8
0
100
AcDbCircle
 10
357.1287337064068
 20
97.49518037593198
 30
0.0
 40
3.0
100
AcDbArc
 50
270.0
 51
321.3404540000003
  0
ARC
  5
70A
330
2
100
AcDbEntity
  8
0
100
AcDbCircle
 10
364.0124617064068
 20
96.49518037593196
 30
0.0
 40
3.0
100
AcDbArc
 50
90.0
 51
141.3404540000003
  0
LINE
  5
70B
330
2
100
AcDbEntity
  8
0
100
AcDbLine
 10
373.4143777064067
 20
135.4951803759319
 30
0.0
 11
374.5705977064067
 21
135.4951803759319
 31
0.0
  0
LINE
  5
70C
330
2
100
AcDbEntity
  8
0
100
AcDbLine
 10
371.3205977064067
 20
142.4639233759319
 30
0.0
 11
374.5705977064067
 21
142.4639233759319
 31
0.0
  0
LINE
  5
70D
330
2
100
AcDbEntity
  8
0
100
AcDbLine
 10
373.4143777064067
 20
144.9951803759319
 30
0.0
 11
374.5705977064067
 21
144.9951803759319
 31
0.0
  0
LINE
  5
70E
330
2
100
AcDbEntity
  8
0
100
AcDbLine
 10
373.4023847064067
 20
147.4951803759319
 30
0.0
 11
374.5705977064067
 21
146.1986943759319
 31
0.0
  0
LINE
  5
70F
330
2
100
AcDbEntity
  8
0
100
AcDbLine
 10
373.4143777064067
 20
136.4517383759319
 30
0.0
 11
372.2741807064067
 21
135.4951803759319
 31
0.0
  0
LINE
  5
710
330
2
100
AcDbEntity
  8
0
100
AcDbLine
 10
373.4143777064067
 20
136.4517383759319
 30
0.0
 11
373.4143777064067
 21
135.4951803759319
 31
0.0
  0
LINE
  5
711
330
2
100
AcDbEntity
  8
0
100
AcDbLine
 10
366.5705977064067
 20
137.0523403759319
 30
0.0
 11
368.1137797064067
 21
135.4951803759319
 31
0.0
  0
LINE
  5
712
330
2
100
AcDbEntity
  8
0
100
AcDbLine
 10
372.2741807064067
 20
135.4951803759319
 30
0.0
 11
368.1137797064067
 21
135.4951803759319
 31
0.0
  0
LINE
  5
713
330
2
100
AcDbEntity
  8
0
100
AcDbLine
 10
373.4143777064067
 20
145.1843283759319
 30
0.0
 11
373.4143777064067
 21
144.9951803759319
 31
0.0
  0
LINE
  5
714
330
2
100
AcDbEntity
  8
0
100
AcDbLine
 10
366.5705977064067
 20
145.6354243759319
 30
0.0
 11
366.5705977064067
 21
137.0523403759319
 31
0.0
  0
LINE
  5
715
330
2
100
AcDbEntity
  8
0
100
AcDbLine
 10
368.8175767064067
 20
145.9014303759319
 30
0.0
 11
367.9143777064067
 21
144.7814353759319
 31
0.0
  0
LINE
  5
716
330
2
100
AcDbEntity
  8
0
100
AcDbLine
 10
371.3205977064067
 20
142.4639233759319
 30
0.0
 11
371.3205977064067
 21
141.1514233759319
 31
0.0
  0
LINE
  5
717
330
2
100
AcDbEntity
  8
0
100
AcDbLine
 10
373.4143777064067
 20
141.1514233759319
 30
0.0
 11
373.4143777064067
 21
139.4014233759319
 31
0.0
  0
ARC
  5
718
330
2
100
AcDbEntity
  8
0
100
AcDbCircle
 10
370.9143777064067
 20
139.4014233759319
 30
0.0
 40
2.5
100
AcDbArc
 50
270.0002139999998
 51
0.0001089999998967
  0
LINE
  5
719
330
2
100
AcDbEntity
  8
0
100
AcDbLine
 10
373.4143777064067
 20
139.9014233759319
 30
0.0
 11
373.4143777064067
 21
140.9014233759319
 31
0.0
  0
LINE
  5
71A
330
2
100
AcDbEntity
  8
0
100
AcDbLine
 10
370.9143777064067
 20
136.9014233759319
 30
0.0
 11
368.8319807064067
 21
136.9014233759319
 31
0.0
  0
LINE
  5
71B
330
2
100
AcDbEntity
  8
0
100
AcDbLine
 10
373.4143777064067
 20
141.1514233759319
 30
0.0
 11
371.3205977064067
 21
141.1514233759319
 31
0.0
  0
LINE
  5
71C
330
2
100
AcDbEntity
  8
0
100
AcDbLine
 10
367.9143777064067
 20
144.7814353759319
 30
0.0
 11
367.9143777064067
 21
137.8680973759319
 31
0.0
  0
LINE
  5
71D
330
2
100
AcDbEntity
  8
0
100
AcDbLine
 10
367.9143777064067
 20
137.8680973759319
 30
0.0
 11
368.8319807064067
 21
136.9014233759319
 31
0.0
  0
LINE
  5
71E
330
2
100
AcDbEntity
  8
0
100
AcDbLine
 10
368.0229897064067
 20
147.4951803759319
 30
0.0
 11
366.5705977064067
 21
145.6354243759319
 31
0.0
  0
LINE
  5
71F
330
2
100
AcDbEntity
  8
0
100
AcDbLine
 10
368.0229897064067
 20
147.4951803759319
 30
0.0
 11
373.4023847064067
 21
147.4951803759319
 31
0.0
  0
LINE
  5
720
330
2
100
AcDbEntity
  8
0
100
AcDbLine
 10
373.4143777064067
 20
145.1843283759319
 30
0.0
 11
372.6573897064067
 21
145.9014303759319
 31
0.0
  0
LINE
  5
721
330
2
100
AcDbEntity
  8
0
100
AcDbLine
 10
372.6725877064068
 20
145.9014303759319
 30
0.0
 11
368.8175767064067
 21
145.9014303759319
 31
0.0
  0
LINE
  5
722
330
2
100
AcDbEntity
  8
0
100
AcDbLine
 10
390.5705977064067
 20
136.7451803759319
 30
0.0
 11
390.5705977064067
 21
135.4951803759319
 31
0.0
  0
LINE
  5
723
330
2
100
AcDbEntity
  8
0
100
AcDbLine
 10
393.0861917064067
 20
136.7451803759319
 30
0.0
 11
393.0861917064067
 21
135.4951803759319
 31
0.0
  0
LINE
  5
724
330
2
100
AcDbEntity
  8
0
100
AcDbLine
 10
396.7267867064067
 20
136.7451803759319
 30
0.0
 11
396.7267867064067
 21
135.4951803759319
 31
0.0
  0
LINE
  5
725
330
2
100
AcDbEntity
  8
0
100
AcDbLine
 10
398.5705977064067
 20
136.7451803759319
 30
0.0
 11
398.5705977064067
 21
135.4951803759319
 31
0.0
  0
LINE
  5
726
330
2
100
AcDbEntity
  8
0
100
AcDbLine
 10
383.7893777064067
 20
136.8076803759319
 30
0.0
 11
383.7893777064067
 21
135.4951803759319
 31
0.0
  0
LINE
  5
727
330
2
100
AcDbEntity
  8
0
100
AcDbLine
 10
381.1955977064067
 20
136.8076803759319
 30
0.0
 11
381.1955977064067
 21
135.4951803759319
 31
0.0
  0
LINE
  5
728
330
2
100
AcDbEntity
  8
0
100
AcDbLine
 10
374.5705977064067
 20
142.4639233759319
 30
0.0
 11
374.5705977064067
 21
135.4951803759319
 31
0.0
  0
LINE
  5
729
330
2
100
AcDbEntity
  8
0
100
AcDbLine
 10
381.1955977064067
 20
135.4951803759319
 30
0.0
 11
383.7893777064067
 21
135.4951803759319
 31
0.0
  0
LINE
  5
72A
330
2
100
AcDbEntity
  8
0
100
AcDbLine
 10
393.0861917064067
 20
135.4951803759319
 30
0.0
 11
390.5705977064067
 21
135.4951803759319
 31
0.0
  0
LINE
  5
72B
330
2
100
AcDbEntity
  8
0
100
AcDbLine
 10
396.7267867064067
 20
135.4951803759319
 30
0.0
 11
398.5705977064067
 21
135.4951803759319
 31
0.0
  0
LINE
  5
72C
330
2
100
AcDbEntity
  8
0
100
AcDbLine
 10
385.3737897064068
 20
146.0264303759319
 30
0.0
 11
385.7361857064067
 21
144.9951803759319
 31
0.0
  0
LINE
  5
72D
330
2
100
AcDbEntity
  8
0
100
AcDbLine
 10
379.8883767064066
 20
146.0264303759319
 30
0.0
 11
379.4585977064067
 21
144.9951803759319
 31
0.0
  0
LINE
  5
72E
330
2
100
AcDbEntity
  8
0
100
AcDbLine
 10
374.5705977064067
 20
146.1986943759319
 30
0.0
 11
374.5705977064067
 21
144.9951803759319
 31
0.0
  0
LINE
  5
72F
330
2
100
AcDbEntity
  8
0
100
AcDbLine
 10
383.2893777064067
 20
146.0264303759319
 30
0.0
 11
383.2893777064067
 21
136.8076803759319
 31
0.0
  0
LINE
  5
730
330
2
100
AcDbEntity
  8
0
100
AcDbLine
 10
381.7893777064067
 20
146.0264303759319
 30
0.0
 11
381.7893777064067
 21
136.8076803759319
 31
0.0
  0
LINE
  5
731
330
2
100
AcDbEntity
  8
0
100
AcDbLine
 10
386.5705977064067
 20
144.9951803759319
 30
0.0
 11
386.5705977064067
 21
147.4951803759319
 31
0.0
  0
LINE
  5
732
330
2
100
AcDbEntity
  8
0
100
AcDbLine
 10
378.5705977064067
 20
144.9951803759319
 30
0.0
 11
378.5705977064067
 21
147.4951803759319
 31
0.0
  0
LINE
  5
733
330
2
100
AcDbEntity
  8
0
100
AcDbLine
 10
378.5705977064067
 20
144.9951803759319
 30
0.0
 11
379.4585977064067
 21
144.9951803759319
 31
0.0
  0
LINE
  5
734
330
2
100
AcDbEntity
  8
0
100
AcDbLine
 10
381.1955977064067
 20
136.8076803759319
 30
0.0
 11
381.7893777064067
 21
136.8076803759319
 31
0.0
  0
LINE
  5
735
330
2
100
AcDbEntity
  8
0
100
AcDbLine
 10
385.7361857064067
 20
144.9951803759319
 30
0.0
 11
386.5705977064067
 21
144.9951803759319
 31
0.0
  0
LINE
  5
736
330
2
100
AcDbEntity
  8
0
100
AcDbLine
 10
383.2893777064067
 20
136.8076803759319
 30
0.0
 11
383.7893777064067
 21
136.8076803759319
 31
0.0
  0
LINE
  5
737
330
2
100
AcDbEntity
  8
0
100
AcDbLine
 10
381.7893777064067
 20
146.0264303759319
 30
0.0
 11
379.8883767064066
 21
146.0264303759319
 31
0.0
  0
LINE
  5
738
330
2
100
AcDbEntity
  8
0
100
AcDbLine
 10
378.5705977064067
 20
147.4951803759319
 30
0.0
 11
386.5705977064067
 21
147.4951803759319
 31
0.0
  0
LINE
  5
739
330
2
100
AcDbEntity
  8
0
100
AcDbLine
 10
383.2893777064067
 20
146.0264303759319
 30
0.0
 11
385.3737897064068
 21
146.0264303759319
 31
0.0
  0
LINE
  5
73A
330
2
100
AcDbEntity
  8
0
100
AcDbLine
 10
392.5393777064067
 20
146.0264303759319
 30
0.0
 11
392.5393777064067
 21
142.3542583759319
 31
0.0
  0
ARC
  5
73B
330
2
100
AcDbEntity
  8
0
100
AcDbCircle
 10
395.3673807064067
 20
144.2920553759319
 30
0.0
 40
1.954124
100
AcDbArc
 50
277.4147259999995
 51
62.41184999999949
  0
ARC
  5
73C
330
2
100
AcDbEntity
  8
0
100
AcDbCircle
 10
395.3673807064067
 20
144.2920553759319
 30
0.0
 40
3.203125999999999
100
AcDbArc
 50
286.0181269999995
 51
90.00350999999964
  0
LINE
  5
73D
330
2
100
AcDbEntity
  8
0
100
AcDbLine
 10
391.1643777064067
 20
146.0264303759319
 30
0.0
 11
391.1643777064067
 21
136.7451803759319
 31
0.0
  0
LINE
  5
73E
330
2
100
AcDbEntity
  8
0
100
AcDbLine
 10
392.5393777064067
 20
141.1045633759319
 30
0.0
 11
395.0998027064067
 21
141.1045633759319
 31
0.0
  0
LINE
  5
73F
330
2
100
AcDbEntity
  8
0
100
AcDbLine
 10
395.6195777064067
 20
142.3542583759319
 30
0.0
 11
392.5393777064067
 21
142.3542583759319
 31
0.0
  0
LINE
  5
740
330
2
100
AcDbEntity
  8
0
100
AcDbLine
 10
392.5393777064067
 20
136.7451803759319
 30
0.0
 11
393.0861917064067
 21
136.7451803759319
 31
0.0
  0
LINE
  5
741
330
2
100
AcDbEntity
  8
0
100
AcDbLine
 10
390.5705977064067
 20
136.7451803759319
 30
0.0
 11
391.1643777064067
 21
136.7451803759319
 31
0.0
  0
LINE
  5
742
330
2
100
AcDbEntity
  8
0
100
AcDbLine
 10
392.5393777064067
 20
141.1045633759319
 30
0.0
 11
392.5393777064067
 21
136.7451803759319
 31
0.0
  0
LINE
  5
743
330
2
100
AcDbEntity
  8
0
100
AcDbLine
 10
398.2337747064067
 20
136.7451803759319
 30
0.0
 11
398.5705977064067
 21
136.7451803759319
 31
0.0
  0
LINE
  5
744
330
2
100
AcDbEntity
  8
0
100
AcDbLine
 10
396.7267867064067
 20
136.7451803759319
 30
0.0
 11
396.9759927064067
 21
136.7451803759319
 31
0.0
  0
LINE
  5
745
330
2
100
AcDbEntity
  8
0
100
AcDbLine
 10
395.0998027064067
 20
141.1045633759319
 30
0.0
 11
396.9759927064067
 21
136.7451803759319
 31
0.0
  0
LINE
  5
746
330
2
100
AcDbEntity
  8
0
100
AcDbLine
 10
396.2513837064067
 20
141.2133053759319
 30
0.0
 11
398.2337747064067
 21
136.7451803759319
 31
0.0
  0
LINE
  5
747
330
2
100
AcDbEntity
  8
0
100
AcDbLine
 10
392.5393777064067
 20
146.0264303759319
 30
0.0
 11
396.2723797064068
 21
146.0240043759319
 31
0.0
  0
LINE
  5
748
330
2
100
AcDbEntity
  8
0
100
AcDbLine
 10
390.5705977064067
 20
147.4951803759319
 30
0.0
 11
395.3673807064067
 21
147.4951803759319
 31
0.0
  0
LINE
  5
749
330
2
100
AcDbEntity
  8
0
100
AcDbLine
 10
390.5705977064067
 20
146.0264303759319
 30
0.0
 11
391.1643777064067
 21
146.0264303759319
 31
0.0
  0
LINE
  5
74A
330
2
100
AcDbEntity
  8
0
100
AcDbLine
 10
390.5705977064067
 20
147.4951803759319
 30
0.0
 11
390.5705977064067
 21
146.0264303759319
 31
0.0
  0
ARC
  5
74B
330
2
100
AcDbEntity
  8
0
100
AcDbCircle
 10
289.0705827064067
 20
205.0307103759319
 30
0.0
 40
2.5
100
AcDbArc
 50
315.0
 51
0.0
  0
ARC
  5
74C
330
2
100
AcDbEntity
  8
0
100
AcDbCircle
 10
293.5706127064067
 20
225.4953103759319
 30
0.0
 40
2.0
100
AcDbArc
 50
90.0
 51
180.0
  0
LINE
  5
74D
330
2
100
AcDbEntity
  8
0
100
AcDbLine
 10
245.5705827064067
 20
195.4951803759319
 30
0.0
 11
291.5705827064067
 21
197.1015343759319
 31
0.0
  0
ARC
  5
74F
330
2
100
AcDbEntity
  8
0
100
AcDbCircle
 10
238.5705827064067
 20
193.4952033759319
 30
0.0
 40
2.0
100
AcDbArc
 50
90.0
 51
180.0
  0
LINE
  5
750
330
2
100
AcDbEntity
  8
0
100
AcDbLine
 10
290.8383587064067
 20
203.2629493759319
 30
0.0
 11
285.1238357064066
 21
197.5484333759319
 31
0.0
  0
ARC
  5
751
330
2
100
AcDbEntity
  8
0
100
AcDbCircle
 10
283.3560737064067
 20
199.3162023759319
 30
0.0
 40
2.5
100
AcDbArc
 50
271.9999999999995
 51
315.0
  0
LINE
  5
752
330
2
100
AcDbEntity
  8
0
100
AcDbLine
 10
322.2355907064066
 20
228.9854073759319
 30
0.0
 11
357.2902017064068
 21
253.113794375932
 31
0.0
  0
LINE
  5
754
330
2
100
AcDbEntity
  8
0
100
AcDbLine
 10
317.0705827064067
 20
165.9951803759319
 30
0.0
 11
317.0705827064067
 21
160.9951803759319
 31
0.0
  0
ARC
  5
755
330
2
100
AcDbEntity
  8
0
100
AcDbCircle
 10
502.5237837064066
 20
163.4951803759319
 30
0.0
 40
190.053177
100
AcDbArc
 50
178.548599
 51
181.4785000000004
  0
ARC
  5
756
330
2
100
AcDbEntity
  8
0
100
AcDbCircle
 10
314.5705827064067
 20
160.9951803759319
 30
0.0
 40
2.5
100
AcDbArc
 50
270.0
 51
0.0
  0
ARC
  5
757
330
2
100
AcDbEntity
  8
0
100
AcDbCircle
 10
313.5657907064067
 20
157.4967823759319
 30
0.0
 40
1.0
100
AcDbArc
 50
90.0
 51
181.8179019999997
  0
LINE
  5
758
330
2
100
AcDbEntity
  8
0
100
AcDbLine
 10
314.5705827064067
 20
158.4951803759319
 30
0.0
 11
313.5657907064067
 21
158.4951803759319
 31
0.0
  0
ARC
  5
759
330
2
100
AcDbEntity
  8
0
100
AcDbCircle
 10
314.5705827064067
 20
165.9951803759319
 30
0.0
 40
2.5
100
AcDbArc
 50
0.0
 51
90.0
  0
ARC
  5
75A
330
2
100
AcDbEntity
  8
0
100
AcDbCircle
 10
313.5657907064067
 20
169.4935783759319
 30
0.0
 40
1.0
100
AcDbArc
 50
178.1820980000002
 51
270.0
  0
LINE
  5
75B
330
2
100
AcDbEntity
  8
0
100
AcDbLine
 10
314.5705827064067
 20
168.4951803759319
 30
0.0
 11
313.5657907064067
 21
168.4951803759319
 31
0.0
  0
LINE
  5
75C
330
2
100
AcDbEntity
  8
0
100
AcDbLine
 10
318.5705827064067
 20
215.0951793759319
 30
0.0
 11
320.0705827064067
 21
215.0951793759319
 31
0.0
  0
ARC
  5
75D
330
2
100
AcDbEntity
  8
0
100
AcDbCircle
 10
318.5162307064067
 20
232.495279375932
 30
0.0
 40
5.0
100
AcDbArc
 50
270.0
 51
304.5399780000001
  0
LINE
  5
75E
330
2
100
AcDbEntity
  8
0
100
AcDbLine
 10
318.5162307064067
 20
227.4952793759319
 30
0.0
 11
300.0705827064067
 21
227.4952793759319
 31
0.0
  0
LINE
  5
75F
330
2
100
AcDbEntity
  8
0
100
AcDbLine
 10
293.5705827064067
 20
227.4952793759319
 30
0.0
 11
300.0705827064067
 21
227.4952793759319
 31
0.0
  0
ARC
  5
760
330
2
100
AcDbEntity
  8
0
100
AcDbCircle
 10
325.0705827064067
 20
224.8667853759319
 30
0.0
 40
5.0
100
AcDbArc
 50
124.5403979999998
 51
180.0
  0
ARC
  5
761
330
2
100
AcDbEntity
  8
0
100
AcDbCircle
 10
382.5705977064067
 20
199.4951883759319
 30
0.0
 40
14.0
100
AcDbArc
 50
16.60149999999973
 51
343.3984989999996
  0
LINE
  5
762
330
2
100
AcDbEntity
  8
0
100
AcDbLine
 10
399.5705977064067
 20
195.4952413759319
 30
0.0
 11
399.5705977064067
 21
203.4952343759319
 31
0.0
  0
LINE
  5
763
330
2
100
AcDbEntity
  8
0
100
AcDbLine
 10
392.5705977064067
 20
195.4952183759319
 30
0.0
 11
392.5705977064067
 21
203.4952183759319
 31
0.0
  0
LINE
  5
764
330
2
100
AcDbEntity
  8
0
100
AcDbLine
 10
399.5705977064067
 20
195.4952413759319
 30
0.0
 11
392.5705977064067
 21
195.4952183759319
 31
0.0
  0
LINE
  5
765
330
2
100
AcDbEntity
  8
0
100
AcDbLine
 10
399.5705977064067
 20
203.4952343759319
 30
0.0
 11
392.5705977064067
 21
203.4952183759319
 31
0.0
  0
ARC
  5
766
330
2
100
AcDbEntity
  8
0
100
AcDbCircle
 10
360.1249797064067
 20
248.9951423759319
 30
0.0
 40
5.0
100
AcDbArc
 50
90.0
 51
124.5402980000002
  0
ARC
  5
767
330
2
100
AcDbEntity
  8
0
100
AcDbCircle
 10
360.1589767064067
 20
248.9951423759319
 30
0.0
 40
5.0
100
AcDbArc
 50
90.0
 51
91.03887200000015
  0
LINE
  5
768
330
2
100
AcDbEntity
  8
0
100
AcDbLine
 10
126.5705857064067
 20
433.9903997640317
 30
0.0
 11
236.5705827064067
 21
433.9903997640317
 31
0.0
  0
LINE
  5
769
330
2
100
AcDbEntity
  8
0
100
AcDbLine
 10
126.5705857064067
 20
491.9903997640317
 30
0.0
 11
236.5705827064067
 21
491.9903997640317
 31
0.0
  0
LINE
  5
76A
330
2
100
AcDbEntity
  8
0
100
AcDbLine
 10
126.5705857064067
 20
417.9903997640317
 30
0.0
 11
245.5705827064067
 21
417.9903997640317
 31
0.0
  0
LINE
  5
76B
330
2
100
AcDbEntity
  8
0
100
AcDbLine
 10
126.5705857064067
 20
507.9903997640317
 30
0.0
 11
245.5705827064067
 21
507.9903997640317
 31
0.0
  0
LINE
  5
76C
330
2
100
AcDbEntity
  8
0
100
AcDbLine
 10
69.57059770640672
 20
504.9903997640317
 30
0.0
 11
69.57056770640679
 21
420.9903997640317
 31
0.0
  0
LINE
  5
76D
330
2
100
AcDbEntity
  8
0
100
AcDbLine
 10
117.0705857064067
 20
509.9903997640317
 30
0.0
 11
117.0705857064067
 21
415.9903997640317
 31
0.0
  0
LINE
  5
76E
330
2
100
AcDbEntity
  8
0
100
AcDbLine
 10
126.5705857064067
 20
487.9903997640317
 30
0.0
 11
126.5705857064067
 21
507.9903997640317
 31
0.0
  0
ARC
  5
76F
330
2
100
AcDbEntity
  8
0
100
AcDbCircle
 10
74.57056770640679
 20
420.9903997640317
 30
0.0
 40
5.0
100
AcDbArc
 50
180.0
 51
270.0
  0
LINE
  5
772
330
2
100
AcDbEntity
  8
0
100
AcDbLine
 10
126.5705857064067
 20
433.9903997640317
 30
0.0
 11
117.0705857064067
 21
433.9903997640317
 31
0.0
  0
LINE
  5
773
330
2
100
AcDbEntity
  8
0
100
AcDbLine
 10
117.0705857064067
 20
417.9903997640317
 30
0.0
 11
126.5705857064067
 21
417.9903997640317
 31
0.0
  0
LINE
  5
774
330
2
100
AcDbEntity
  8
0
100
AcDbLine
 10
74.57056770640679
 20
415.9903997640317
 30
0.0
 11
117.0705857064067
 21
415.9903997640317
 31
0.0
  0
LINE
  5
775
330
2
100
AcDbEntity
  8
0
100
AcDbLine
 10
117.0705857064067
 20
433.9903997640317
 30
0.0
 11
73.09555770640679
 21
433.9903997640317
 31
0.0
  0
LINE
  5
776
330
2
100
AcDbEntity
  8
0
100
AcDbLine
 10
121.5705857064067
 20
423.7205637640316
 30
0.0
 11
121.5705857064067
 21
419.2205637640316
 31
0.0
  0
LINE
  5
777
330
2
100
AcDbEntity
  8
0
100
AcDbLine
 10
120.0705857064067
 20
423.7205637640316
 30
0.0
 11
120.0705857064067
 21
419.2205637640316
 31
0.0
  0
LINE
  5
778
330
2
100
AcDbEntity
  8
0
100
AcDbLine
 10
118.5705857064067
 20
423.7205637640316
 30
0.0
 11
118.5705857064067
 21
418.7049687640317
 31
0.0
  0
LINE
  5
779
330
2
100
AcDbEntity
  8
HOJO
100
AcDbLine
 10
118.5705857064067
 20
418.7205637640317
 30
0.0
 11
120.0705857064067
 21
419.2205637640316
 31
0.0
  0
LINE
  5
77A
330
2
100
AcDbEntity
  8
HOJO
100
AcDbLine
 10
120.0705857064067
 20
419.7205637640316
 30
0.0
 11
121.5705857064067
 21
419.2205637640316
 31
0.0
  0
ARC
  5
77B
330
2
100
AcDbEntity
  8
0
100
AcDbCircle
 10
117.0705857064067
 20
423.7205637640316
 30
0.0
 40
3.0
100
AcDbArc
 50
0.0
 51
90.0
  0
ARC
  5
77C
330
2
100
AcDbEntity
  8
0
100
AcDbCircle
 10
117.0705857064067
 20
423.7205637640316
 30
0.0
 40
4.5
100
AcDbArc
 50
0.0
 51
90.0
  0
ARC
  5
77D
330
2
100
AcDbEntity
  8
0
100
AcDbCircle
 10
117.0705857064067
 20
423.7205637640316
 30
0.0
 40
1.5
100
AcDbArc
 50
0.0
 51
90.0
  0
LINE
  5
789
330
2
100
AcDbEntity
  8
0
100
AcDbLine
 10
126.5705857064067
 20
417.9903997640317
 30
0.0
 11
126.5705857064067
 21
437.9903997640318
 31
0.0
  0
ARC
  5
78B
330
2
100
AcDbEntity
  8
0
100
AcDbCircle
 10
74.57059770640672
 20
504.9903997640317
 30
0.0
 40
5.0
100
AcDbArc
 50
90.0
 51
180.0
  0
LINE
  5
78C
330
2
100
AcDbEntity
  8
0
100
AcDbLine
 10
126.5705857064067
 20
491.9903997640317
 30
0.0
 11
117.0705857064067
 21
491.9903997640317
 31
0.0
  0
LINE
  5
78D
330
2
100
AcDbEntity
  8
0
100
AcDbLine
 10
117.0705857064067
 20
507.9903997640317
 30
0.0
 11
126.5705857064067
 21
507.9903997640317
 31
0.0
  0
LINE
  5
78E
330
2
100
AcDbEntity
  8
0
100
AcDbLine
 10
74.57056770640679
 20
509.9903997640317
 30
0.0
 11
117.0705857064067
 21
509.9903997640317
 31
0.0
  0
LINE
  5
78F
330
2
100
AcDbEntity
  8
0
100
AcDbLine
 10
117.0705857064067
 20
491.9903997640317
 30
0.0
 11
73.09555770640679
 21
491.9903997640317
 31
0.0
  0
LINE
  5
791
330
2
100
AcDbEntity
  8
0
100
AcDbLine
 10
284.4275917064067
 20
484.7859017640317
 30
0.0
 11
284.4275917064067
 21
441.0733157640317
 31
0.0
  0
LINE
  5
792
330
2
100
AcDbEntity
  8
0
100
AcDbLine
 10
245.5705827064067
 20
512.0023937640317
 30
0.0
 11
245.5705827064067
 21
413.9784067640317
 31
0.0
  0
LINE
  5
793
330
2
100
AcDbEntity
  8
0
100
AcDbLine
 10
291.5705827064067
 20
400.9903997640317
 30
0.0
 11
291.5705827064067
 21
524.9903997640317
 31
0.0
  0
LINE
  5
794
330
2
100
AcDbEntity
  8
0
100
AcDbLine
 10
300.0705827064067
 20
526.9903997640317
 30
0.0
 11
300.0705827064067
 21
398.9903997640317
 31
0.0
  0
LINE
  5
795
330
2
100
AcDbEntity
  8
0
100
AcDbLine
 10
320.0705827064067
 20
462.9903997640317
 30
0.0
 11
320.6649727064067
 21
497.0427677640317
 31
0.0
  0
LINE
  5
796
330
2
100
AcDbEntity
  8
0
100
AcDbLine
 10
358.5705977064067
 20
428.9903997640317
 30
0.0
 11
358.5705977064067
 21
496.9903997640317
 31
0.0
  0
LINE
  5
797
330
2
100
AcDbEntity
  8
CENTER
100
AcDbLine
 10
382.5705977064068
 20
352.9903997640317
 30
0.0
 11
382.5705977064067
 21
572.9903997640317
 31
0.0
  0
LINE
  5
798
330
2
100
AcDbEntity
  8
0
100
AcDbLine
 10
246.0702767064067
 20
413.4609507640316
 30
0.0
 11
291.5705827064067
 21
411.8720527640316
 31
0.0
  0
ARC
  5
799
330
2
100
AcDbEntity
  8
0
100
AcDbCircle
 10
289.0469617064068
 20
413.9706547640316
 30
0.0
 40
2.5
100
AcDbArc
 50
0.1042919999999583
 51
88.00000000000043
  0
ARC
  5
79A
330
2
100
AcDbEntity
  8
0
100
AcDbCircle
 10
293.5705827064067
 20
400.9903997640317
 30
0.0
 40
2.0
100
AcDbArc
 50
180.0
 51
270.0
  0
ARC
  5
79B
330
2
100
AcDbEntity
  8
0
100
AcDbCircle
 10
238.5705827064067
 20
419.9903997640317
 30
0.0
 40
2.0
100
AcDbArc
 50
180.0
 51
270.0
  0
LINE
  5
79C
330
2
100
AcDbEntity
  8
0
100
AcDbLine
 10
245.5705827064067
 20
417.9903997640317
 30
0.0
 11
289.1342117064067
 21
416.4691287640317
 31
0.0
  0
LINE
  5
79D
330
2
100
AcDbEntity
  8
0
100
AcDbLine
 10
236.5705827064067
 20
433.9903997640317
 30
0.0
 11
236.5705827064067
 21
419.9903997640317
 31
0.0
  0
LINE
  5
79E
330
2
100
AcDbEntity
  8
0
100
AcDbLine
 10
245.5705827064067
 20
413.9784067640317
 30
0.0
 11
246.0702767064067
 21
413.4609507640316
 31
0.0
  0
LINE
  5
79F
330
2
100
AcDbEntity
  8
0
100
AcDbLine
 10
285.0327407064066
 20
438.9903997640317
 30
0.0
 11
291.5425667064067
 21
438.9903997640317
 31
0.0
  0
LINE
  5
7A0
330
2
100
AcDbEntity
  8
0
100
AcDbLine
 10
396.5705977064067
 20
407.9903997640317
 30
0.0
 11
396.5705977064067
 21
402.9903997640317
 31
0.0
  0
LINE
  5
7A1
330
2
100
AcDbEntity
  8
0
100
AcDbLine
 10
368.5705977064067
 20
407.9903997640317
 30
0.0
 11
368.5705977064067
 21
362.9903997640317
 31
0.0
  0
ARC
  5
7A2
330
2
100
AcDbEntity
  8
0
100
AcDbCircle
 10
315.4159797064067
 20
402.3523687640317
 30
0.0
 40
3.0
100
AcDbArc
 50
102.1987990000001
 51
165.0000309999997
  0
LINE
  5
7A3
330
2
100
AcDbEntity
  8
0
100
AcDbLine
 10
317.6508897064068
 20
422.2844977640317
 30
0.0
 11
312.4022627064067
 21
402.6963017640317
 31
0.0
  0
LINE
  5
7A5
330
2
100
AcDbEntity
  8
0
100
AcDbLine
 10
328.8806867064067
 20
403.2977427640316
 30
0.0
 11
320.8186897064067
 21
425.7061587640317
 31
0.0
  0
LINE
  5
7A6
330
2
100
AcDbEntity
  8
0
100
AcDbLine
 10
333.5854597064066
 20
399.9903997640317
 30
0.0
 11
368.5705977064067
 21
399.9903997640317
 31
0.0
  0
LINE
  5
7A7
330
2
100
AcDbEntity
  8
0
100
AcDbLine
 10
300.0705827064067
 20
398.9903997640317
 30
0.0
 11
307.5726267064067
 21
398.9903997640317
 31
0.0
  0
LINE
  5
7A8
330
2
100
AcDbEntity
  8
0
100
AcDbLine
 10
293.5705827064067
 20
398.9903997640317
 30
0.0
 11
300.0705827064067
 21
398.9903997640317
 31
0.0
  0
ARC
  5
7A9
330
2
100
AcDbEntity
  8
0
100
AcDbCircle
 10
307.5726267064067
 20
403.9903997640317
 30
0.0
 40
5.0
100
AcDbArc
 50
270.0
 51
345.0000309999997
  0
ARC
  5
7AA
330
2
100
AcDbEntity
  8
0
100
AcDbCircle
 10
333.5854597064066
 20
404.9903997640317
 30
0.0
 40
5.0
100
AcDbArc
 50
199.7874909999998
 51
270.0
  0
LINE
  5
7AB
330
2
100
AcDbEntity
  8
0
100
AcDbLine
 10
399.5705977064067
 20
362.9903997640317
 30
0.0
 11
399.5705977064067
 21
402.9903997640317
 31
0.0
  0
LINE
  5
7AC
330
2
100
AcDbEntity
  8
0
100
AcDbLine
 10
395.9870097064067
 20
402.9903997640317
 30
0.0
 11
395.9870097064067
 21
362.9903997640317
 31
0.0
  0
LINE
  5
7AD
330
2
100
AcDbEntity
  8
0
100
AcDbLine
 10
399.5705977064067
 20
362.9903997640317
 30
0.0
 11
368.5705977064067
 21
362.9903997640317
 31
0.0
  0
LINE
  5
7AE
330
2
100
AcDbEntity
  8
0
100
AcDbLine
 10
395.9870097064067
 20
402.9903997640317
 30
0.0
 11
399.5705977064067
 21
402.9903997640317
 31
0.0
  0
ARC
  5
7B0
330
2
100
AcDbEntity
  8
0
100
AcDbCircle
 10
342.5705977064067
 20
412.9903997640317
 30
0.0
 40
5.5
100
AcDbArc
 50
120.5343170000002
 51
7.598607999999619
  0
LINE
  5
7B1
330
2
100
AcDbEntity
  8
0
100
AcDbLine
 10
347.1018477064067
 20
416.9903997640317
 30
0.0
 11
342.3895667064067
 21
416.9903997640317
 31
0.0
  0
LINE
  5
7B2
330
2
100
AcDbEntity
  8
0
100
AcDbLine
 10
320.0705827064067
 20
462.9903997640317
 30
0.0
 11
320.6649727064067
 21
428.9380627640317
 31
0.0
  0
ARC
  5
7B3
330
2
100
AcDbEntity
  8
0
100
AcDbCircle
 10
322.4805097064067
 20
420.9903997640317
 30
0.0
 40
5.0
100
AcDbArc
 50
90.0
 51
165.0000309999997
  0
LINE
  5
7B4
330
2
100
AcDbEntity
  8
0
100
AcDbLine
 10
317.1471817064067
 20
408.1383797640317
 30
0.0
 11
317.5031837064067
 21
421.7331667640316
 31
0.0
  0
ARC
  5
7B5
330
2
100
AcDbEntity
  8
0
100
AcDbCircle
 10
314.1481887064067
 20
408.2169627640316
 30
0.0
 40
3.0
100
AcDbArc
 50
282.198792
 51
358.4997859999995
  0
LINE
  5
7B6
330
2
100
AcDbEntity
  8
0
100
AcDbLine
 10
337.5763347064067
 20
420.6366707640317
 30
0.0
 11
336.6858927064067
 21
423.8026557640316
 31
0.0
  0
ARC
  5
7B7
330
2
100
AcDbEntity
  8
0
100
AcDbCircle
 10
342.3895667064067
 20
421.9903997640317
 30
0.0
 40
5.0
100
AcDbArc
 50
195.7086330000004
 51
270.0
  0
ARC
  5
7B8
330
2
100
AcDbEntity
  8
0
100
AcDbCircle
 10
323.6645157064067
 20
428.9903997640317
 30
0.0
 40
3.0
100
AcDbArc
 50
181.0000000000001
 51
270.0
  0
ARC
  5
7B9
330
2
100
AcDbEntity
  8
0
100
AcDbCircle
 10
333.7979537064068
 20
422.9903997640317
 30
0.0
 40
3.0
100
AcDbArc
 50
15.70863800000017
 51
90.0
  0
LINE
  5
7BA
330
2
100
AcDbEntity
  8
0
100
AcDbLine
 10
367.5705977064067
 20
407.9903997640317
 30
0.0
 11
397.5705977064066
 21
407.9903997640317
 31
0.0
  0
LINE
  5
7BB
330
2
100
AcDbEntity
  8
0
100
AcDbLine
 10
348.0450847064068
 20
413.6366707640316
 30
0.0
 11
347.1018477064067
 21
416.9903997640317
 31
0.0
  0
ARC
  5
7BC
330
2
100
AcDbEntity
  8
0
100
AcDbCircle
 10
352.8583167064067
 20
414.9903997640317
 30
0.0
 40
5.0
100
AcDbArc
 50
195.7086330000004
 51
270.0
  0
LINE
  5
7BD
330
2
100
AcDbEntity
  8
0
100
AcDbLine
 10
367.5705977064067
 20
409.9903997640317
 30
0.0
 11
367.5705977064067
 21
407.9903997640317
 31
0.0
  0
LINE
  5
7BE
330
2
100
AcDbEntity
  8
0
100
AcDbLine
 10
397.5705977064066
 20
409.9903997640317
 30
0.0
 11
397.5705977064066
 21
407.9903997640317
 31
0.0
  0
LINE
  5
7BF
330
2
100
AcDbEntity
  8
0
100
AcDbLine
 10
246.0702767064067
 20
512.5198497640317
 30
0.0
 11
291.5705827064067
 21
514.1087467640317
 31
0.0
  0
LINE
  5
7C0
330
2
100
AcDbEntity
  8
0
100
AcDbLine
 10
291.5705827064067
 20
509.5967537640317
 30
0.0
 11
291.5425667064067
 21
509.5957767640316
 31
0.0
  0
ARC
  5
7C1
330
2
100
AcDbEntity
  8
0
100
AcDbCircle
 10
289.0469617064068
 20
512.0101447640317
 30
0.0
 40
2.5
100
AcDbArc
 50
271.9999999999995
 51
359.8957209999999
  0
ARC
  5
7C2
330
2
100
AcDbEntity
  8
0
100
AcDbCircle
 10
293.5705827064067
 20
524.9903997640317
 30
0.0
 40
2.0
100
AcDbArc
 50
90.0
 51
180.0
  0
ARC
  5
7C3
330
2
100
AcDbEntity
  8
0
100
AcDbCircle
 10
238.5705827064067
 20
505.9904307640316
 30
0.0
 40
2.0
100
AcDbArc
 50
90.0
 51
180.0
  0
LINE
  5
7C4
330
2
100
AcDbEntity
  8
0
100
AcDbLine
 10
245.5705827064067
 20
507.9903997640317
 30
0.0
 11
289.1342117064067
 21
509.5116707640316
 31
0.0
  0
LINE
  5
7C5
330
2
100
AcDbEntity
  8
0
100
AcDbLine
 10
236.5705827064067
 20
505.9903997640317
 30
0.0
 11
236.5705827064067
 21
491.9903997640317
 31
0.0
  0
LINE
  5
7C6
330
2
100
AcDbEntity
  8
0
100
AcDbLine
 10
245.5705827064067
 20
512.0023937640317
 30
0.0
 11
246.0702767064067
 21
512.5198497640317
 31
0.0
  0
LINE
  5
7C7
330
2
100
AcDbEntity
  8
0
100
AcDbLine
 10
284.4275917064067
 20
486.9903997640317
 30
0.0
 11
291.5425667064067
 21
486.9903997640317
 31
0.0
  0
LINE
  5
7C8
330
2
100
AcDbEntity
  8
0
100
AcDbLine
 10
399.5705977064067
 20
562.9903997640317
 30
0.0
 11
399.5705977064067
 21
522.9903997640317
 31
0.0
  0
LINE
  5
7C9
330
2
100
AcDbEntity
  8
0
100
AcDbLine
 10
395.9870097064067
 20
522.9903997640317
 30
0.0
 11
395.9870097064067
 21
562.9903997640317
 31
0.0
  0
LINE
  5
7CA
330
2
100
AcDbEntity
  8
0
100
AcDbLine
 10
368.5705977064067
 20
517.9903997640317
 30
0.0
 11
368.5705977064067
 21
562.9903997640317
 31
0.0
  0
ARC
  5
7CC
330
2
100
AcDbEntity
  8
0
100
AcDbCircle
 10
342.5705977064067
 20
512.9903997640317
 30
0.0
 40
5.5
100
AcDbArc
 50
352.4013920000003
 51
239.4656829999997
  0
LINE
  5
7CD
330
2
100
AcDbEntity
  8
0
100
AcDbLine
 10
333.5854597064066
 20
525.9903997640317
 30
0.0
 11
368.5705977064067
 21
525.9903997640317
 31
0.0
  0
LINE
  5
7CE
330
2
100
AcDbEntity
  8
0
100
AcDbLine
 10
347.1018477064067
 20
508.9903997640317
 30
0.0
 11
342.3895667064067
 21
508.9903997640317
 31
0.0
  0
LINE
  5
7CF
330
2
100
AcDbEntity
  8
0
100
AcDbLine
 10
312.2557477064067
 20
523.2844977640316
 30
0.0
 11
317.5775857064067
 21
503.4228947640317
 31
0.0
  0
ARC
  5
7D0
330
2
100
AcDbEntity
  8
0
100
AcDbCircle
 10
315.4159797064067
 20
523.0814947640317
 30
0.0
 40
3.0
100
AcDbArc
 50
195.0001069999999
 51
257.8012009999998
  0
ARC
  5
7D1
330
2
100
AcDbEntity
  8
0
100
AcDbCircle
 10
314.1481887064067
 20
517.2169627640316
 30
0.0
 40
3.0
100
AcDbArc
 50
1.500199999999734
 51
77.8012009999999
  0
LINE
  5
7D3
330
2
100
AcDbEntity
  8
0
100
AcDbLine
 10
328.8806867064067
 20
522.6830577640316
 30
0.0
 11
320.8028367064067
 21
500.2306037640317
 31
0.0
  0
ARC
  5
7D4
330
2
100
AcDbEntity
  8
0
100
AcDbCircle
 10
314.1481887064067
 20
517.2169627640316
 30
0.0
 40
3.0
100
AcDbArc
 50
1.500199999999734
 51
77.8012009999999
  0
ARC
  5
7D5
330
2
100
AcDbEntity
  8
0
100
AcDbCircle
 10
322.3339637064067
 20
504.9903997640317
 30
0.0
 40
5.0
100
AcDbArc
 50
194.9998469999997
 51
270.0
  0
LINE
  5
7D6
330
2
100
AcDbEntity
  8
0
100
AcDbLine
 10
317.1471817064067
 20
517.2955147640315
 30
0.0
 11
317.5031837064067
 21
503.7007577640316
 31
0.0
  0
LINE
  5
7D7
330
2
100
AcDbEntity
  8
0
100
AcDbLine
 10
317.1471817064067
 20
517.2955147640315
 30
0.0
 11
317.5031837064067
 21
503.7007577640316
 31
0.0
  0
ARC
  5
7D8
330
2
100
AcDbEntity
  8
0
100
AcDbCircle
 10
333.7979537064068
 20
502.9903997640317
 30
0.0
 40
3.0
100
AcDbArc
 50
270.0
 51
344.2913619999998
  0
ARC
  5
7D9
330
2
100
AcDbEntity
  8
0
100
AcDbCircle
 10
323.6645157064067
 20
496.9903997640317
 30
0.0
 40
3.0
100
AcDbArc
 50
90.0
 51
178.9999999999998
  0
ARC
  5
7DA
330
2
100
AcDbEntity
  8
0
100
AcDbCircle
 10
342.3895667064067
 20
503.9903997640317
 30
0.0
 40
5.0
100
AcDbArc
 50
90.0
 51
164.2913669999995
  0
LINE
  5
7DB
330
2
100
AcDbEntity
  8
0
100
AcDbLine
 10
337.5763347064067
 20
505.3441287640317
 30
0.0
 11
336.6858927064067
 21
502.1781747640317
 31
0.0
  0
LINE
  5
7DC
330
2
100
AcDbEntity
  8
0
100
AcDbLine
 10
307.4993847064067
 20
526.9903997640317
 30
0.0
 11
300.0705827064067
 21
526.9903997640317
 31
0.0
  0
LINE
  5
7DD
330
2
100
AcDbEntity
  8
0
100
AcDbLine
 10
293.5705827064067
 20
526.9903997640317
 30
0.0
 11
300.0705827064067
 21
526.9903997640317
 31
0.0
  0
ARC
  5
7DE
330
2
100
AcDbEntity
  8
0
100
AcDbCircle
 10
307.4261277064067
 20
521.9903997640317
 30
0.0
 40
5.0
100
AcDbArc
 50
14.99984600000018
 51
90.0
  0
ARC
  5
7DF
330
2
100
AcDbEntity
  8
0
100
AcDbCircle
 10
315.4159797064067
 20
523.0814947640317
 30
0.0
 40
3.0
100
AcDbArc
 50
195.0001069999999
 51
257.8012009999998
  0
ARC
  5
7E0
330
2
100
AcDbEntity
  8
0
100
AcDbCircle
 10
333.5854597064066
 20
520.9903997640317
 30
0.0
 40
5.0
100
AcDbArc
 50
90.0
 51
160.2125090000002
  0
LINE
  5
7E1
330
2
100
AcDbEntity
  8
0
100
AcDbLine
 10
396.5705977064067
 20
517.9903997640317
 30
0.0
 11
396.5705977064067
 21
522.9903997640317
 31
0.0
  0
LINE
  5
7E2
330
2
100
AcDbEntity
  8
0
100
AcDbLine
 10
367.5705977064067
 20
517.9903997640317
 30
0.0
 11
397.5705977064066
 21
517.9903997640317
 31
0.0
  0
LINE
  5
7E3
330
2
100
AcDbEntity
  8
0
100
AcDbLine
 10
348.0450847064068
 20
512.3441287640316
 30
0.0
 11
347.1018477064067
 21
508.9903997640317
 31
0.0
  0
ARC
  5
7E4
330
2
100
AcDbEntity
  8
0
100
AcDbCircle
 10
352.8583167064067
 20
510.9903997640317
 30
0.0
 40
5.0
100
AcDbArc
 50
90.0
 51
164.2913669999995
  0
LINE
  5
7E5
330
2
100
AcDbEntity
  8
0
100
AcDbLine
 10
367.5705977064067
 20
515.9903997640317
 30
0.0
 11
367.5705977064067
 21
517.9903997640317
 31
0.0
  0
LINE
  5
7E6
330
2
100
AcDbEntity
  8
0
100
AcDbLine
 10
397.5705977064066
 20
515.9903997640317
 30
0.0
 11
397.5705977064066
 21
517.9903997640317
 31
0.0
  0
LINE
  5
7E7
330
2
100
AcDbEntity
  8
0
100
AcDbLine
 10
395.9870097064067
 20
522.9903997640317
 30
0.0
 11
399.5705977064067
 21
522.9903997640317
 31
0.0
  0
LINE
  5
7E8
330
2
100
AcDbEntity
  8
0
100
AcDbLine
 10
399.5705977064067
 20
562.9903997640317
 30
0.0
 11
368.5705977064067
 21
562.9903997640317
 31
0.0
  0
LINE
  5
7E9
330
2
100
AcDbEntity
  8
CENTER
100
AcDbLine
 10
572.5608255080508
 20
163.4951803759319
 30
0.0
 11
720.5610235080508
 21
163.4951803759319
 31
0.0
  0
LINE
  5
7EA
330
2
100
AcDbEntity
  8
0
100
AcDbLine
 10
620.0609245080507
 20
80.49518137593196
 30
0.0
 11
673.0609245080508
 21
80.49518137593196
 31
0.0
  0
LINE
  5
7EB
330
2
100
AcDbEntity
  8
0
100
AcDbLine
 10
612.5084945080508
 20
253.4006603759319
 30
0.0
 11
646.5609245080507
 21
253.995188375932
 31
0.0
  0
LINE
  5
7EC
330
2
100
AcDbEntity
  8
0
100
AcDbLine
 10
611.0609245080508
 20
227.4951883759319
 30
0.0
 11
681.8109245080507
 21
227.4951883759319
 31
0.0
  0
LINE
  5
7ED
330
2
100
AcDbEntity
  8
CENTER
100
AcDbLine
 10
536.5608935080508
 20
199.4951883759319
 30
0.0
 11
756.5609245080508
 21
199.4951883759319
 31
0.0
  0
LINE
  5
7EF
330
2
100
AcDbEntity
  8
0
100
AcDbLine
 10
600.5609245080507
 20
129.2956033759319
 30
0.0
 11
600.5609245080507
 21
201.9951883759319
 31
0.0
  0
LINE
  5
7F0
330
2
100
AcDbEntity
  8
0
100
AcDbLine
 10
609.5609245080508
 20
250.4011173759319
 30
0.0
 11
609.5609245080508
 21
79.49518137593196
 31
0.0
  0
LINE
  5
7F1
330
2
100
AcDbEntity
  8
0
100
AcDbLine
 10
417.5865887064067
 20
205.3366343759319
 30
0.0
 11
426.2433877064068
 21
153.4444913759319
 31
0.0
  0
LINE
  5
7F2
330
2
100
AcDbEntity
  8
0
100
AcDbLine
 10
420.0525917064067
 20
205.7480263759319
 30
0.0
 11
428.7093917064066
 21
153.8556843759319
 31
0.0
  0
LINE
  5
7F3
330
2
100
AcDbEntity
  8
0
100
AcDbLine
 10
445.0705977064067
 20
224.8668003759319
 30
0.0
 11
445.0705977064067
 21
79.49518137593196
 31
0.0
  0
LINE
  5
7F4
330
2
100
AcDbEntity
  8
CENTER
100
AcDbLine
 10
422.5705977064067
 20
99.495180375932
 30
0.0
 11
422.5705977064067
 21
74.49518137593196
 31
0.0
  0
LINE
  5
7F5
330
2
100
AcDbEntity
  8
0
100
AcDbLine
 10
403.4713237064067
 20
98.36925537593197
 30
0.0
 11
405.6698097064067
 21
95.62110737593195
 31
0.0
  0
LINE
  5
7F6
330
2
100
AcDbEntity
  8
0
100
AcDbLine
 10
402.5705977064067
 20
99.12595637593197
 30
0.0
 11
402.5705977064067
 21
94.49518037593197
 31
0.0
  0
ARC
  5
7F7
330
2
100
AcDbEntity
  8
0
100
AcDbCircle
 10
408.0124307064068
 20
97.49518037593198
 30
0.0
 40
3.0
100
AcDbArc
 50
218.6595459999996
 51
270.0
  0
LINE
  5
7F8
330
2
100
AcDbEntity
  8
HIDS
100
AcDbLine
 10
417.0705977064066
 20
94.49518037593197
 30
0.0
 11
417.0705977064066
 21
79.49518137593196
 31
0.0
  0
LINE
  5
7F9
330
2
100
AcDbEntity
  8
HIDS
100
AcDbLine
 10
428.0705977064067
 20
94.49518037593197
 30
0.0
 11
428.0705977064067
 21
79.49518137593196
 31
0.0
  0
ARC
  5
7FA
330
2
100
AcDbEntity
  8
0
100
AcDbCircle
 10
442.0705977064066
 20
91.49518037593196
 30
0.0
 40
3.0
100
AcDbArc
 50
0.0
 51
90.0
  0
LINE
  5
7FB
330
2
100
AcDbEntity
  8
0
100
AcDbLine
 10
435.0705977064067
 20
92.95768237593197
 30
0.0
 11
435.0705977064067
 21
79.49518137593196
 31
0.0
  0
ARC
  5
7FC
330
2
100
AcDbEntity
  8
0
100
AcDbCircle
 10
402.5705977064067
 20
149.4951803759319
 30
0.0
 40
24.0
100
AcDbArc
 50
270.0
 51
9.471372999999747
  0
ARC
  5
7FD
330
2
100
AcDbEntity
  8
0
100
AcDbCircle
 10
402.5705977064067
 20
149.4951803759319
 30
0.0
 40
26.5
100
AcDbArc
 50
270.0
 51
9.470949999999715
  0
LINE
  5
7FE
330
2
100
AcDbEntity
  8
CENTER
100
AcDbLine
 10
596.5609245080507
 20
99.49518037593197
 30
0.0
 11
596.5609245080507
 21
74.49518137593196
 31
0.0
  0
ARC
  5
7FF
330
2
100
AcDbEntity
  8
0
100
AcDbCircle
 10
605.5487175080507
 20
122.4829623759319
 30
0.0
 40
8.0
100
AcDbArc
 50
175.6277153197452
 51
233.2169950000002
  0
LINE
  5
800
330
2
100
AcDbEntity
  8
0
100
AcDbLine
 10
586.8055225080507
 20
95.11915637593196
 30
0.0
 11
606.3162955080507
 21
98.87121837593197
 31
0.0
  0
LINE
  5
801
330
2
100
AcDbEntity
  8
0
100
AcDbLine
 10
587.5608935080507
 20
94.49518037593197
 30
0.0
 11
605.5609245080508
 21
94.49518037593197
 31
0.0
  0
LINE
  5
802
330
2
100
AcDbEntity
  8
0
100
AcDbLine
 10
583.5608935080507
 20
79.49518137593196
 30
0.0
 11
619.0609245080508
 21
79.49518137593196
 31
0.0
  0
ARC
  5
803
330
2
100
AcDbEntity
  8
0
100
AcDbCircle
 10
606.5609245080508
 20
110.4951803759319
 30
0.0
 40
5.0
100
AcDbArc
 50
180.0
 51
270.0
  0
LINE
  5
804
330
2
100
AcDbEntity
  8
0
100
AcDbLine
 10
583.5608935080507
 20
91.19111837593198
 30
0.0
 11
583.5608935080507
 21
79.49518137593196
 31
0.0
  0
ARC
  5
805
330
2
100
AcDbEntity
  8
0
100
AcDbCircle
 10
587.5608935080507
 20
91.19111837593198
 30
0.0
 40
4.0
100
AcDbArc
 50
100.8855289999996
 51
180.0
  0
ARC
  5
806
330
2
100
AcDbEntity
  8
0
100
AcDbCircle
 10
587.5608935080507
 20
90.49518037593196
 30
0.0
 40
4.0
100
AcDbArc
 50
90.0
 51
180.0
  0
LINE
  5
807
330
2
100
AcDbEntity
  8
HIDS
100
AcDbLine
 10
602.0609245080508
 20
94.49518037593197
 30
0.0
 11
602.0609245080508
 21
79.49518137593196
 31
0.0
  0
LINE
  5
808
330
2
100
AcDbEntity
  8
HIDS
100
AcDbLine
 10
591.0608935080507
 20
94.49518037593197
 30
0.0
 11
591.0608935080507
 21
79.49518137593196
 31
0.0
  0
ARC
  5
809
330
2
100
AcDbEntity
  8
0
100
AcDbCircle
 10
599.5609245080507
 20
114.4738413759319
 30
0.0
 40
2.0
100
AcDbArc
 50
0.0
 51
53.21712100000005
  0
LINE
  5
80A
330
2
100
AcDbEntity
  8
0
100
AcDbLine
 10
601.5609245080508
 20
110.4951803759319
 30
0.0
 11
601.5609245080508
 21
114.4738413759319
 31
0.0
  0
ARC
  5
80B
330
2
100
AcDbEntity
  8
0
100
AcDbCircle
 10
605.5609245080508
 20
98.49518037593197
 30
0.0
 40
4.0
100
AcDbArc
 50
270.0
 51
0.0
  0
LINE
  5
80C
330
2
100
AcDbEntity
  8
0
100
AcDbLine
 10
619.0609245080508
 20
79.49518137593196
 30
0.0
 11
620.0609245080507
 21
80.49518137593196
 31
0.0
  0
ARC
  5
80D
330
2
100
AcDbEntity
  8
0
100
AcDbCircle
 10
605.5609245080508
 20
102.7992423759319
 30
0.0
 40
4.0
100
AcDbArc
 50
280.8854979999996
 51
0.0
  0
LINE
  5
80E
330
2
100
AcDbEntity
  8
0
100
AcDbLine
 10
606.5609245080508
 20
105.4951803759319
 30
0.0
 11
609.5609245080508
 21
105.4951803759319
 31
0.0
  0
ARC
  5
80F
330
2
100
AcDbEntity
  8
0
100
AcDbCircle
 10
605.5609245080508
 20
129.2956413759319
 30
0.0
 40
5.0
100
AcDbArc
 50
180.0
 51
254.4761959999994
  0
ARC
  5
810
330
2
100
AcDbEntity
  8
0
100
AcDbCircle
 10
604.5609245080507
 20
119.1947423759319
 30
0.0
 40
5.0
100
AcDbArc
 50
0.0
 51
74.47595200000005
  0
LINE
  5
811
330
2
100
AcDbEntity
  8
0
100
AcDbLine
 10
604.2227285080507
 20
124.4780223759319
 30
0.0
 11
605.8991195080508
 21
124.0123433759319
 31
0.0
  0
LINE
  5
812
330
2
100
AcDbEntity
  8
0
100
AcDbLine
 10
407.8509927064066
 20
253.113840375932
 30
0.0
 11
442.9053757064067
 21
228.9854223759319
 31
0.0
  0
ARC
  5
813
330
2
100
AcDbEntity
  8
0
100
AcDbCircle
 10
440.0705977064067
 20
224.866739375932
 30
0.0
 40
5.0
100
AcDbArc
 50
0.0
 51
55.46011000000049
  0
ARC
  5
814
330
2
100
AcDbEntity
  8
0
100
AcDbCircle
 10
405.0161847064067
 20
248.9951423759319
 30
0.0
 40
5.0
100
AcDbArc
 50
55.46007900000002
 51
90.0
  0
ARC
  5
815
330
2
100
AcDbEntity
  8
0
100
AcDbCircle
 10
598.5609245080508
 20
229.2074683759319
 30
0.0
 40
5.0
100
AcDbArc
 50
105.7089999999996
 51
180.0
  0
LINE
  5
816
330
2
100
AcDbEntity
  8
0
100
AcDbLine
 10
582.5608935080508
 20
195.4951803759319
 30
0.0
 11
546.5608935080507
 21
195.4951803759319
 31
0.0
  0
LINE
  5
817
330
2
100
AcDbEntity
  8
0
100
AcDbLine
 10
582.5608935080508
 20
203.4951883759319
 30
0.0
 11
546.5608935080507
 21
203.4951883759319
 31
0.0
  0
LINE
  5
818
330
2
100
AcDbEntity
  8
0
100
AcDbLine
 10
591.5608935080507
 20
185.4951803759319
 30
0.0
 11
546.5608935080507
 21
185.4951803759319
 31
0.0
  0
LINE
  5
819
330
2
100
AcDbEntity
  8
0
100
AcDbLine
 10
591.5608935080507
 20
213.4951883759319
 30
0.0
 11
546.5608935080507
 21
213.4951883759319
 31
0.0
  0
LINE
  5
81A
330
2
100
AcDbEntity
  8
0
100
AcDbLine
 10
546.5608935080507
 20
185.4951803759319
 30
0.0
 11
546.5608935080507
 21
213.4951883759319
 31
0.0
  0
LINE
  5
81B
330
2
100
AcDbEntity
  8
0
100
AcDbLine
 10
591.5608935080507
 20
214.4951883759319
 30
0.0
 11
591.5608935080507
 21
184.4951803759319
 31
0.0
  0
LINE
  5
81C
330
2
100
AcDbEntity
  8
0
100
AcDbLine
 10
593.5609245080508
 20
169.7829153759319
 30
0.0
 11
593.5609245080508
 21
229.2074223759319
 31
0.0
  0
ARC
  5
81D
330
2
100
AcDbEntity
  8
0
100
AcDbCircle
 10
597.5609245080508
 20
161.7537713759319
 30
0.0
 40
3.0
100
AcDbArc
 50
0.0
 51
74.29139700000042
  0
ARC
  5
81E
330
2
100
AcDbEntity
  8
0
100
AcDbCircle
 10
598.5609245080508
 20
169.7829533759319
 30
0.0
 40
5.0
100
AcDbArc
 50
180.0
 51
254.2917020000004
  0
LINE
  5
81F
330
2
100
AcDbEntity
  8
0
100
AcDbLine
 10
597.2071035080507
 20
164.9696603759319
 30
0.0
 11
598.3731185080507
 21
164.6417333759319
 31
0.0
  0
LINE
  5
820
330
2
100
AcDbEntity
  8
0
100
AcDbLine
 10
593.5609245080508
 20
184.4951803759319
 30
0.0
 11
591.5608935080507
 21
184.4951803759319
 31
0.0
  0
ARC
  5
821
330
2
100
AcDbEntity
  8
0
100
AcDbCircle
 10
582.5608935080508
 20
199.4951883759319
 30
0.0
 40
4.0
100
AcDbArc
 50
270.0
 51
90.0
  0
LINE
  5
822
330
2
100
AcDbEntity
  8
0
100
AcDbLine
 10
593.5609245080508
 20
214.4951883759319
 30
0.0
 11
591.5608935080507
 21
214.4951883759319
 31
0.0
  0
LINE
  5
823
330
2
100
AcDbEntity
  8
0
100
AcDbLine
 10
597.2071035080507
 20
234.0207013759319
 30
0.0
 11
605.9145005080507
 21
236.4696603759319
 31
0.0
  0
ARC
  5
824
330
2
100
AcDbEntity
  8
0
100
AcDbCircle
 10
612.5609245080507
 20
250.4011483759319
 30
0.0
 40
3.0
100
AcDbArc
 50
91.00052599999987
 51
180.0
  0
ARC
  5
825
330
2
100
AcDbEntity
  8
0
100
AcDbCircle
 10
604.5609245080507
 20
241.282923375932
 30
0.0
 40
5.0
100
AcDbArc
 50
285.708801
 51
0.0
  0
LINE
  5
827
330
2
100
AcDbEntity
  8
0
100
AcDbLine
 10
692.5609245080508
 20
129.2956033759319
 30
0.0
 11
692.5609245080508
 21
201.9951883759319
 31
0.0
  0
LINE
  5
828
330
2
100
AcDbEntity
  8
0
100
AcDbLine
 10
683.5609245080507
 20
250.4015143759319
 30
0.0
 11
683.5609245080507
 21
79.49516137593196
 31
0.0
  0
LINE
  5
829
330
2
100
AcDbEntity
  8
CENTER
100
AcDbLine
 10
646.5609245080507
 20
69.49518137593196
 30
0.0
 11
646.5609245080507
 21
263.9951883759319
 31
0.0
  0
LINE
  5
82A
330
2
100
AcDbEntity
  8
CENTER
100
AcDbLine
 10
696.5609245080507
 20
99.49518037593197
 30
0.0
 11
696.5609245080506
 21
74.49518137593196
 31
0.0
  0
ARC
  5
82B
330
2
100
AcDbEntity
  8
0
100
AcDbCircle
 10
687.5609245080507
 20
98.49518037593197
 30
0.0
 40
4.0
100
AcDbArc
 50
180.0
 51
270.0
  0
ARC
  5
82C
330
2
100
AcDbEntity
  8
0
100
AcDbCircle
 10
687.5609245080507
 20
102.7992423759319
 30
0.0
 40
4.0
100
AcDbArc
 50
180.0
 51
259.1145019999995
  0
ARC
  5
82D
330
2
100
AcDbEntity
  8
0
100
AcDbCircle
 10
688.5609245080508
 20
119.1947803759319
 30
0.0
 40
5.0
100
AcDbArc
 50
105.5243990000002
 51
180.0
  0
LINE
  5
82E
330
2
100
AcDbEntity
  8
0
100
AcDbLine
 10
674.0609245080507
 20
79.49518137593196
 30
0.0
 11
709.5609245080508
 21
79.49518137593196
 31
0.0
  0
LINE
  5
82F
330
2
100
AcDbEntity
  8
0
100
AcDbLine
 10
686.5609245080507
 20
105.4951803759319
 30
0.0
 11
683.5609245080507
 21
105.4951803759319
 31
0.0
  0
LINE
  5
830
330
2
100
AcDbEntity
  8
0
100
AcDbLine
 10
674.0609245080507
 20
79.49518137593196
 30
0.0
 11
673.0609245080508
 21
80.49518137593196
 31
0.0
  0
ARC
  5
831
330
2
100
AcDbEntity
  8
0
100
AcDbCircle
 10
687.5733145080507
 20
122.4832213759319
 30
0.0
 40
8.0
100
AcDbArc
 50
306.7809749999996
 51
4.372040762123853
  0
LINE
  5
832
330
2
100
AcDbEntity
  8
0
100
AcDbLine
 10
706.3162955080507
 20
95.11915637593196
 30
0.0
 11
686.8054915080507
 21
98.87121837593197
 31
0.0
  0
LINE
  5
833
330
2
100
AcDbEntity
  8
0
100
AcDbLine
 10
705.5609245080508
 20
94.49518037593197
 30
0.0
 11
687.5609245080507
 21
94.49518037593197
 31
0.0
  0
LINE
  5
834
330
2
100
AcDbEntity
  8
HIDS
100
AcDbLine
 10
691.0609245080507
 20
94.49518037593197
 30
0.0
 11
691.0609245080507
 21
79.49518137593196
 31
0.0
  0
LINE
  5
835
330
2
100
AcDbEntity
  8
HIDS
100
AcDbLine
 10
702.0609245080508
 20
94.49518037593197
 30
0.0
 11
702.0609245080508
 21
79.49518137593196
 31
0.0
  0
LINE
  5
836
330
2
100
AcDbEntity
  8
0
100
AcDbLine
 10
709.5609245080508
 20
91.19111837593198
 30
0.0
 11
709.5609245080508
 21
79.49518137593196
 31
0.0
  0
ARC
  5
837
330
2
100
AcDbEntity
  8
0
100
AcDbCircle
 10
705.5609245080508
 20
91.19111837593198
 30
0.0
 40
4.0
100
AcDbArc
 50
0.0
 51
79.11447100000036
  0
ARC
  5
838
330
2
100
AcDbEntity
  8
0
100
AcDbCircle
 10
705.5609245080508
 20
90.49518037593196
 30
0.0
 40
4.0
100
AcDbArc
 50
0.0
 51
90.0
  0
ARC
  5
839
330
2
100
AcDbEntity
  8
0
100
AcDbCircle
 10
686.5609245080507
 20
110.4951803759319
 30
0.0
 40
5.0
100
AcDbArc
 50
270.0
 51
0.0
  0
ARC
  5
83A
330
2
100
AcDbEntity
  8
0
100
AcDbCircle
 10
693.5609245080508
 20
114.4739213759319
 30
0.0
 40
2.0
100
AcDbArc
 50
126.7811969999998
 51
180.0
  0
LINE
  5
83B
330
2
100
AcDbEntity
  8
0
100
AcDbLine
 10
691.5609245080507
 20
110.4951803759319
 30
0.0
 11
691.5609245080507
 21
114.4739023759319
 31
0.0
  0
ARC
  5
83C
330
2
100
AcDbEntity
  8
0
100
AcDbCircle
 10
687.5609245080507
 20
129.2956033759319
 30
0.0
 40
5.0
100
AcDbArc
 50
285.5242920000001
 51
0.0
  0
LINE
  5
83D
330
2
100
AcDbEntity
  8
0
100
AcDbLine
 10
688.8991195080508
 20
124.4780223759319
 30
0.0
 11
687.2227285080507
 21
124.0123433759319
 31
0.0
  0
LINE
  5
83E
330
2
100
AcDbEntity
  8
0
100
AcDbLine
 10
710.5609245080508
 20
195.4951803759319
 30
0.0
 11
746.5609245080507
 21
195.4951803759319
 31
0.0
  0
LINE
  5
83F
330
2
100
AcDbEntity
  8
0
100
AcDbLine
 10
710.5609245080508
 20
203.4951883759319
 30
0.0
 11
746.5609245080507
 21
203.4951883759319
 31
0.0
  0
LINE
  5
840
330
2
100
AcDbEntity
  8
0
100
AcDbLine
 10
701.5609245080508
 20
185.4951803759319
 30
0.0
 11
746.5609245080507
 21
185.4951803759319
 31
0.0
  0
LINE
  5
841
330
2
100
AcDbEntity
  8
0
100
AcDbLine
 10
701.5609245080508
 20
213.4951883759319
 30
0.0
 11
746.5609245080507
 21
213.4951883759319
 31
0.0
  0
ARC
  5
842
330
2
100
AcDbEntity
  8
0
100
AcDbCircle
 10
694.5609245080508
 20
229.2074223759319
 30
0.0
 40
5.0
100
AcDbArc
 50
0.0
 51
74.2915270000003
  0
LINE
  5
843
330
2
100
AcDbEntity
  8
0
100
AcDbLine
 10
701.5609245080508
 20
214.4951883759319
 30
0.0
 11
701.5609245080508
 21
184.4951803759319
 31
0.0
  0
LINE
  5
844
330
2
100
AcDbEntity
  8
0
100
AcDbLine
 10
699.5609245080507
 20
229.2074383759319
 30
0.0
 11
699.5609245080507
 21
169.7829153759319
 31
0.0
  0
ARC
  5
845
330
2
100
AcDbEntity
  8
0
100
AcDbCircle
 10
694.5609245080508
 20
169.7829083759319
 30
0.0
 40
5.0
100
AcDbArc
 50
285.708801
 51
0.0
  0
ARC
  5
846
330
2
100
AcDbEntity
  8
0
100
AcDbCircle
 10
695.5609245080507
 20
161.7538013759319
 30
0.0
 40
3.0
100
AcDbArc
 50
105.7089999999996
 51
180.0
  0
LINE
  5
847
330
2
100
AcDbEntity
  8
0
100
AcDbLine
 10
695.9145005080507
 20
164.9696683759319
 30
0.0
 11
694.7487295080508
 21
164.6417333759319
 31
0.0
  0
LINE
  5
848
330
2
100
AcDbEntity
  8
0
100
AcDbLine
 10
699.5609245080507
 20
184.4951803759319
 30
0.0
 11
701.5609245080508
 21
184.4951803759319
 31
0.0
  0
ARC
  5
849
330
2
100
AcDbEntity
  8
0
100
AcDbCircle
 10
710.5609245080508
 20
199.4951883759319
 30
0.0
 40
4.0
100
AcDbArc
 50
90.0
 51
270.0
  0
LINE
  5
84A
330
2
100
AcDbEntity
  8
0
100
AcDbLine
 10
699.5609245080507
 20
214.4951883759319
 30
0.0
 11
701.5609245080508
 21
214.4951883759319
 31
0.0
  0
ARC
  5
84B
330
2
100
AcDbEntity
  8
0
100
AcDbCircle
 10
688.5609245080508
 20
241.2829383759319
 30
0.0
 40
5.0
100
AcDbArc
 50
180.0
 51
254.2917020000004
  0
LINE
  5
84C
330
2
100
AcDbEntity
  8
0
100
AcDbLine
 10
680.6132925080508
 20
253.4010563759319
 30
0.0
 11
646.5609245080507
 21
253.995188375932
 31
0.0
  0
ARC
  5
84D
330
2
100
AcDbEntity
  8
0
100
AcDbCircle
 10
680.5609245080508
 20
250.4014993759319
 30
0.0
 40
3.0
100
AcDbArc
 50
0.0
 51
89.00057999999992
  0
LINE
  5
84E
330
2
100
AcDbEntity
  8
0
100
AcDbLine
 10
695.9145005080507
 20
234.0207013759319
 30
0.0
 11
687.2072865080508
 21
236.4696603759319
 31
0.0
  0
LINE
  5
84F
330
2
100
AcDbEntity
  8
0
100
AcDbLine
 10
746.5609245080507
 20
185.4951803759319
 30
0.0
 11
746.5609245080507
 21
213.4951883759319
 31
0.0
  0
LINE
  5
850
330
2
100
AcDbEntity
  8
0
100
AcDbLine
 10
406.5705977064067
 20
428.9903997640317
 30
0.0
 11
406.5705977064067
 21
496.9903997640317
 31
0.0
  0
LINE
  5
851
330
2
100
AcDbEntity
  8
0
100
AcDbLine
 10
445.0705977064067
 20
462.9903997640317
 30
0.0
 11
444.4247537064068
 21
499.9903997640317
 31
0.0
  0
LINE
  5
853
330
2
100
AcDbEntity
  8
0
100
AcDbLine
 10
436.2604777064067
 20
403.2977427640316
 30
0.0
 11
444.4247537064068
 21
425.9903997640317
 31
0.0
  0
ARC
  5
854
330
2
100
AcDbEntity
  8
0
100
AcDbCircle
 10
431.5557047064067
 20
404.9903997640317
 30
0.0
 40
5.0
100
AcDbArc
 50
270.0
 51
340.2125109999998
  0
LINE
  5
855
330
2
100
AcDbEntity
  8
0
100
AcDbLine
 10
445.0705977064067
 20
462.9903997640317
 30
0.0
 11
444.4247537064068
 21
425.9903997640317
 31
0.0
  0
ARC
  5
857
330
2
100
AcDbEntity
  8
0
100
AcDbCircle
 10
431.3432417064067
 20
422.9903997640317
 30
0.0
 40
3.0
100
AcDbArc
 50
90.0
 51
164.2913669999995
  0
LINE
  5
858
330
2
100
AcDbEntity
  8
0
100
AcDbLine
 10
427.5648597064067
 20
420.6366707640317
 30
0.0
 11
428.4552717064067
 21
423.8026557640316
 31
0.0
  0
ARC
  5
859
330
2
100
AcDbEntity
  8
0
100
AcDbCircle
 10
412.2828477064067
 20
414.9903997640317
 30
0.0
 40
5.0
100
AcDbArc
 50
270.0
 51
344.2913619999998
  0
ARC
  5
85A
330
2
100
AcDbEntity
  8
0
100
AcDbCircle
 10
422.5705977064067
 20
412.9903997640317
 30
0.0
 40
5.5
100
AcDbArc
 50
172.4013979999997
 51
59.46568299999974
  0
LINE
  5
85B
330
2
100
AcDbEntity
  8
0
100
AcDbLine
 10
417.0961097064068
 20
413.6366707640316
 30
0.0
 11
418.0393477064066
 21
416.9903997640317
 31
0.0
  0
LINE
  5
85C
330
2
100
AcDbEntity
  8
0
100
AcDbLine
 10
418.0393477064066
 20
416.9903997640317
 30
0.0
 11
422.7515977064067
 21
416.9903997640317
 31
0.0
  0
ARC
  5
85D
330
2
100
AcDbEntity
  8
0
100
AcDbCircle
 10
422.7515977064067
 20
421.9903997640317
 30
0.0
 40
5.0
100
AcDbArc
 50
270.0
 51
344.2913619999998
  0
ARC
  5
85E
330
2
100
AcDbEntity
  8
0
100
AcDbCircle
 10
441.4766647064068
 20
428.9903997640317
 30
0.0
 40
3.0
100
AcDbArc
 50
270.0
 51
358.9999999999998
  0
LINE
  5
860
330
2
100
AcDbEntity
  8
CENTER
100
AcDbLine
 10
422.5705977064067
 20
524.1036807640316
 30
0.0
 11
422.5705977064067
 21
501.8771187640318
 31
0.0
  0
LINE
  5
861
330
2
100
AcDbEntity
  8
0
100
AcDbLine
 10
436.2604777064067
 20
522.6830577640316
 30
0.0
 11
444.4247537064068
 21
499.9903997640317
 31
0.0
  0
LINE
  5
862
330
2
100
AcDbEntity
  8
CENTER
100
AcDbLine
 10
411.4573167064068
 20
512.9903997640317
 30
0.0
 11
433.6838787064066
 21
512.9903997640317
 31
0.0
  0
ARC
  5
863
330
2
100
AcDbEntity
  8
0
100
AcDbCircle
 10
431.3432417064067
 20
502.9903997640317
 30
0.0
 40
3.0
100
AcDbArc
 50
195.708649
 51
270.0
  0
ARC
  5
864
330
2
100
AcDbEntity
  8
0
100
AcDbCircle
 10
412.2828477064067
 20
510.9903997640317
 30
0.0
 40
5.0
100
AcDbArc
 50
15.70863800000017
 51
90.0
  0
ARC
  5
865
330
2
100
AcDbEntity
  8
0
100
AcDbCircle
 10
422.5705977064067
 20
512.9903997640317
 30
0.0
 40
5.5
100
AcDbArc
 50
300.5343170000002
 51
187.5984949999999
  0
LINE
  5
866
330
2
100
AcDbEntity
  8
0
100
AcDbLine
 10
417.0961097064068
 20
512.3441287640316
 30
0.0
 11
418.0393477064066
 21
508.9903997640317
 31
0.0
  0
LINE
  5
867
330
2
100
AcDbEntity
  8
0
100
AcDbLine
 10
418.0393477064066
 20
508.9903997640317
 30
0.0
 11
422.7515977064067
 21
508.9903997640317
 31
0.0
  0
ARC
  5
868
330
2
100
AcDbEntity
  8
0
100
AcDbCircle
 10
422.7515977064067
 20
503.9903997640317
 30
0.0
 40
5.0
100
AcDbArc
 50
15.70863800000017
 51
90.0
  0
LINE
  5
869
330
2
100
AcDbEntity
  8
0
100
AcDbLine
 10
427.5648597064067
 20
505.3441287640317
 30
0.0
 11
428.4552717064067
 21
502.1781747640317
 31
0.0
  0
ARC
  5
86A
330
2
100
AcDbEntity
  8
0
100
AcDbCircle
 10
441.4766647064068
 20
496.9903997640317
 30
0.0
 40
3.0
100
AcDbArc
 50
1.000000000000147
 51
90.0
  0
ARC
  5
86B
330
2
100
AcDbEntity
  8
0
100
AcDbCircle
 10
441.4766647064068
 20
496.9903997640317
 30
0.0
 40
3.0
100
AcDbArc
 50
1.000000000000147
 51
90.0
  0
ARC
  5
86C
330
2
100
AcDbEntity
  8
0
100
AcDbCircle
 10
431.5557047064067
 20
520.9903997640317
 30
0.0
 40
5.0
100
AcDbArc
 50
19.78748900000013
 51
90.0
  0
LINE
  5
91D
330
2
100
AcDbEntity
  8
CENTER
100
AcDbLine
 10
331.4573167064068
 20
512.9903997640317
 30
0.0
 11
353.6838787064066
 21
512.9903997640317
 31
0.0
  0
LINE
  5
91E
330
2
100
AcDbEntity
  8
CENTER
100
AcDbLine
 10
342.5705977064067
 20
524.1036807640316
 30
0.0
 11
342.5705977064067
 21
501.8771187640318
 31
0.0
  0
LINE
  5
91F
330
2
100
AcDbEntity
  8
CENTER
100
AcDbLine
 10
331.4573167064068
 20
412.9903997640317
 30
0.0
 11
353.6838787064066
 21
412.9903997640317
 31
0.0
  0
LINE
  5
920
330
2
100
AcDbEntity
  8
CENTER
100
AcDbLine
 10
342.5705977064067
 20
424.1036807640316
 30
0.0
 11
342.5705977064067
 21
401.8771187640318
 31
0.0
  0
LINE
  5
921
330
2
100
AcDbEntity
  8
CENTER
100
AcDbLine
 10
411.4573167064068
 20
412.9903997640317
 30
0.0
 11
433.6838787064066
 21
412.9903997640317
 31
0.0
  0
LINE
  5
922
330
2
100
AcDbEntity
  8
CENTER
100
AcDbLine
 10
422.5705977064067
 20
424.1036807640316
 30
0.0
 11
422.5705977064067
 21
401.8771187640318
 31
0.0
  0
TEXT
  5
941
330
2
100
AcDbEntity
  8
TITLE
100
AcDbText
 10
478.5781658325088
 20
501.3731277718876
 30
0.0
 40
7.5
  1
HLMN-28T-1200~1800-T25K
 41
0.8
100
AcDbText
  0
TEXT
  5
942
330
2
100
AcDbEntity
  8
TITLE
100
AcDbText
 10
478.5781658325088
 20
489.3731277718876
 30
0.0
 40
7.5
  1
HLMN-28T-1200~1800-T25WK
 41
0.8
100
AcDbText
  0
TEXT
  5
943
330
2
100
AcDbEntity
  8
TITLE
100
AcDbText
 10
478.5781658325088
 20
477.3731277718876
 30
0.0
 40
7.5
  1
HLMN-28T-600~900-T40K
 41
0.8
100
AcDbText
  0
TEXT
  5
944
330
2
100
AcDbEntity
  8
TITLE
100
AcDbText
 10
478.5781658325088
 20
465.3731277718875
 30
0.0
 40
7.5
  1
HLMN-28T-600~900-T40WK
 41
0.8
100
AcDbText
  0
TEXT
  5
945
330
2
100
AcDbEntity
  8
TITLE
100
AcDbText
 10
478.5781658325088
 20
453.3731277718875
 30
0.0
 40
7.5
  1
HLMN-28T-600~900-T60K
 41
0.8
100
AcDbText
  0
TEXT
  5
946
330
2
100
AcDbEntity
  8
TITLE
100
AcDbText
 10
478.5781658325088
 20
441.3731277718875
 30
0.0
 40
7.5
  1
HLMN-28T-600~900-T60WK
 41
0.8
100
AcDbText
  0
TEXT
  5
947
330
2
100
AcDbEntity
  8
TITLE
100
AcDbText
 10
478.5781658325088
 20
429.3731277718875
 30
0.0
 40
7.5
  1
HLMN-28T-300~450-T90K
 41
0.8
100
AcDbText
  0
TEXT
  5
948
330
2
100
AcDbEntity
  8
TITLE
100
AcDbText
 10
478.5781658325088
 20
417.3731277718876
 30
0.0
 40
7.5
  1
HLMN-28T-300~450-T90WK
 41
0.8
100
AcDbText
  0
TEXT
  5
949
330
2
100
AcDbEntity
  8
TITLE
100
AcDbText
 10
631.2190425309538
 20
429.3731277718875
 30
0.0
 40
7.5
  1
HLMN-28T-300~450-S90K
 41
0.8
100
AcDbText
  0
TEXT
  5
94A
330
2
100
AcDbEntity
  8
TITLE
100
AcDbText
 10
631.2190425309538
 20
417.3731277718876
 30
0.0
 40
7.5
  1
HLMN-28T-300~450-S90WK
 41
0.8
100
AcDbText
  0
TEXT
  5
94B
330
2
100
AcDbEntity
  8
TITLE
100
AcDbText
 10
631.2190425309538
 20
441.3731277718875
 30
0.0
 40
7.5
  1
HLMN-28T-600~900-S60WK
 41
0.8
100
AcDbText
  0
TEXT
  5
94C
330
2
100
AcDbEntity
  8
TITLE
100
AcDbText
 10
631.2190425309538
 20
453.3731277718875
 30
0.0
 40
7.5
  1
HLMN-28T-600~900-S60K
 41
0.8
100
AcDbText
  0
TEXT
  5
94D
330
2
100
AcDbEntity
  8
TITLE
100
AcDbText
 10
631.2190425309538
 20
465.3731277718875
 30
0.0
 40
7.5
  1
HLMN-28T-600~900-S40WK
 41
0.8
100
AcDbText
  0
TEXT
  5
94E
330
2
100
AcDbEntity
  8
TITLE
100
AcDbText
 10
631.2190425309538
 20
477.3731277718876
 30
0.0
 40
7.5
  1
HLMN-28T-600~900-S40K
 41
0.8
100
AcDbText
  0
TEXT
  5
94F
330
2
100
AcDbEntity
  8
TITLE
100
AcDbText
 10
631.2190425309538
 20
489.3731277718876
 30
0.0
 40
7.5
  1
HLMN-28T-1200~1800-S25WK
 41
0.8
100
AcDbText
  0
TEXT
  5
950
330
2
100
AcDbEntity
  8
TITLE
100
AcDbText
 10
631.2190425309538
 20
501.3731277718876
 30
0.0
 40
7.5
  1
HLMN-28T-1200~1800-S25K
 41
0.8
100
AcDbText
  0
LINE
  5
1098
330
2
100
AcDbEntity
  8
CENTER
100
AcDbLine
 10
228.9651630362894
 20
163.4951883759319
 30
0.0
 11
327.1132865391312
 21
163.4951883759319
 31
0.0
  0
ARC
  5
142D
330
2
100
AcDbEntity
  8
0
100
AcDbCircle
 10
646.5609245080507
 20
163.4951803759319
 30
0.0
 40
63.500099
100
AcDbArc
 50
305.6389972884995
 51
20.27071011227197
  0
ARC
  5
142E
330
2
100
AcDbEntity
  8
0
100
AcDbCircle
 10
646.5609245080507
 20
163.4951803759319
 30
0.0
 40
63.500099
100
AcDbArc
 50
159.729289887728
 51
234.3610027115003
  0
LINE
  5
1D31
330
2
100
AcDbEntity
  8
0
100
AcDbLine
 10
167.5705857064067
 20
240.9951953759319
 30
0.0
 11
167.5705857064067
 21
198.9951803759319
 31
0.0
  0
LINE
  5
1D33
330
2
100
AcDbEntity
  8
CENTER
100
AcDbLine
 10
142.5705857064067
 20
185.605684375932
 30
0.0
 11
142.5705857064067
 21
252.3826953759319
 31
0.0
  0
LINE
  5
1D35
330
2
100
AcDbEntity
  8
0
100
AcDbLine
 10
117.5705787064067
 20
240.9951953759319
 30
0.0
 11
117.5705787064067
 21
198.9951803759319
 31
0.0
  0
LINE
  5
1D38
330
2
100
AcDbEntity
  8
0
100
AcDbLine
 10
119.0705787064067
 20
196.9951803759319
 30
0.0
 11
165.5705857064067
 21
196.9951803759319
 31
0.0
  0
LINE
  5
1D39
330
2
100
AcDbEntity
  8
0
100
AcDbLine
 10
117.5705787064067
 20
208.9951803759319
 30
0.0
 11
167.5705857064067
 21
208.9951803759319
 31
0.0
  0
LINE
  5
1D3A
330
2
100
AcDbEntity
  8
0
100
AcDbLine
 10
117.5705787064067
 20
198.9951803759319
 30
0.0
 11
167.5705857064067
 21
198.9951803759319
 31
0.0
  0
LINE
  5
1D3B
330
2
100
AcDbEntity
  8
0
100
AcDbLine
 10
117.5705787064067
 20
209.9951803759319
 30
0.0
 11
167.5705857064067
 21
209.9951803759319
 31
0.0
  0
LINE
  5
1D3D
330
2
100
AcDbEntity
  8
0
100
AcDbLine
 10
117.5705787064067
 20
198.9951803759319
 30
0.0
 11
119.5705787064067
 21
196.9951803759319
 31
0.0
  0
LINE
  5
1D3E
330
2
100
AcDbEntity
  8
0
100
AcDbLine
 10
119.0705787064067
 20
196.9951803759319
 30
0.0
 11
119.0705787064067
 21
195.4951803759319
 31
0.0
  0
LINE
  5
1D3F
330
2
100
AcDbEntity
  8
0
100
AcDbLine
 10
116.6955787064067
 20
214.4951803759319
 30
0.0
 11
118.6955787064067
 21
214.4951803759319
 31
0.0
  0
LINE
  5
1D40
330
2
100
AcDbEntity
  8
0
100
AcDbLine
 10
165.5705857064067
 20
196.9951803759319
 30
0.0
 11
167.5705857064067
 21
198.9951803759319
 31
0.0
  0
LINE
  5
1D41
330
2
100
AcDbEntity
  8
0
100
AcDbLine
 10
165.0705857064067
 20
196.9951803759319
 30
0.0
 11
165.0705857064067
 21
195.4951803759319
 31
0.0
  0
LINE
  5
1D46
330
2
100
AcDbEntity
  8
CENTER
100
AcDbLine
 10
107.5269787251982
 20
224.9951803759319
 30
0.0
 11
177.6141926876152
 21
224.9951803759319
 31
0.0
  0
LINE
  5
1D48
330
2
100
AcDbEntity
  8
0
100
AcDbLine
 10
122.4084945224333
 20
241.9951953759319
 30
0.0
 11
162.7326768903803
 21
241.9951953759319
 31
0.0
  0
LINE
  5
1D49
330
2
100
AcDbEntity
  8
0
100
AcDbLine
 10
125.0705857064067
 20
240.9951953759319
 30
0.0
 11
160.0705857064067
 21
240.9951953759319
 31
0.0
  0
LINE
  5
1D4A
330
2
100
AcDbEntity
  8
0
100
AcDbLine
 10
117.5705857064067
 20
239.495195375932
 30
0.0
 11
117.6685218452946
 21
240.6146105657502
 31
0.0
  0
LINE
  5
1D4B
330
2
100
AcDbEntity
  8
0
100
AcDbLine
 10
124.5705857064067
 20
239.495195375932
 30
0.0
 11
124.4726495675188
 21
240.6146105657502
 31
0.0
  0
LINE
  5
1D4C
330
2
100
AcDbEntity
  8
0
100
AcDbLine
 10
125.0705857064067
 20
239.4951953759319
 30
0.0
 11
125.0705857064067
 21
241.495195375932
 31
0.0
  0
LINE
  5
1D4D
330
2
100
AcDbEntity
  8
0
100
AcDbLine
 10
125.0705857064067
 20
239.4951953759319
 30
0.0
 11
117.5705857064067
 21
239.495195375932
 31
0.0
  0
LINE
  5
1D4E
330
2
100
AcDbEntity
  8
0
100
AcDbLine
 10
116.6955787064067
 20
235.4951803759319
 30
0.0
 11
118.6955787064067
 21
235.4951803759319
 31
0.0
  0
LINE
  5
1D4F
330
2
100
AcDbEntity
  8
0
100
AcDbLine
 10
118.5705857064067
 20
241.9951953759319
 30
0.0
 11
117.5705857064067
 21
240.9951953759319
 31
0.0
  0
ARC
  5
1D50
330
2
100
AcDbEntity
  8
0
100
AcDbCircle
 10
118.9635749528138
 20
240.5013081001783
 30
0.0
 40
1.3
100
AcDbArc
 50
105.8808500082775
 51
174.9999999999999
  0
ARC
  5
1D51
330
2
100
AcDbEntity
  8
0
100
AcDbCircle
 10
123.1775964599996
 20
240.5013081001783
 30
0.0
 40
1.3
100
AcDbArc
 50
5.000000000000026
 51
74.1191499917157
  0
LINE
  5
1D52
330
2
100
AcDbEntity
  8
0
100
AcDbLine
 10
125.0705857064067
 20
241.4951953759319
 30
0.0
 11
124.0155630960271
 21
241.4951953759319
 31
0.0
  0
LINE
  5
1D53
330
2
100
AcDbEntity
  8
0
100
AcDbLine
 10
123.1003255295707
 20
241.6476369133096
 30
0.0
 11
123.1205857064066
 21
241.8586136587712
 31
0.0
  0
SPLINE
  5
1D54
330
2
100
AcDbEntity
  8
0
100
AcDbSpline
210
0.0
220
0.0
230
1.0
 70
     8
 71
     3
 72
    11
 73
     7
 74
     0
 42
0.0000000001
 43
0.0000000001
 40
0.0
 40
0.0
 40
0.0
 40
0.0
 40
0.4601364636755307
 40
1.04988694485363
 40
1.713742833862792
 40
2.320347933405154
 40
2.320347933405154
 40
2.320347933405154
 40
2.320347933405179
 10
121.3580857068617
 20
240.578195375932
 30
0.0
 10
121.3805033639696
 20
240.7332188156118
 30
0.0
 10
121.4316534192028
 20
241.0869336335294
 30
0.0
 10
121.8675385807364
 20
241.511661305131
 30
0.0
 10
122.4725892957438
 20
241.7308484850969
 30
0.0
 10
122.8977739199196
 20
241.6618571854863
 30
0.0
 10
123.1003255295707
 20
241.6476369133096
 30
0.0
  0
LINE
  5
1D55
330
2
100
AcDbEntity
  8
0
100
AcDbLine
 10
125.5705857064067
 20
241.9951953759319
 30
0.0
 11
125.0705857064067
 21
241.4951953759319
 31
0.0
  0
SPLINE
  5
1D56
330
2
100
AcDbEntity
  8
0
100
AcDbSpline
210
0.0
220
0.0
230
1.0
 70
     8
 71
     3
 72
    11
 73
     7
 74
     0
 42
0.0000000001
 43
0.0000000001
 40
0.0
 40
0.0
 40
0.0
 40
0.0
 40
0.4601364636755307
 40
1.04988694485363
 40
1.713742833862792
 40
2.320347933405154
 40
2.320347933405154
 40
2.320347933405154
 40
2.320347933405179
 10
120.7830857059516
 20
240.578195375932
 30
0.0
 10
120.7606680488438
 20
240.7332188156118
 30
0.0
 10
120.7095179936104
 20
241.0869336335294
 30
0.0
 10
120.2736328320769
 20
241.511661305131
 30
0.0
 10
119.6685821170694
 20
241.7308484850969
 30
0.0
 10
119.2433974928936
 20
241.6618571854863
 30
0.0
 10
119.0408458832425
 20
241.6476369133096
 30
0.0
  0
LINE
  5
1D57
330
2
100
AcDbEntity
  8
0
100
AcDbLine
 10
119.0408458832425
 20
241.6476369133096
 30
0.0
 11
119.0205857064066
 21
241.8586136587712
 31
0.0
  0
LINE
  5
1D58
330
2
100
AcDbEntity
  8
0
100
AcDbLine
 10
119.7326768903802
 20
241.9951953759319
 30
0.0
 11
118.5705857064067
 21
241.9951953759319
 31
0.0
  0
ARC
  5
1D59
330
2
100
AcDbEntity
  8
0
100
AcDbCircle
 10
121.0705857064067
 20
233.095195375932
 30
0.0
 40
9.0
100
AcDbArc
 50
74.1191499917157
 51
105.8808500082775
  0
LINE
  5
1D5A
330
2
100
AcDbEntity
  8
0
100
AcDbLine
 10
120.7830857059516
 20
240.578195375932
 30
0.0
 11
121.3580857068617
 21
240.578195375932
 31
0.0
  0
LINE
  5
1D5B
330
2
100
AcDbEntity
  8
0
100
AcDbLine
 10
167.5705857064067
 20
239.495195375932
 30
0.0
 11
167.472649567519
 21
240.6146105657502
 31
0.0
  0
LINE
  5
1D5C
330
2
100
AcDbEntity
  8
0
100
AcDbLine
 10
160.5705857064068
 20
239.495195375932
 30
0.0
 11
160.6685218452946
 21
240.6146105657502
 31
0.0
  0
LINE
  5
1D5D
330
2
100
AcDbEntity
  8
0
100
AcDbLine
 10
160.0705857064067
 20
239.4951953759319
 30
0.0
 11
160.0705857064067
 21
241.495195375932
 31
0.0
  0
LINE
  5
1D5E
330
2
100
AcDbEntity
  8
0
100
AcDbLine
 10
160.0705857064067
 20
239.4951953759319
 30
0.0
 11
167.5705857064067
 21
239.495195375932
 31
0.0
  0
SPLINE
  5
1D5F
330
2
100
AcDbEntity
  8
0
100
AcDbSpline
210
0.0
220
0.0
230
1.0
 70
     8
 71
     3
 72
    11
 73
     7
 74
     0
 42
0.0000000001
 43
0.0000000001
 40
0.0
 40
0.0
 40
0.0
 40
0.0
 40
0.4601364636755307
 40
1.04988694485363
 40
1.713742833862792
 40
2.320347933405154
 40
2.320347933405154
 40
2.320347933405154
 40
2.320347933405179
 10
163.7830857059518
 20
240.578195375932
 30
0.0
 10
163.7606680488439
 20
240.7332188156118
 30
0.0
 10
163.7095179936106
 20
241.0869336335294
 30
0.0
 10
163.273632832077
 20
241.511661305131
 30
0.0
 10
162.6685821170697
 20
241.7308484850969
 30
0.0
 10
162.2433974928938
 20
241.6618571854863
 30
0.0
 10
162.0408458832428
 20
241.6476369133096
 30
0.0
  0
ARC
  5
1D60
330
2
100
AcDbEntity
  8
0
100
AcDbCircle
 10
164.0705857064068
 20
233.095195375932
 30
0.0
 40
9.0
100
AcDbArc
 50
74.1191499917157
 51
105.8808500082775
  0
LINE
  5
1D61
330
2
100
AcDbEntity
  8
0
100
AcDbLine
 10
162.0408458832428
 20
241.6476369133096
 30
0.0
 11
162.0205857064068
 21
241.8586136587712
 31
0.0
  0
LINE
  5
1D62
330
2
100
AcDbEntity
  8
0
100
AcDbLine
 10
159.5705857064067
 20
241.9951953759319
 30
0.0
 11
160.0705857064067
 21
241.4951953759319
 31
0.0
  0
ARC
  5
1D63
330
2
100
AcDbEntity
  8
0
100
AcDbCircle
 10
161.9635749528138
 20
240.5013081001783
 30
0.0
 40
1.3
100
AcDbArc
 50
105.8808500082775
 51
174.9999999999999
  0
LINE
  5
1D64
330
2
100
AcDbEntity
  8
0
100
AcDbLine
 10
160.0705857064067
 20
241.4951953759319
 30
0.0
 11
161.1256083167863
 21
241.4951953759319
 31
0.0
  0
ARC
  5
1D65
330
2
100
AcDbEntity
  8
0
100
AcDbCircle
 10
166.1775964599996
 20
240.5013081001783
 30
0.0
 40
1.3
100
AcDbArc
 50
5.000000000000026
 51
74.1191499917157
  0
LINE
  5
1D66
330
2
100
AcDbEntity
  8
0
100
AcDbLine
 10
166.5705857064067
 20
241.9951953759319
 30
0.0
 11
167.5705857064067
 21
240.9951953759319
 31
0.0
  0
LINE
  5
1D67
330
2
100
AcDbEntity
  8
0
100
AcDbLine
 10
166.1003255295709
 20
241.6476369133096
 30
0.0
 11
166.1205857064069
 21
241.8586136587712
 31
0.0
  0
LINE
  5
1D68
330
2
100
AcDbEntity
  8
0
100
AcDbLine
 10
164.3580857068618
 20
240.578195375932
 30
0.0
 11
163.7830857059518
 21
240.578195375932
 31
0.0
  0
SPLINE
  5
1D69
330
2
100
AcDbEntity
  8
0
100
AcDbSpline
210
0.0
220
0.0
230
1.0
 70
     8
 71
     3
 72
    11
 73
     7
 74
     0
 42
0.0000000001
 43
0.0000000001
 40
0.0
 40
0.0
 40
0.0
 40
0.0
 40
0.4601364636755307
 40
1.04988694485363
 40
1.713742833862792
 40
2.320347933405154
 40
2.320347933405154
 40
2.320347933405154
 40
2.320347933405179
 10
164.3580857068618
 20
240.578195375932
 30
0.0
 10
164.3805033639697
 20
240.7332188156118
 30
0.0
 10
164.431653419203
 20
241.0869336335294
 30
0.0
 10
164.8675385807366
 20
241.511661305131
 30
0.0
 10
165.4725892957439
 20
241.7308484850969
 30
0.0
 10
165.8977739199199
 20
241.6618571854863
 30
0.0
 10
166.1003255295709
 20
241.6476369133096
 30
0.0
  0
LINE
  5
1D6A
330
2
100
AcDbEntity
  8
0
100
AcDbLine
 10
165.4084945224333
 20
241.9951953759319
 30
0.0
 11
166.5705857064067
 21
241.9951953759319
 31
0.0
  0
LINE
  5
1DBE
330
2
100
AcDbEntity
  8
0
100
AcDbLine
 10
165.5703877064067
 20
480.4903997640318
 30
0.0
 11
165.5703877064067
 21
445.4903997640317
 31
0.0
  0
LINE
  5
1DBF
330
2
100
AcDbEntity
  8
0
100
AcDbLine
 10
119.5704787064068
 20
480.4903997640318
 30
0.0
 11
119.5704787064068
 21
445.4903997640317
 31
0.0
  0
LINE
  5
1DC0
330
2
100
AcDbEntity
  8
0
100
AcDbLine
 10
117.5704787064068
 20
439.9903997640318
 30
0.0
 11
117.5704787064068
 21
485.9903997640317
 31
0.0
  0
LINE
  5
1DC1
330
2
100
AcDbEntity
  8
0
100
AcDbLine
 10
167.5705857064067
 20
485.9903997640317
 30
0.0
 11
167.5703877064067
 21
439.9903997640318
 31
0.0
  0
LINE
  5
1DC2
330
2
100
AcDbEntity
  8
CENTER
100
AcDbLine
 10
142.5705857064067
 20
427.9467927828233
 30
0.0
 11
142.5705857064067
 21
498.0340067452403
 31
0.0
  0
LINE
  5
1DC3
330
2
100
AcDbEntity
  8
0
100
AcDbLine
 10
160.0703877064067
 20
439.9903997640318
 30
0.0
 11
125.0704787064067
 21
439.9903997640318
 31
0.0
  0
LINE
  5
1DC4
330
2
100
AcDbEntity
  8
0
100
AcDbLine
 10
119.5704787064068
 20
437.9903997640318
 30
0.0
 11
165.5703877064067
 21
437.9903997640318
 31
0.0
  0
ARC
  5
1DC5
330
2
100
AcDbEntity
  8
0
100
AcDbCircle
 10
121.0704787064067
 20
441.4903077640317
 30
0.0
 40
4.0
100
AcDbArc
 50
0.0
 51
90.0
  0
LINE
  5
1DC6
330
2
100
AcDbEntity
  8
0
100
AcDbLine
 10
121.0704787064067
 20
445.4903997640317
 30
0.0
 11
117.5704787064068
 21
445.4903997640317
 31
0.0
  0
LINE
  5
1DC7
330
2
100
AcDbEntity
  8
0
100
AcDbLine
 10
117.5704787064068
 20
439.9903997640318
 30
0.0
 11
119.5704787064068
 21
437.9903997640318
 31
0.0
  0
CIRCLE
  5
1DC8
330
2
100
AcDbEntity
  8
0
100
AcDbCircle
 10
121.0704787064067
 20
441.4903077640317
 30
0.0
 40
3.500000000000028
  0
ARC
  5
1DC9
330
2
100
AcDbEntity
  8
0
100
AcDbCircle
 10
121.0704787064067
 20
441.4903077640317
 30
0.0
 40
2.049999999999998
100
AcDbArc
 50
0.0
 51
8.061960083981649
  0
ARC
  5
1DCA
330
2
100
AcDbEntity
  8
0
100
AcDbCircle
 10
119.0407787064066
 20
443.5200077640317
 30
0.0
 40
1.742199999999999
100
AcDbArc
 50
269.9986903345067
 51
0.0013096654997424
  0
ARC
  5
1DCB
330
2
100
AcDbEntity
  8
0
100
AcDbCircle
 10
121.0704787064067
 20
441.4903077640317
 30
0.0
 40
2.049999999999998
100
AcDbArc
 50
171.9380399160183
 51
180.0
  0
ARC
  5
1DCC
330
2
100
AcDbEntity
  8
0
100
AcDbCircle
 10
123.1001787064067
 20
443.5200077640317
 30
0.0
 40
1.742199999999999
100
AcDbArc
 50
179.9986903345002
 51
270.0013096654997
  0
ARC
  5
1DCD
330
2
100
AcDbEntity
  8
0
100
AcDbCircle
 10
119.0407787064066
 20
439.4606077640317
 30
0.0
 40
1.742199999999999
100
AcDbArc
 50
359.9986903345002
 51
90.00130966549322
  0
ARC
  5
1DCE
330
2
100
AcDbEntity
  8
0
100
AcDbCircle
 10
123.1001787064067
 20
439.4606077640317
 30
0.0
 40
1.742199999999999
100
AcDbArc
 50
89.99869033450025
 51
180.0013096654997
  0
ARC
  5
1DCF
330
2
100
AcDbEntity
  8
0
100
AcDbCircle
 10
121.0704787064067
 20
441.4903077640317
 30
0.0
 40
2.049999999999998
100
AcDbArc
 50
261.9380399160181
 51
270.0
  0
ARC
  5
1DD0
330
2
100
AcDbEntity
  8
0
100
AcDbCircle
 10
121.0704787064067
 20
441.4903077640317
 30
0.0
 40
2.049999999999998
100
AcDbArc
 50
270.0
 51
278.0619600839818
  0
ARC
  5
1DD1
330
2
100
AcDbEntity
  8
0
100
AcDbCircle
 10
121.0704787064067
 20
441.4903077640317
 30
0.0
 40
2.049999999999998
100
AcDbArc
 50
351.9380399160183
 51
0.0
  0
ARC
  5
1DD2
330
2
100
AcDbEntity
  8
0
100
AcDbCircle
 10
121.0704787064067
 20
441.4903077640317
 30
0.0
 40
2.049999999999998
100
AcDbArc
 50
180.0
 51
188.0619600839816
  0
LINE
  5
1DD3
330
2
100
AcDbEntity
  8
0
100
AcDbLine
 10
125.0704787064067
 20
441.4903077640317
 30
0.0
 11
125.0704787064067
 21
437.9903997640318
 31
0.0
  0
ARC
  5
1DD4
330
2
100
AcDbEntity
  8
0
100
AcDbCircle
 10
121.0704787064067
 20
441.4903077640317
 30
0.0
 40
2.049999999999998
100
AcDbArc
 50
90.0
 51
98.06196008398188
  0
ARC
  5
1DD5
330
2
100
AcDbEntity
  8
0
100
AcDbCircle
 10
121.0704787064067
 20
441.4903077640317
 30
0.0
 40
2.049999999999998
100
AcDbArc
 50
81.93803991601813
 51
90.0
  0
ARC
  5
1DD6
330
2
100
AcDbEntity
  8
0
100
AcDbCircle
 10
164.0705857064067
 20
441.4903077640317
 30
0.0
 40
4.0
100
AcDbArc
 50
90.0
 51
180.0
  0
ARC
  5
1DD7
330
2
100
AcDbEntity
  8
0
100
AcDbCircle
 10
162.0408857064065
 20
443.5200077640317
 30
0.0
 40
1.742199999999999
100
AcDbArc
 50
269.9986903345067
 51
0.0013096654997424
  0
ARC
  5
1DD8
330
2
100
AcDbEntity
  8
0
100
AcDbCircle
 10
162.0408857064065
 20
439.4606077640317
 30
0.0
 40
1.742199999999999
100
AcDbArc
 50
359.9986903345002
 51
90.00130966549322
  0
CIRCLE
  5
1DD9
330
2
100
AcDbEntity
  8
0
100
AcDbCircle
 10
164.0705857064067
 20
441.4903077640317
 30
0.0
 40
3.500000000000028
  0
ARC
  5
1DDA
330
2
100
AcDbEntity
  8
0
100
AcDbCircle
 10
164.0705857064067
 20
441.4903077640317
 30
0.0
 40
2.049999999999998
100
AcDbArc
 50
171.9380399160183
 51
180.0
  0
LINE
  5
1DDB
330
2
100
AcDbEntity
  8
0
100
AcDbLine
 10
160.0703877064067
 20
441.4903077640317
 30
0.0
 11
160.0703877064067
 21
437.9903997640318
 31
0.0
  0
ARC
  5
1DDC
330
2
100
AcDbEntity
  8
0
100
AcDbCircle
 10
164.0705857064067
 20
441.4903077640317
 30
0.0
 40
2.049999999999998
100
AcDbArc
 50
180.0
 51
188.0619600839816
  0
LINE
  5
1DDD
330
2
100
AcDbEntity
  8
0
100
AcDbLine
 10
164.0703877064067
 20
445.4903997640317
 30
0.0
 11
167.5703877064067
 21
445.4903997640317
 31
0.0
  0
ARC
  5
1DDE
330
2
100
AcDbEntity
  8
0
100
AcDbCircle
 10
164.0705857064067
 20
441.4903077640317
 30
0.0
 40
2.049999999999998
100
AcDbArc
 50
0.0
 51
8.061960083981649
  0
ARC
  5
1DDF
330
2
100
AcDbEntity
  8
0
100
AcDbCircle
 10
166.1002857064066
 20
443.5200077640317
 30
0.0
 40
1.742199999999999
100
AcDbArc
 50
179.9986903345002
 51
270.0013096654997
  0
ARC
  5
1DE0
330
2
100
AcDbEntity
  8
0
100
AcDbCircle
 10
166.1002857064066
 20
439.4606077640317
 30
0.0
 40
1.742199999999999
100
AcDbArc
 50
89.99869033450025
 51
180.0013096654997
  0
ARC
  5
1DE1
330
2
100
AcDbEntity
  8
0
100
AcDbCircle
 10
164.0705857064067
 20
441.4903077640317
 30
0.0
 40
2.049999999999998
100
AcDbArc
 50
270.0
 51
278.0619600839818
  0
ARC
  5
1DE2
330
2
100
AcDbEntity
  8
0
100
AcDbCircle
 10
164.0705857064067
 20
441.4903077640317
 30
0.0
 40
2.049999999999998
100
AcDbArc
 50
261.9380399160181
 51
270.0
  0
ARC
  5
1DE3
330
2
100
AcDbEntity
  8
0
100
AcDbCircle
 10
164.0705857064067
 20
441.4903077640317
 30
0.0
 40
2.049999999999998
100
AcDbArc
 50
351.9380399160183
 51
0.0
  0
LINE
  5
1DE4
330
2
100
AcDbEntity
  8
0
100
AcDbLine
 10
167.5703877064067
 20
439.9903997640318
 30
0.0
 11
165.5703877064067
 21
437.9903997640318
 31
0.0
  0
LINE
  5
1DE5
330
2
100
AcDbEntity
  8
0
100
AcDbLine
 10
165.5703877064067
 20
437.9903997640318
 30
0.0
 11
167.5703877064067
 21
439.9903997640318
 31
0.0
  0
ARC
  5
1DE6
330
2
100
AcDbEntity
  8
0
100
AcDbCircle
 10
164.0705857064067
 20
441.4903077640317
 30
0.0
 40
2.049999999999998
100
AcDbArc
 50
81.93803991601813
 51
90.0
  0
ARC
  5
1DE7
330
2
100
AcDbEntity
  8
0
100
AcDbCircle
 10
164.0705857064067
 20
441.4903077640317
 30
0.0
 40
2.049999999999998
100
AcDbArc
 50
90.0
 51
98.06196008398188
  0
LINE
  5
1DE8
330
2
100
AcDbEntity
  8
0
100
AcDbLine
 10
119.5704787064068
 20
487.9903997640318
 30
0.0
 11
165.5703877064067
 21
487.9903997640318
 31
0.0
  0
LINE
  5
1DE9
330
2
100
AcDbEntity
  8
0
100
AcDbLine
 10
160.0703877064067
 20
485.9903997640317
 30
0.0
 11
125.0704787064067
 21
485.9903997640317
 31
0.0
  0
LINE
  5
1DEA
330
2
100
AcDbEntity
  8
0
100
AcDbLine
 10
121.0704787064067
 20
480.4903997640318
 30
0.0
 11
117.5704787064068
 21
480.4903997640318
 31
0.0
  0
CIRCLE
  5
1DEB
330
2
100
AcDbEntity
  8
0
100
AcDbCircle
 10
121.0704787064067
 20
484.4903997640318
 30
0.0
 40
3.500000000000028
  0
LINE
  5
1DEC
330
2
100
AcDbEntity
  8
0
100
AcDbLine
 10
117.5704787064068
 20
485.9903997640317
 30
0.0
 11
119.5704787064068
 21
487.9903997640318
 31
0.0
  0
LINE
  5
1DED
330
2
100
AcDbEntity
  8
0
100
AcDbLine
 10
117.5704787064068
 20
485.9903997640317
 30
0.0
 11
119.5704787064068
 21
487.9903997640318
 31
0.0
  0
ARC
  5
1DEE
330
2
100
AcDbEntity
  8
0
100
AcDbCircle
 10
121.0704787064067
 20
484.4903997640318
 30
0.0
 40
2.049999999999998
100
AcDbArc
 50
90.0
 51
98.06196008398188
  0
ARC
  5
1DEF
330
2
100
AcDbEntity
  8
0
100
AcDbCircle
 10
121.0704787064067
 20
484.4903997640318
 30
0.0
 40
2.049999999999998
100
AcDbArc
 50
81.93803991601813
 51
90.0
  0
ARC
  5
1DF0
330
2
100
AcDbEntity
  8
0
100
AcDbCircle
 10
121.0704787064067
 20
484.4903997640318
 30
0.0
 40
4.0
100
AcDbArc
 50
270.0
 51
0.0
  0
ARC
  5
1DF1
330
2
100
AcDbEntity
  8
0
100
AcDbCircle
 10
121.0704787064067
 20
484.4903997640318
 30
0.0
 40
2.049999999999998
100
AcDbArc
 50
0.0
 51
8.061960083981649
  0
ARC
  5
1DF2
330
2
100
AcDbEntity
  8
0
100
AcDbCircle
 10
121.0704787064067
 20
484.4903997640318
 30
0.0
 40
2.049999999999998
100
AcDbArc
 50
351.9380399160183
 51
0.0
  0
ARC
  5
1DF3
330
2
100
AcDbEntity
  8
0
100
AcDbCircle
 10
121.0704787064067
 20
484.4903997640318
 30
0.0
 40
2.049999999999998
100
AcDbArc
 50
171.9380399160183
 51
180.0
  0
ARC
  5
1DF4
330
2
100
AcDbEntity
  8
0
100
AcDbCircle
 10
121.0704787064067
 20
484.4903997640318
 30
0.0
 40
2.049999999999998
100
AcDbArc
 50
180.0
 51
188.0619600839816
  0
ARC
  5
1DF5
330
2
100
AcDbEntity
  8
0
100
AcDbCircle
 10
121.0704787064067
 20
484.4903997640318
 30
0.0
 40
2.049999999999998
100
AcDbArc
 50
261.9380399160181
 51
270.0
  0
ARC
  5
1DF6
330
2
100
AcDbEntity
  8
0
100
AcDbCircle
 10
119.0407787064066
 20
482.4606997640318
 30
0.0
 40
1.742199999999999
100
AcDbArc
 50
359.9986903345002
 51
90.00130966549322
  0
ARC
  5
1DF7
330
2
100
AcDbEntity
  8
0
100
AcDbCircle
 10
121.0704787064067
 20
484.4903997640318
 30
0.0
 40
2.049999999999998
100
AcDbArc
 50
270.0
 51
278.0619600839818
  0
ARC
  5
1DF8
330
2
100
AcDbEntity
  8
0
100
AcDbCircle
 10
123.1001787064067
 20
482.4606997640318
 30
0.0
 40
1.742199999999999
100
AcDbArc
 50
89.99869033450025
 51
180.0013096654997
  0
LINE
  5
1DF9
330
2
100
AcDbEntity
  8
0
100
AcDbLine
 10
125.0704787064067
 20
484.4903997640318
 30
0.0
 11
125.0704787064067
 21
487.9902157640317
 31
0.0
  0
ARC
  5
1DFA
330
2
100
AcDbEntity
  8
0
100
AcDbCircle
 10
119.0407787064066
 20
486.5200997640317
 30
0.0
 40
1.742199999999999
100
AcDbArc
 50
269.9986903345067
 51
0.0013096654997424
  0
ARC
  5
1DFB
330
2
100
AcDbEntity
  8
0
100
AcDbCircle
 10
123.1001787064067
 20
486.5200997640317
 30
0.0
 40
1.742199999999999
100
AcDbArc
 50
179.9986903345002
 51
270.0013096654997
  0
ARC
  5
1DFC
330
2
100
AcDbEntity
  8
0
100
AcDbCircle
 10
164.0705857064067
 20
484.4903997640318
 30
0.0
 40
4.0
100
AcDbArc
 50
180.0
 51
270.0
  0
ARC
  5
1DFD
330
2
100
AcDbEntity
  8
0
100
AcDbCircle
 10
162.0408857064065
 20
482.4606997640318
 30
0.0
 40
1.742199999999999
100
AcDbArc
 50
359.9986903345002
 51
90.00130966549322
  0
CIRCLE
  5
1DFE
330
2
100
AcDbEntity
  8
0
100
AcDbCircle
 10
164.0705857064067
 20
484.4903997640318
 30
0.0
 40
3.500000000000028
  0
ARC
  5
1DFF
330
2
100
AcDbEntity
  8
0
100
AcDbCircle
 10
162.0408857064065
 20
486.5200997640317
 30
0.0
 40
1.742199999999999
100
AcDbArc
 50
269.9986903345067
 51
0.0013096654997424
  0
ARC
  5
1E00
330
2
100
AcDbEntity
  8
0
100
AcDbCircle
 10
164.0705857064067
 20
484.4903997640318
 30
0.0
 40
2.049999999999998
100
AcDbArc
 50
171.9380399160183
 51
180.0
  0
ARC
  5
1E01
330
2
100
AcDbEntity
  8
0
100
AcDbCircle
 10
164.0705857064067
 20
484.4903997640318
 30
0.0
 40
2.049999999999998
100
AcDbArc
 50
180.0
 51
188.0619600839816
  0
LINE
  5
1E02
330
2
100
AcDbEntity
  8
0
100
AcDbLine
 10
160.0703877064067
 20
484.4903997640318
 30
0.0
 11
160.0703877064067
 21
487.9902157640317
 31
0.0
  0
ARC
  5
1E03
330
2
100
AcDbEntity
  8
0
100
AcDbCircle
 10
164.0705857064067
 20
484.4903997640318
 30
0.0
 40
2.049999999999998
100
AcDbArc
 50
81.93803991601813
 51
90.0
  0
ARC
  5
1E04
330
2
100
AcDbEntity
  8
0
100
AcDbCircle
 10
164.0705857064067
 20
484.4903997640318
 30
0.0
 40
2.049999999999998
100
AcDbArc
 50
90.0
 51
98.06196008398188
  0
ARC
  5
1E05
330
2
100
AcDbEntity
  8
0
100
AcDbCircle
 10
164.0705857064067
 20
484.4903997640318
 30
0.0
 40
2.049999999999998
100
AcDbArc
 50
0.0
 51
8.061960083981649
  0
ARC
  5
1E06
330
2
100
AcDbEntity
  8
0
100
AcDbCircle
 10
164.0705857064067
 20
484.4903997640318
 30
0.0
 40
2.049999999999998
100
AcDbArc
 50
351.9380399160183
 51
0.0
  0
ARC
  5
1E07
330
2
100
AcDbEntity
  8
0
100
AcDbCircle
 10
164.0705857064067
 20
484.4903997640318
 30
0.0
 40
2.049999999999998
100
AcDbArc
 50
270.0
 51
278.0619600839818
  0
ARC
  5
1E08
330
2
100
AcDbEntity
  8
0
100
AcDbCircle
 10
164.0705857064067
 20
484.4903997640318
 30
0.0
 40
2.049999999999998
100
AcDbArc
 50
261.9380399160181
 51
270.0
  0
LINE
  5
1E09
330
2
100
AcDbEntity
  8
0
100
AcDbLine
 10
164.0703877064067
 20
480.4903997640318
 30
0.0
 11
167.5703877064067
 21
480.4903997640318
 31
0.0
  0
ARC
  5
1E0A
330
2
100
AcDbEntity
  8
0
100
AcDbCircle
 10
166.1002857064066
 20
482.4606997640318
 30
0.0
 40
1.742199999999999
100
AcDbArc
 50
89.99869033450025
 51
180.0013096654997
  0
ARC
  5
1E0B
330
2
100
AcDbEntity
  8
0
100
AcDbCircle
 10
166.1002857064066
 20
486.5200997640317
 30
0.0
 40
1.742199999999999
100
AcDbArc
 50
179.9986903345002
 51
270.0013096654997
  0
LINE
  5
1E0C
330
2
100
AcDbEntity
  8
0
100
AcDbLine
 10
167.5703877064067
 20
485.9903997640317
 30
0.0
 11
165.5703877064067
 21
487.9903997640318
 31
0.0
  0
LINE
  5
1E0D
330
2
100
AcDbEntity
  8
0
100
AcDbLine
 10
167.5703877064067
 20
485.9903997640317
 30
0.0
 11
165.5703877064067
 21
487.9903997640318
 31
0.0
  0
LINE
  5
1E0E
330
2
100
AcDbEntity
  8
0
100
AcDbLine
 10
167.5705857064067
 20
485.9903997640317
 30
0.0
 11
165.5703877064067
 21
487.9903997640318
 31
0.0
  0
VIEWPORT
  5
1535
330
1534
100
AcDbEntity
 67
     1
  8
0
100
AcDbViewport
 10
144.6494032678484
 20
98.18346866433632
 30
0.0
 40
337.078217044107
 41
215.1146463957828
 68
     1
 69
     1
1001
ACAD
1000
MVIEW
1002
{
1070
    16
1010
0.0
1020
0.0
1030
0.0
1010
0.0
1020
0.0
1030
1.0
1040
0.0
1040
215.1146463957828
1040
144.6494032678484
1040
98.18346866433632
1040
50.0
1040
0.0
1040
0.0
1070
     0
1070
   100
1070
     1
1070
     1
1070
     0
1070
     0
1070
     0
1070
     0
1040
0.0
1040
0.0
1040
0.0
1040
10.0
1040
10.0
1040
10.0
1040
10.0
1070
     0
1002
{
1002
}
1002
}
  0
TEXT
  5
1536
330
1534
100
AcDbEntity
 67
     1
  8
TEXT
100
AcDbText
 10
266.4665517915716
 20
9.492177985111482
 30
0.0
 40
2.0
  1
2006.03.08
 41
0.7
100
AcDbText
  0
TEXT
  5
1537
330
1534
100
AcDbEntity
 67
     1
  8
TEXT
100
AcDbText
 10
221.2876186247744
 20
25.81289445791026
 30
0.0
 40
2.0
  1
HLMN28T-S60WK
100
AcDbText
  0
INSERT
  5
1538
330
1534
100
AcDbEntity
 67
     1
  8
0
100
AcDbBlockReference
 66
     1
  2
外寸枠A4テンプレート
 10
0.0
 20
0.0
 30
0.0
  0
ATTRIB
  5
1539
330
1538
100
AcDbEntity
 67
     1
  8
TEXT
100
AcDbText
 10
214.1380285714284
 20
34.33735183158626
 30
0.0
 40
2.500000000000001
  1
HLMN-28T-600~900-S60WK
 72
     4
 11
241.8165999999999
 21
35.58735183158626
 31
0.0
100
AcDbAttribute
  2
T　I　T　L　E
 70
     0
  0
ATTRIB
  5
153A
330
1538
100
AcDbEntity
 67
     1
  8
TEXT
100
AcDbText
 10
231.4275923057046
 20
7.13444951887557
 30
0.0
 40
2.0
  1
1：3
 72
     4
 11
234.056163734276
 21
8.13444951887557
 31
0.0
100
AcDbAttribute
  2
FREE
 70
     0
  0
ATTRIB
  5
153B
330
1538
100
AcDbEntity
 67
     1
  8
TEXT
100
AcDbText
 10
205.1985180173093
 20
6.884449518875568
 30
0.0
 40
2.500000000000004
  1
海野
 72
     4
 11
207.865184683976
 21
8.13444951887557
 31
0.0
100
AcDbAttribute
  2
海野
 70
     0
  0
ATTRIB
  5
153C
330
1538
100
AcDbEntity
 67
     1
  8
TEXT
100
AcDbText
 10
222.7519560922427
 20
6.884449518875568
 30
0.0
 40
2.500000000000004
  1
吉田
 72
     4
 11
225.3352894255761
 21
8.13444951887557
 31
0.0
100
AcDbAttribute
  2
鳥居
 70
     0
  0
ATTRIB
  5
153D
330
1538
100
AcDbEntity
 67
     1
  8
TEXT
100
AcDbText
 10
213.9476826899094
 20
6.884449518875567
 30
0.0
 40
2.500000000000004
  1
永坂
 72
     4
 11
216.6143493565761
 21
8.13444951887557
 31
0.0
100
AcDbAttribute
  2
永坂
 70
     0
  0
SEQEND
  5
153E
330
1538
100
AcDbEntity
 67
     1
  8
0
  0
INSERT
  5
153F
330
1534
100
AcDbEntity
 67
     1
  8
TEXT
100
AcDbBlockReference
  2
1
 10
202.0
 20
40.0
 30
0.0
  0
VIEWPORT
  5
1540
330
1534
100
AcDbEntity
 67
     1
  8
DEFPOINTS
100
AcDbViewport
 10
141.5
 20
117.8790303545759
 30
0.0
 40
277.0
 41
108.9541718516229
 68
    -1
 69
     2
1001
ACAD
1000
MVIEW
1002
{
1070
    16
1010
0.0
1020
0.0
1030
0.0
1010
0.0
1020
0.0
1030
1.0
1040
0.0
1040
326.8625163981343
1040
418.6316100361777
1040
173.8146883088823
1040
50.0
1040
0.0
1040
0.0
1070
     0
1070
   100
1070
     1
1070
     3
1070
     0
1070
     0
1070
     0
1070
     0
1040
0.0
1040
0.0
1040
0.0
1040
10.0
1040
10.0
1040
10.0
1040
10.0
1070
     0
1002
{
1003
TITLE
1002
}
1002
}
  0
INSERT
  5
1668
330
1534
100
AcDbEntity
 67
     1
  8
TEXT
100
AcDbBlockReference
  2
GSPEC_H-28T-600-900
 10
3.0
 20
4.000000000000001
 30
0.0
  0
INSERT
  5
1911
330
1534
100
AcDbEntity
 67
     1
  8
TEXT
100
AcDbBlockReference
  2
MSPEC_S60WF-90
 10
3.0
 20
4.0
 30
0.0
  0
INSERT
  5
19E6
330
1534
100
AcDbEntity
 67
     1
  8
TEXT
100
AcDbBlockReference
  2
BSPEC_90-90-0038
 10
3.0
 20
4.0
 30
0.0
  0
INSERT
  5
1B64
330
1534
100
AcDbEntity
 67
     1
  8
TEXT
100
AcDbBlockReference
  2
17
 10
202.0
 20
43.5
 30
0.0
  0
ENDSEC
  0
SECTION
  2
OBJECTS
  0
DICTIONARY
  5
7
330
0
100
AcDbDictionary
  3
ACAD_GROUP
350
75
  3
ACAD_LAYOUT
350
61
  3
ACAD_MLINESTYLE
350
76
  3
ACAD_PLOTSETTINGS
350
77
  3
ACAD_PLOTSTYLENAME
350
6
  3
ACADDIM
350
480
  3
ACDBHEADERROUNDTRIPXREC
350
1EC6
  3
ACDBVARIABLEDICTIONARY
350
102
  3
DWGPROPS
350
3D2
  0
DICTIONARY
  5
1EE7
330
2
100
AcDbDictionary
280
     1
  3
ACAD_LAYOUTSELFREF
360
1EE8
  0
DICTIONARY
  5
1EEA
330
1534
100
AcDbDictionary
280
     1
  3
ACAD_LAYOUTSELFREF
360
1EEB
  0
DICTIONARY
  5
75
102
{ACAD_REACTORS
330
7
102
}
330
7
100
AcDbDictionary
  0
DICTIONARY
  5
61
102
{ACAD_REACTORS
330
7
102
}
330
7
100
AcDbDictionary
  0
DICTIONARY
  5
76
102
{ACAD_REACTORS
330
7
102
}
330
7
100
AcDbDictionary
  3
STANDARD
350
78
  0
DICTIONARY
  5
77
102
{ACAD_REACTORS
330
7
102
}
330
7
100
AcDbDictionary
  0
ACDBDICTIONARYWDFLT
  5
6
102
{ACAD_REACTORS
330
7
102
}
330
7
100
AcDbDictionary
281
     1
  3
Normal
350
5
100
AcDbDictionaryWithDefault
340
5
  0
XRECORD
  5
480
102
{ACAD_REACTORS
330
7
102
}
330
7
100
AcDbXrecord
 90
   990106
  3

 60
     0
 61
     0
 62
     1
 63
     3
 64
     1
 65
     0
 66
     0
 67
     3
 68
     1
 69
     0
 70
     0
 71
     0
 72
     0
 40
0.0
170
     2
340
0
  0
DICTIONARY
  5
1EC6
102
{ACAD_REACTORS
330
7
102
}
330
7
100
AcDbDictionary
  3
CEPSNTYPE
350
1ED0
  3
DIMSTYLEDATA
350
1ED4
  3
FINGERPRINTGUID
350
1ED1
  3
HYPERLINKBASE
350
1EC9
  3
INSUNITS
350
1ECF
  3
LAYOUTDICT
350
1ECB
  3
LWETCUNION
350
1ECE
  3
PLOTSETDICT
350
1ECC
  3
PLOTSTYLNAMDICT
350
1ECD
  3
PSVPSCALE
350
1ED3
  3
PUCSBASE
350
1ED7
  3
PUCSORGBACK
350
1EDD
  3
PUCSORGBOTTOM
350
1ED9
  3
PUCSORGFRONT
350
1EDC
  3
PUCSORGLEFT
350
1EDA
  3
PUCSORGRIGHT
350
1EDB
  3
PUCSORGTOP
350
1ED8
  3
PUCSORTHOREF
350
1ED5
  3
PUCSORTHOVIEW
350
1ED6
  3
STYLESHEET
350
1ECA
  3
TSTACKALIGN
350
1EC7
  3
TSTACKSIZE
350
1EC8
  3
UCSBASE
350
1EE0
  3
UCSORGBACK
350
1EE6
  3
UCSORGBOTTOM
350
1EE2
  3
UCSORGFRONT
350
1EE5
  3
UCSORGLEFT
350
1EE3
  3
UCSORGRIGHT
350
1EE4
  3
UCSORGTOP
350
1EE1
  3
UCSORTHOREF
350
1EDE
  3
UCSORTHOVIEW
350
1EDF
  3
VERSIONGUID
350
1ED2
  0
DICTIONARY
  5
102
102
{ACAD_REACTORS
330
7
102
}
330
7
100
AcDbDictionary
  3
DIMASSOC
350
103
  0
XRECORD
  5
3D2
102
{ACAD_REACTORS
330
7
102
}
330
7
100
AcDbXrecord
  1
DWGPROPS COOKIE
  2

  3

  4

  6

  7

  8

  9

300
=
301
=
302
=
303
=
304
=
305
=
306
=
307
=
308
=
309
=
 40
0.5353330671296296
 41
2452052.431989363
 42
2453406.550756377
  1

 90
        0
  0
XRECORD
  5
1EE8
102
{ACAD_REACTORS
330
1EE7
102
}
330
1EE7
100
AcDbXrecord
340
2
  0
XRECORD
  5
1EEB
102
{ACAD_REACTORS
330
1EEA
102
}
330
1EEA
100
AcDbXrecord
340
1534
  0
MLINESTYLE
  5
78
102
{ACAD_REACTORS
330
76
102
}
330
76
100
AcDbMlineStyle
  2
STANDARD
 70
     0
  3

 62
     0
 51
90.0
 52
90.0
 71
     2
 49
0.5
 62
   256
  6
BYLAYER
 49
-0.5
 62
   256
  6
BYLAYER
  0
ACDBPLACEHOLDER
  5
5
102
{ACAD_REACTORS
330
6
102
}
330
6
100
AcDbPlaceHolder
280
     0
  0
XRECORD
  5
1ED0
102
{ACAD_REACTORS
330
1EC6
102
}
330
1EC6
100
AcDbXrecord
 90
        0
  0
XRECORD
  5
1ED4
102
{ACAD_REACTORS
330
1EC6
102
}
330
1EC6
100
AcDbXrecord
1000
DSTYLE
1002
{
1070
   179
 70
     2
1070
   277
 70
     6
1002
}
  0
XRECORD
  5
1ED1
102
{ACAD_REACTORS
330
1EC6
102
}
330
1EC6
100
AcDbXrecord
  1
{6385560B-F4B1-4644-A7C2-A3E32AC3D232}
  0
XRECORD
  5
1EC9
102
{ACAD_REACTORS
330
1EC6
102
}
330
1EC6
100
AcDbXrecord
  1

  0
XRECORD
  5
1ECF
102
{ACAD_REACTORS
330
1EC6
102
}
330
1EC6
100
AcDbXrecord
 90
        0
  0
XRECORD
  5
1ECB
102
{ACAD_REACTORS
330
1EC6
102
}
330
1EC6
100
AcDbXrecord
340
61
  0
XRECORD
  5
1ECE
102
{ACAD_REACTORS
330
1EC6
102
}
330
1EC6
100
AcDbXrecord
 90
    10781
  0
XRECORD
  5
1ECC
102
{ACAD_REACTORS
330
1EC6
102
}
330
1EC6
100
AcDbXrecord
340
77
  0
XRECORD
  5
1ECD
102
{ACAD_REACTORS
330
1EC6
102
}
330
1EC6
100
AcDbXrecord
340
6
  0
XRECORD
  5
1ED3
102
{ACAD_REACTORS
330
1EC6
102
}
330
1EC6
100
AcDbXrecord
 40
0.0
  0
XRECORD
  5
1ED7
102
{ACAD_REACTORS
330
1EC6
102
}
330
1EC6
100
AcDbXrecord
340
0
  0
XRECORD
  5
1EDD
102
{ACAD_REACTORS
330
1EC6
102
}
330
1EC6
100
AcDbXrecord
 10
0.0
 20
0.0
 30
0.0
  0
XRECORD
  5
1ED9
102
{ACAD_REACTORS
330
1EC6
102
}
330
1EC6
100
AcDbXrecord
 10
0.0
 20
0.0
 30
0.0
  0
XRECORD
  5
1EDC
102
{ACAD_REACTORS
330
1EC6
102
}
330
1EC6
100
AcDbXrecord
 10
0.0
 20
0.0
 30
0.0
  0
XRECORD
  5
1EDA
102
{ACAD_REACTORS
330
1EC6
102
}
330
1EC6
100
AcDbXrecord
 10
0.0
 20
0.0
 30
0.0
  0
XRECORD
  5
1EDB
102
{ACAD_REACTORS
330
1EC6
102
}
330
1EC6
100
AcDbXrecord
 10
0.0
 20
0.0
 30
0.0
  0
XRECORD
  5
1ED8
102
{ACAD_REACTORS
330
1EC6
102
}
330
1EC6
100
AcDbXrecord
 10
0.0
 20
0.0
 30
0.0
  0
XRECORD
  5
1ED5
102
{ACAD_REACTORS
330
1EC6
102
}
330
1EC6
100
AcDbXrecord
340
0
  0
XRECORD
  5
1ED6
102
{ACAD_REACTORS
330
1EC6
102
}
330
1EC6
100
AcDbXrecord
 70
     0
  0
XRECORD
  5
1ECA
102
{ACAD_REACTORS
330
1EC6
102
}
330
1EC6
100
AcDbXrecord
  1
Sekkei.ctb
  0
XRECORD
  5
1EC7
102
{ACAD_REACTORS
330
1EC6
102
}
330
1EC6
100
AcDbXrecord
 90
        1
  0
XRECORD
  5
1EC8
102
{ACAD_REACTORS
330
1EC6
102
}
330
1EC6
100
AcDbXrecord
 90
       70
  0
XRECORD
  5
1EE0
102
{ACAD_REACTORS
330
1EC6
102
}
330
1EC6
100
AcDbXrecord
340
0
  0
XRECORD
  5
1EE6
102
{ACAD_REACTORS
330
1EC6
102
}
330
1EC6
100
AcDbXrecord
 10
0.0
 20
0.0
 30
0.0
  0
XRECORD
  5
1EE2
102
{ACAD_REACTORS
330
1EC6
102
}
330
1EC6
100
AcDbXrecord
 10
0.0
 20
0.0
 30
0.0
  0
XRECORD
  5
1EE5
102
{ACAD_REACTORS
330
1EC6
102
}
330
1EC6
100
AcDbXrecord
 10
0.0
 20
0.0
 30
0.0
  0
XRECORD
  5
1EE3
102
{ACAD_REACTORS
330
1EC6
102
}
330
1EC6
100
AcDbXrecord
 10
0.0
 20
0.0
 30
0.0
  0
XRECORD
  5
1EE4
102
{ACAD_REACTORS
330
1EC6
102
}
330
1EC6
100
AcDbXrecord
 10
0.0
 20
0.0
 30
0.0
  0
XRECORD
  5
1EE1
102
{ACAD_REACTORS
330
1EC6
102
}
330
1EC6
100
AcDbXrecord
 10
0.0
 20
0.0
 30
0.0
  0
XRECORD
  5
1EDE
102
{ACAD_REACTORS
330
1EC6
102
}
330
1EC6
100
AcDbXrecord
340
0
  0
XRECORD
  5
1EDF
102
{ACAD_REACTORS
330
1EC6
102
}
330
1EC6
100
AcDbXrecord
 70
     0
  0
XRECORD
  5
1ED2
102
{ACAD_REACTORS
330
1EC6
102
}
330
1EC6
100
AcDbXrecord
  1
{FD89B2AA-BDD8-4004-836E-C8EA63EC6611}
  0
DICTIONARYVAR
  5
103
102
{ACAD_REACTORS
330
102
102
}
330
102
100
DictionaryVariables
280
     0
  1
1
  0
ENDSEC
  0
EOF
