  0
SECTION
  2
HEADER
  9
$CLAYER
  8
1
  9
$LTSCALE
 40
3.0
  0
ENDSEC
  0
SECTION
  2
TABLES
  0
TABLE
  2
LTYPE
 70
     4
  0
LTYPE
  2
CONTINUOUS
  3
solid line
 70
    64
 72
    65
 73
     0
 40
0.0
  0
LTYPE
  2
DASHED
  3
__ __ __ __ __ __ __ __ __ __ __ __ __ __ __
 70
    64
 72
    65
 73
     2
 40
0.75
 49
0.5
 49
-0.25
  0
LTYPE
  2
CENTER
  3
____ _ ____ _ ____ _ ____ _ ____ _ ____ _ ____
 70
    64
 72
    65
 73
     4
 40
2.0
 49
1.25
 49
-0.25
 49
0.25
 49
-0.25
  0
LTYPE
  2
PHANTOM
  3
_____ _ _ _____ _ _ _____ _ _ _____ _ _ ____
 70
    64
 72
    65
 73
     6
 40
2.5
 49
1.25
 49
-0.25
 49
0.25
 49
-0.25
 49
0.25
 49
-0.25
  0
ENDTAB
  0
TABLE
  2
LAYER
 70
     1
  0
LAYER
  2
0
 70
    64
 62
     7
  6
CONTINUOUS
  0
ENDTAB
  0
TABLE
  2
STYLE
 70
     1
  0
STYLE
  2
STANDARD
 70
     0
 40
0.000000
 41
1.000000
 50
0.000000
 71
     0
 42
3.000000
  3
txt
  4
BIGFONT
  0
ENDTAB
  0
ENDSEC
  0
SECTION
  2
BLOCKS
  0
ENDSEC
  0
SECTION
  2
ENTITIES
  0
LINE
  8
0
  6
CENTER
 10
415.427368
 20
281.304169
 11
415.427368
 21
502.532501
  0
LINE
  8
0
  6
CONTINUOUS
 10
339.427185
 20
409.366669
 11
340.212646
 21
364.366669
  0
LINE
  8
0
  6
CONTINUOUS
 10
473.877441
 20
334.366669
 11
431.427368
 21
334.366669
  0
LINE
  8
0
  6
CONTINUOUS
 10
349.483795
 20
339.565460
 11
340.212646
 21
364.366669
  0
ARC
  8
0
  6
CONTINUOUS
 10
356.977325
 20
342.366669
 40
8.000000
 50
200.496613
 51
270.000000
  0
LINE
  8
0
  6
CONTINUOUS
 10
339.427185
 20
409.366669
 11
340.212646
 21
454.366669
  0
LINE
  8
0
  6
CONTINUOUS
 10
473.877441
 20
484.366669
 11
415.427368
 21
484.366669
  0
LINE
  8
0
  6
CONTINUOUS
 10
349.483795
 20
479.167908
 11
340.212646
 21
454.366669
  0
ARC
  8
0
  6
CONTINUOUS
 10
356.977325
 20
476.366669
 40
8.000000
 50
90.000000
 51
159.503387
  0
LINE
  8
0
  6
CONTINUOUS
 10
481.370972
 20
339.565460
 11
490.425781
 21
363.787964
  0
ARC
  8
0
  6
CONTINUOUS
 10
473.877441
 20
342.366669
 40
8.000000
 50
270.000000
 51
339.503387
  0
LINE
  8
0
  6
CONTINUOUS
 10
481.370972
 20
479.167908
 11
490.425781
 21
454.945404
  0
ARC
  8
0
  6
CONTINUOUS
 10
473.877441
 20
476.366669
 40
8.000000
 50
20.496618
 51
90.000000
  0
LINE
  8
0
  6
CONTINUOUS
 10
488.090759
 20
364.366669
 11
343.160736
 21
364.366669
  0
LINE
  8
0
  6
CONTINUOUS
 10
343.160736
 20
454.366669
 11
488.090759
 21
454.366669
  0
LINE
  8
0
  6
CONTINUOUS
 10
415.427368
 20
347.366669
 11
380.168579
 21
347.366669
  0
ARC
  8
0
  6
CONTINUOUS
 10
343.160736
 20
367.366669
 40
3.000000
 50
181.000000
 51
270.000000
  0
ARC
  8
0
  6
CONTINUOUS
 10
343.160736
 20
451.366669
 40
3.000000
 50
90.000000
 51
179.000000
  0
LINE
  8
0
  6
CONTINUOUS
 10
386.427368
 20
367.366669
 11
386.427368
 21
451.366669
  0
LINE
  8
0
  6
CONTINUOUS
 10
444.427368
 20
367.366669
 11
444.427368
 21
451.366669
  0
LINE
  8
0
  6
CONTINUOUS
 10
503.427368
 20
345.366669
 11
503.427368
 21
473.366669
  0
LINE
  8
0
  6
CONTINUOUS
 10
500.855042
 20
345.366669
 11
503.427368
 21
345.366669
  0
LINE
  8
0
  6
CONTINUOUS
 10
375.371735
 20
350.955841
 11
374.368561
 21
354.366669
  0
ARC
  8
0
  6
CONTINUOUS
 10
380.168579
 20
352.366669
 40
5.000000
 50
196.389542
 51
270.000000
  0
LINE
  8
0
  6
CONTINUOUS
 10
359.881256
 20
357.974060
 11
359.073517
 21
360.759308
  0
LINE
  8
0
  6
CONTINUOUS
 10
364.683380
 20
354.366669
 11
374.368561
 21
354.366669
  0
LINE
  8
0
  6
CONTINUOUS
 10
415.427368
 20
347.366669
 11
450.686188
 21
347.366669
  0
LINE
  8
0
  6
CONTINUOUS
 10
415.427368
 20
471.366669
 11
380.168579
 21
471.366669
  0
LINE
  8
0
  6
CONTINUOUS
 10
415.427368
 20
471.366669
 11
450.686188
 21
471.366669
  0
LINE
  8
0
  6
CONTINUOUS
 10
396.427368
 20
289.366669
 11
431.427368
 21
289.366669
  0
LINE
  8
0
  6
CONTINUOUS
 10
431.427368
 20
344.366669
 11
431.427368
 21
289.366669
  0
LINE
  8
0
  6
CONTINUOUS
 10
399.427368
 20
344.366669
 11
399.427368
 21
339.366669
  0
LINE
  8
0
  6
CONTINUOUS
 10
432.927368
 20
344.366669
 11
397.927368
 21
344.366669
  0
LINE
  8
0
  6
CONTINUOUS
 10
432.927368
 20
347.366669
 11
432.927368
 21
344.366669
  0
LINE
  8
0
  6
CONTINUOUS
 10
397.927368
 20
347.366669
 11
397.927368
 21
344.366669
  0
LINE
  8
0
  6
CONTINUOUS
 10
396.427368
 20
334.366669
 11
356.977325
 21
334.366669
  0
LINE
  8
0
  6
CONTINUOUS
 10
396.427368
 20
289.366669
 11
396.427368
 21
339.366669
  0
LINE
  8
0
  6
CONTINUOUS
 10
400.228699
 20
339.366669
 11
396.427368
 21
339.366669
  0
LINE
  8
0
  6
CONTINUOUS
 10
400.228699
 20
339.366669
 11
400.228699
 21
289.366669
  0
LINE
  8
0
  6
CONTINUOUS
 10
415.427368
 20
484.366669
 11
356.977325
 21
484.366669
  0
LINE
  8
0
  6
CENTER
 10
377.803711
 20
349.366669
 11
358.866211
 21
349.366669
  0
LINE
  8
0
  6
CENTER
 10
367.927368
 20
358.519012
 11
367.927368
 21
339.019012
  0
ARC
  8
0
  6
CONTINUOUS
 10
367.927368
 20
349.366669
 40
6.500000
 50
-231.240692
 51
50.284863
  0
ARC
  8
0
  6
CONTINUOUS
 10
462.927368
 20
349.366669
 40
6.500000
 50
-230.284866
 51
51.240688
  0
LINE
  8
0
  6
CENTER
 10
462.927368
 20
358.519012
 11
462.927368
 21
339.019012
  0
LINE
  8
0
  6
CENTER
 10
453.051056
 20
349.366669
 11
471.988556
 21
349.366669
  0
LINE
  8
0
  6
CENTER
 10
759.348755
 20
409.366669
 11
328.006348
 21
409.366669
  0
LINE
  8
0
  6
CONTINUOUS
 10
496.025421
 20
349.072571
 11
492.920380
 21
360.660767
  0
ARC
  8
0
  6
CONTINUOUS
 10
488.090759
 20
359.366669
 40
5.000000
 50
15.000000
 51
90.000000
  0
ARC
  8
0
  6
CONTINUOUS
 10
500.855042
 20
350.366669
 40
5.000000
 50
195.000000
 51
270.000000
  0
LINE
  8
0
  6
CONTINUOUS
 10
500.855042
 20
473.366669
 11
503.427368
 21
473.366669
  0
LINE
  8
0
  6
CONTINUOUS
 10
496.025421
 20
469.660767
 11
492.920380
 21
458.072571
  0
ARC
  8
0
  6
CONTINUOUS
 10
500.855042
 20
468.366669
 40
5.000000
 50
90.000000
 51
165.000000
  0
ARC
  8
0
  6
CONTINUOUS
 10
488.090759
 20
459.366669
 40
5.000000
 50
-90.000000
 51
-15.000000
  0
LINE
  8
0
  6
CONTINUOUS
 10
491.427582
 20
409.366669
 11
490.693542
 21
367.314331
  0
LINE
  8
0
  6
CONTINUOUS
 10
491.427582
 20
409.366669
 11
490.693542
 21
451.419037
  0
ARC
  8
0
  6
CONTINUOUS
 10
487.694000
 20
367.366669
 40
3.000000
 50
270.000000
 51
359.000000
  0
ARC
  8
0
  6
CONTINUOUS
 10
487.694000
 20
451.366669
 40
3.000000
 50
1.000000
 51
90.000000
  0
ARC
  8
0
  6
CONTINUOUS
 10
364.683380
 20
359.366669
 40
5.000000
 50
196.172165
 51
270.000000
  0
ARC
  8
0
  6
CONTINUOUS
 10
354.271362
 20
359.366669
 40
5.000000
 50
16.172159
 51
90.000000
  0
LINE
  8
0
  6
CONTINUOUS
 10
358.027374
 20
364.366669
 11
358.024170
 21
364.377777
  0
ARC
  8
0
  6
CONTINUOUS
 10
450.686188
 20
352.366669
 40
5.000000
 50
270.000000
 51
343.610474
  0
LINE
  8
0
  6
CONTINUOUS
 10
455.483032
 20
350.955841
 11
456.486206
 21
354.366669
  0
LINE
  8
0
  6
CONTINUOUS
 10
470.973511
 20
357.974060
 11
471.781250
 21
360.759308
  0
LINE
  8
0
  6
CONTINUOUS
 10
466.171387
 20
354.366669
 11
456.486206
 21
354.366669
  0
ARC
  8
0
  6
CONTINUOUS
 10
466.171387
 20
359.366669
 40
5.000000
 50
270.000000
 51
343.827850
  0
ARC
  8
0
  6
CONTINUOUS
 10
476.583374
 20
359.366669
 40
5.000000
 50
90.000000
 51
163.827835
  0
LINE
  8
0
  6
CONTINUOUS
 10
472.827393
 20
364.366669
 11
472.830597
 21
364.377777
  0
ARC
  8
0
  6
CONTINUOUS
 10
462.927368
 20
469.366669
 40
6.500000
 50
-51.240688
 51
230.284866
  0
LINE
  8
0
  6
CENTER
 10
453.051056
 20
469.366669
 11
471.988556
 21
469.366669
  0
ARC
  8
0
  6
CONTINUOUS
 10
450.686188
 20
466.366669
 40
5.000000
 50
16.389540
 51
90.000000
  0
LINE
  8
0
  6
CONTINUOUS
 10
455.483032
 20
467.777496
 11
456.486206
 21
464.366669
  0
LINE
  8
0
  6
CONTINUOUS
 10
470.973511
 20
460.759308
 11
471.781250
 21
457.974060
  0
LINE
  8
0
  6
CONTINUOUS
 10
466.171387
 20
464.366669
 11
456.486206
 21
464.366669
  0
ARC
  8
0
  6
CONTINUOUS
 10
466.171387
 20
459.366669
 40
5.000000
 50
16.172159
 51
90.000000
  0
ARC
  8
0
  6
CONTINUOUS
 10
476.583374
 20
459.366669
 40
5.000000
 50
196.172165
 51
270.000000
  0
LINE
  8
0
  6
CONTINUOUS
 10
472.827393
 20
454.366669
 11
472.830597
 21
454.355591
  0
LINE
  8
0
  6
CENTER
 10
462.927368
 20
460.214325
 11
462.927368
 21
479.714325
  0
LINE
  8
0
  6
CONTINUOUS
 10
375.371735
 20
467.777496
 11
374.368561
 21
464.366669
  0
ARC
  8
0
  6
CONTINUOUS
 10
380.168579
 20
466.366669
 40
5.000000
 50
90.000000
 51
163.610458
  0
LINE
  8
0
  6
CONTINUOUS
 10
359.881256
 20
460.759308
 11
359.073517
 21
457.974060
  0
LINE
  8
0
  6
CONTINUOUS
 10
364.683380
 20
464.366669
 11
374.368561
 21
464.366669
  0
LINE
  8
0
  6
CENTER
 10
377.803711
 20
469.366669
 11
358.866211
 21
469.366669
  0
LINE
  8
0
  6
CENTER
 10
367.927368
 20
460.214325
 11
367.927368
 21
479.714325
  0
ARC
  8
0
  6
CONTINUOUS
 10
367.927368
 20
469.366669
 40
6.500000
 50
-50.284863
 51
231.240692
  0
ARC
  8
0
  6
CONTINUOUS
 10
364.683380
 20
459.366669
 40
5.000000
 50
90.000000
 51
163.827835
  0
ARC
  8
0
  6
CONTINUOUS
 10
354.271362
 20
459.366669
 40
5.000000
 50
-90.000000
 51
-16.172159
  0
LINE
  8
0
  6
CONTINUOUS
 10
358.027374
 20
454.366669
 11
358.024170
 21
454.355591
  0
LINE
  8
0
  6
CENTER
 10
82.517998
 20
-3.811250
 11
82.517998
 21
248.034332
  0
LINE
  8
0
  6
CENTER
 10
2.720618
 20
106.308746
 11
158.350616
 21
106.308746
  0
LINE
  8
0
  6
CENTER
 10
5.485618
 20
151.308746
 11
216.695007
 21
151.308746
  0
LINE
  8
0
  6
CENTER
 10
142.518005
 20
37.907490
 11
142.518005
 21
0.008370
  0
LINE
  8
0
  6
CENTER
 10
22.518000
 20
37.907490
 11
22.518000
 21
0.008370
  0
LINE
  8
0
  6
CONTINUOUS
 10
7.518000
 20
11.308750
 11
52.518002
 21
11.308750
  0
LINE
  8
0
  6
CONTINUOUS
 10
112.517998
 20
11.308750
 11
157.518005
 21
11.308750
  0
LINE
  8
0
  6
CONTINUOUS
 10
155.018005
 20
29.308750
 11
131.518005
 21
29.308750
  0
LINE
  8
0
  6
CONTINUOUS
 10
10.018000
 20
29.308750
 11
33.518002
 21
29.308750
  0
LINE
  8
0
  6
CONTINUOUS
 10
127.517998
 20
212.575516
 11
127.517998
 21
11.308750
  0
LINE
  8
0
  6
CONTINUOUS
 10
37.518002
 20
199.049957
 11
37.518002
 21
212.575027
  0
LINE
  8
0
  6
CONTINUOUS
 10
157.518005
 20
27.190929
 11
157.518005
 21
11.308750
  0
LINE
  8
0
  6
CONTINUOUS
 10
7.518000
 20
27.190929
 11
7.518000
 21
11.308750
  0
LINE
  8
0
  6
CONTINUOUS
 10
54.018002
 20
12.808750
 11
111.017998
 21
12.808750
  0
LINE
  8
0
  6
CONTINUOUS
 10
124.570396
 20
215.575043
 11
82.517998
 21
216.308746
  0
LINE
  8
0
  6
CONTINUOUS
 10
40.465599
 20
215.574570
 11
82.517998
 21
216.308746
  0
LINE
  8
0
  6
CONTINUOUS
 10
20.518000
 20
116.049942
 11
20.518000
 21
186.567566
  0
LINE
  8
0
  6
CONTINUOUS
 10
144.518005
 20
116.049942
 11
144.518005
 21
186.567566
  0
LINE
  8
0
  6
CONTINUOUS
 10
27.518000
 20
67.064751
 11
27.518000
 21
155.219147
  0
LINE
  8
0
  6
CONTINUOUS
 10
137.518005
 20
67.064774
 11
137.518005
 21
155.219147
  0
LINE
  8
0
  6
DASHED
 10
149.018005
 20
29.308750
 11
149.018005
 21
11.308750
  0
LINE
  8
0
  6
DASHED
 10
136.018005
 20
29.308750
 11
136.018005
 21
11.308750
  0
LINE
  8
0
  6
DASHED
 10
29.018000
 20
29.308750
 11
29.018000
 21
11.308750
  0
LINE
  8
0
  6
DASHED
 10
16.018000
 20
29.308750
 11
16.018000
 21
11.308750
  0
ARC
  8
0
  6
CONTINUOUS
 10
40.518002
 20
212.575027
 40
3.000000
 50
91.000603
 51
180.000000
  0
ARC
  8
0
  6
CONTINUOUS
 10
124.517998
 20
212.575485
 40
3.000000
 50
0.000000
 51
89.000580
  0
LINE
  8
0
  6
CONTINUOUS
 10
33.928799
 20
194.253113
 11
24.107201
 21
191.364365
  0
LINE
  8
0
  6
CONTINUOUS
 10
24.107201
 20
111.253113
 11
24.646601
 21
111.094444
  0
LINE
  8
0
  6
CONTINUOUS
 10
31.125401
 20
62.262611
 11
33.910599
 21
61.454891
  0
LINE
  8
0
  6
CONTINUOUS
 10
9.607000
 20
29.656910
 11
35.011200
 21
33.890949
  0
LINE
  8
0
  6
CONTINUOUS
 10
155.429001
 20
29.656931
 11
130.024796
 21
33.890968
  0
LINE
  8
0
  6
CONTINUOUS
 10
133.910599
 20
62.262611
 11
131.125397
 21
61.454891
  0
LINE
  8
0
  6
CONTINUOUS
 10
140.928802
 20
111.253113
 11
140.389404
 21
111.094437
  0
LINE
  8
0
  6
CONTINUOUS
 10
140.928802
 20
191.364395
 11
131.107193
 21
194.253113
  0
LINE
  8
0
  6
CONTINUOUS
 10
40.092400
 20
183.808746
 11
124.770599
 21
183.808746
  0
ARC
  8
0
  6
CONTINUOUS
 10
25.518000
 20
186.567596
 40
5.000000
 50
106.389900
 51
180.000000
  0
ARC
  8
0
  6
CONTINUOUS
 10
139.518005
 20
186.567551
 40
5.000000
 50
0.000000
 51
73.610527
  0
ARC
  8
0
  6
CONTINUOUS
 10
25.518000
 20
116.049980
 40
5.000000
 50
180.000000
 51
253.610794
  0
ARC
  8
0
  6
CONTINUOUS
 10
139.518005
 20
116.049934
 40
5.000000
 50
-73.610321
 51
0.000000
  0
ARC
  8
0
  6
CONTINUOUS
 10
132.518005
 20
67.064751
 40
5.000000
 50
-73.827698
 51
0.000000
  0
ARC
  8
0
  6
CONTINUOUS
 10
32.518002
 20
67.064789
 40
5.000000
 50
180.000000
 51
253.828201
  0
LINE
  8
0
  6
CONTINUOUS
 10
37.518002
 20
199.049957
 11
37.518002
 21
11.308750
  0
ARC
  8
0
  6
CONTINUOUS
 10
32.518002
 20
199.049927
 40
5.000000
 50
-73.610229
 51
0.000000
  0
ARC
  8
0
  6
CONTINUOUS
 10
23.518000
 20
107.256966
 40
4.000000
 50
0.000000
 51
73.610649
  0
ARC
  8
0
  6
CONTINUOUS
 10
32.518002
 20
56.652729
 40
5.000000
 50
0.000000
 51
73.827919
  0
ARC
  8
0
  6
CONTINUOUS
 10
132.518005
 20
56.652771
 40
5.000000
 50
106.172501
 51
180.000000
  0
ARC
  8
0
  6
CONTINUOUS
 10
141.518005
 20
107.256996
 40
4.000000
 50
106.389999
 51
180.000000
  0
ARC
  8
0
  6
CONTINUOUS
 10
132.518005
 20
199.049973
 40
5.000000
 50
180.000000
 51
253.610794
  0
ARC
  8
0
  6
CONTINUOUS
 10
34.518002
 20
36.850128
 40
3.000000
 50
-80.537483
 51
0.000000
  0
ARC
  8
0
  6
CONTINUOUS
 10
33.518002
 20
33.308708
 40
4.000000
 50
-90.000000
 51
0.000000
  0
ARC
  8
0
  6
CONTINUOUS
 10
10.018000
 20
26.808769
 40
2.500000
 50
90.000000
 51
180.000000
  0
LINE
  8
0
  6
CONTINUOUS
 10
52.518002
 20
11.308750
 11
54.018002
 21
12.808750
  0
LINE
  8
0
  6
CONTINUOUS
 10
112.517998
 20
11.308750
 11
111.017998
 21
12.808750
  0
ARC
  8
0
  6
CONTINUOUS
 10
130.518005
 20
36.850170
 40
3.000000
 50
180.000000
 51
260.537903
  0
ARC
  8
0
  6
CONTINUOUS
 10
131.518005
 20
33.308750
 40
4.000000
 50
180.000000
 51
270.000000
  0
ARC
  8
0
  6
CONTINUOUS
 10
155.018005
 20
26.808750
 40
2.500000
 50
0.000000
 51
90.000000
  0
LINE
  8
0
  6
CONTINUOUS
 10
202.518005
 20
135.308746
 11
202.518005
 21
167.308746
  0
LINE
  8
0
  6
CONTINUOUS
 10
147.518005
 20
167.308746
 11
202.518005
 21
167.308746
  0
LINE
  8
0
  6
CONTINUOUS
 10
147.518005
 20
135.308746
 11
202.518005
 21
135.308746
  0
LINE
  8
0
  6
CONTINUOUS
 10
147.518005
 20
168.808746
 11
147.518005
 21
133.808746
  0
LINE
  8
0
  6
CONTINUOUS
 10
144.518005
 20
168.808746
 11
147.518005
 21
168.808746
  0
LINE
  8
0
  6
CONTINUOUS
 10
144.518005
 20
133.808746
 11
147.518005
 21
133.808746
  0
ARC
  8
0
  6
CONTINUOUS
 10
157.518005
 20
151.308746
 40
5.000000
 50
90.000000
 51
270.000000
  0
LINE
  8
0
  6
CONTINUOUS
 10
157.518005
 20
156.308746
 11
202.518005
 21
156.308746
  0
LINE
  8
0
  6
CONTINUOUS
 10
157.518005
 20
146.308746
 11
202.518005
 21
146.308746
  0
ARC
  8
0
  6
CONTINUOUS
 10
10.018000
 20
27.190950
 40
2.500000
 50
99.462753
 51
180.000000
  0
ARC
  8
0
  6
CONTINUOUS
 10
155.018005
 20
27.190929
 40
2.500000
 50
0.000000
 51
80.537682
  0
LINE
  8
0
  6
CONTINUOUS
 10
503.427368
 20
170.308746
 11
503.427368
 21
42.308750
  0
ARC
  8
0
  6
CONTINUOUS
 10
82.517998
 20
106.308746
 40
64.000000
 50
165.638489
 51
210.753525
  0
ARC
  8
0
  6
CONTINUOUS
 10
82.517998
 20
106.308746
 40
64.000000
 50
-30.753519
 51
14.361512
  0
ARC
  8
0
  6
CONTINUOUS
 10
41.505798
 20
65.296532
 40
8.000000
 50
211.001404
 51
233.216995
  0
ARC
  8
0
  6
CONTINUOUS
 10
35.518002
 20
57.287411
 40
2.000000
 50
30.947910
 51
53.217121
  0
ARC
  8
0
  6
CONTINUOUS
 10
123.530197
 20
65.296532
 40
8.000000
 50
-53.216999
 51
-31.001400
  0
ARC
  8
0
  6
CONTINUOUS
 10
129.518005
 20
57.287411
 40
2.000000
 50
126.782883
 51
149.052094
  0
LINE
  8
0
  6
CENTER
 10
750.552490
 20
93.308746
 11
458.541016
 21
93.308746
  0
LINE
  8
0
  6
CENTER
 10
591.464050
 20
106.308746
 11
458.541016
 21
106.308746
  0
LINE
  8
0
  6
CONTINUOUS
 10
511.927368
 20
471.366669
 11
511.927368
 21
347.366669
  0
LINE
  8
0
  6
CONTINUOUS
 10
557.927368
 20
364.366669
 11
514.363770
 21
362.845398
  0
LINE
  8
0
  6
CONTINUOUS
 10
557.927368
 20
454.366669
 11
514.363770
 21
455.887970
  0
LINE
  8
0
  6
CONTINUOUS
 10
557.927368
 20
360.354675
 11
557.927368
 21
458.378693
  0
LINE
  8
0
  6
CONTINUOUS
 10
509.927368
 20
345.366669
 11
503.427368
 21
345.366669
  0
LINE
  8
0
  6
CONTINUOUS
 10
509.927368
 20
473.366669
 11
503.427368
 21
473.366669
  0
LINE
  8
0
  6
CONTINUOUS
 10
519.070374
 20
385.366669
 11
511.955414
 21
385.366669
  0
LINE
  8
0
  6
CONTINUOUS
 10
518.465210
 20
433.366669
 11
511.955414
 21
433.366669
  0
LINE
  8
0
  6
CONTINUOUS
 10
519.070374
 20
387.571198
 11
519.070374
 21
431.283752
  0
LINE
  8
0
  6
CONTINUOUS
 10
566.927368
 20
366.366669
 11
566.927368
 21
380.366669
  0
LINE
  8
0
  6
CONTINUOUS
 10
676.927368
 20
364.366669
 11
557.927368
 21
364.366669
  0
LINE
  8
0
  6
CONTINUOUS
 10
676.927368
 20
454.366669
 11
557.927368
 21
454.366669
  0
LINE
  8
0
  6
CONTINUOUS
 10
623.927368
 20
380.366669
 11
566.927368
 21
380.366669
  0
LINE
  8
0
  6
CONTINUOUS
 10
623.927368
 20
438.366669
 11
566.927368
 21
438.366669
  0
ARC
  8
0
  6
CONTINUOUS
 10
564.927368
 20
366.366669
 40
2.000000
 50
-90.000000
 51
0.000000
  0
ARC
  8
0
  6
CONTINUOUS
 10
564.927368
 20
452.366669
 40
2.000000
 50
0.000000
 51
90.000000
  0
LINE
  8
0
  6
CONTINUOUS
 10
557.927368
 20
364.366669
 11
557.927368
 21
454.366669
  0
ARC
  8
0
  6
CONTINUOUS
 10
509.927368
 20
347.366669
 40
2.000000
 50
-90.000000
 51
0.000000
  0
ARC
  8
0
  6
CONTINUOUS
 10
509.927368
 20
471.366669
 40
2.000000
 50
0.000000
 51
90.000000
  0
ARC
  8
0
  6
CONTINUOUS
 10
514.450989
 20
360.346924
 40
2.500000
 50
92.000000
 51
179.895706
  0
ARC
  8
0
  6
CONTINUOUS
 10
514.450989
 20
458.386444
 40
2.500000
 50
180.104294
 51
268.000000
  0
LINE
  8
0
  6
CONTINUOUS
 10
511.927368
 20
362.760315
 11
511.955414
 21
362.761292
  0
LINE
  8
0
  6
CONTINUOUS
 10
557.427673
 20
359.837219
 11
511.927368
 21
358.248322
  0
LINE
  8
0
  6
CONTINUOUS
 10
557.927368
 20
360.354675
 11
557.427673
 21
359.837219
  0
LINE
  8
0
  6
CONTINUOUS
 10
557.427673
 20
458.896118
 11
511.927368
 21
460.485046
  0
LINE
  8
0
  6
CONTINUOUS
 10
557.927368
 20
458.378693
 11
557.427673
 21
458.896118
  0
LINE
  8
0
  6
CONTINUOUS
 10
566.927368
 20
136.308746
 11
566.927368
 21
50.308731
  0
LINE
  8
0
  6
CONTINUOUS
 10
676.927368
 20
138.308746
 11
557.927368
 21
138.308746
  0
LINE
  8
0
  6
CONTINUOUS
 10
676.927368
 20
48.308750
 11
557.927368
 21
48.308750
  0
LINE
  8
0
  6
CONTINUOUS
 10
676.927368
 20
127.718048
 11
567.965088
 21
127.718048
  0
LINE
  8
0
  6
CONTINUOUS
 10
676.927368
 20
58.899448
 11
567.965088
 21
58.899448
  0
ARC
  8
0
  6
CONTINUOUS
 10
564.927368
 20
136.308777
 40
2.000000
 50
0.000000
 51
90.000000
  0
ARC
  8
0
  6
CONTINUOUS
 10
564.927368
 20
50.308750
 40
2.000000
 50
-90.000000
 51
0.000000
  0
LINE
  8
0
  6
CONTINUOUS
 10
509.927368
 20
170.308853
 11
503.427368
 21
170.308853
  0
LINE
  8
0
  6
CONTINUOUS
 10
509.927368
 20
42.308651
 11
503.427368
 21
42.308651
  0
LINE
  8
0
  6
CONTINUOUS
 10
557.927368
 20
138.308746
 11
511.927368
 21
139.915100
  0
LINE
  8
0
  6
CONTINUOUS
 10
503.427368
 20
46.405567
 11
557.927368
 21
48.308750
  0
ARC
  8
0
  6
CONTINUOUS
 10
509.927368
 20
168.308868
 40
2.000000
 50
0.000000
 51
90.000000
  0
ARC
  8
0
  6
CONTINUOUS
 10
509.927368
 20
44.308651
 40
2.000000
 50
-90.000000
 51
-0.260773
  0
LINE
  8
0
  6
CONTINUOUS
 10
557.927368
 20
138.308746
 11
557.927368
 21
48.308750
  0
LINE
  8
0
  6
CONTINUOUS
 10
512.659607
 20
146.076523
 11
518.374146
 21
140.362000
  0
LINE
  8
0
  6
CONTINUOUS
 10
557.927368
 20
72.802750
 11
513.927368
 21
72.802750
  0
LINE
  8
0
  6
CONTINUOUS
 10
557.927368
 20
57.789749
 11
503.427368
 21
57.789749
  0
LINE
  8
0
  6
CONTINUOUS
 10
511.359406
 20
65.741753
 11
503.427368
 21
65.741753
  0
LINE
  8
0
  6
CONTINUOUS
 10
511.927368
 20
66.956482
 11
511.927368
 21
168.308868
  0
ARC
  8
0
  6
CONTINUOUS
 10
514.427307
 20
44.288170
 40
2.500000
 50
92.000000
 51
179.739227
  0
ARC
  8
0
  6
CONTINUOUS
 10
514.427368
 20
147.844284
 40
2.500000
 50
180.000000
 51
225.000000
  0
ARC
  8
0
  6
CONTINUOUS
 10
520.141907
 20
142.129776
 40
2.500000
 50
-135.000000
 51
-92.000000
  0
LINE
  8
0
  6
CENTER
 10
415.427368
 20
238.604935
 11
415.427368
 21
0.675870
  0
LINE
  8
0
  6
CENTER
 10
474.726135
 20
151.308746
 11
354.007507
 21
151.308746
  0
LINE
  8
0
  6
CENTER
 10
367.927368
 20
36.584190
 11
367.927368
 21
2.719450
  0
LINE
  8
0
  6
CENTER
 10
462.927368
 20
36.584190
 11
462.927368
 21
2.427510
  0
LINE
  8
0
  6
CONTINUOUS
 10
491.427368
 20
11.308750
 11
339.427368
 21
11.308750
  0
LINE
  8
0
  6
CONTINUOUS
 10
491.427368
 20
29.308750
 11
339.427368
 21
29.308750
  0
LINE
  8
0
  6
CONTINUOUS
 10
339.427368
 20
179.614304
 11
339.427368
 21
11.308750
  0
LINE
  8
0
  6
CONTINUOUS
 10
491.427368
 20
174.808746
 11
491.427368
 21
179.614304
  0
LINE
  8
0
  6
CONTINUOUS
 10
441.930786
 20
216.308746
 11
388.923981
 21
216.308746
  0
LINE
  8
0
  6
CONTINUOUS
 10
496.427368
 20
170.308746
 11
503.427368
 21
170.308746
  0
LINE
  8
0
  6
CONTINUOUS
 10
496.427368
 20
42.308750
 11
503.427368
 21
42.308750
  0
LINE
  8
0
  6
CONTINUOUS
 10
342.877380
 20
186.194366
 11
384.373993
 21
214.888809
  0
LINE
  8
0
  6
CONTINUOUS
 10
487.977386
 20
186.194366
 11
446.480774
 21
214.888809
  0
ARC
  8
0
  6
CONTINUOUS
 10
388.923981
 20
208.308746
 40
8.000000
 50
90.000000
 51
124.663300
  0
ARC
  8
0
  6
CONTINUOUS
 10
347.427368
 20
179.614273
 40
8.000000
 50
124.663300
 51
180.000000
  0
ARC
  8
0
  6
CONTINUOUS
 10
441.930786
 20
208.308746
 40
8.000000
 50
55.336300
 51
90.000000
  0
ARC
  8
0
  6
CONTINUOUS
 10
483.427368
 20
179.614349
 40
8.000000
 50
0.000000
 51
55.336201
  0
LINE
  8
0
  6
CONTINUOUS
 10
491.427368
 20
37.808750
 11
491.427368
 21
11.308750
  0
ARC
  8
0
  6
CONTINUOUS
 10
496.427368
 20
175.308746
 40
5.000000
 50
180.000000
 51
270.000000
  0
LINE
  8
0
  6
CONTINUOUS
 10
491.427368
 20
37.808750
 11
491.427368
 21
174.808746
  0
ARC
  8
0
  6
CONTINUOUS
 10
496.427368
 20
37.308731
 40
5.000000
 50
90.000000
 51
180.000000
  0
LINE
  8
0
  6
DASHED
 10
469.427368
 20
29.308750
 11
469.427368
 21
11.308750
  0
LINE
  8
0
  6
DASHED
 10
456.427368
 20
29.308750
 11
456.427368
 21
11.308750
  0
LINE
  8
0
  6
DASHED
 10
374.427368
 20
29.308750
 11
374.427368
 21
11.308750
  0
LINE
  8
0
  6
DASHED
 10
361.427368
 20
29.308750
 11
361.427368
 21
11.308750
  0
CIRCLE
  8
0
  6
CONTINUOUS
 10
415.427368
 20
151.308746
 40
39.000000
  0
ARC
  8
0
  6
CONTINUOUS
 10
415.427368
 20
151.308746
 40
44.000000
 50
12.523100
 51
167.476807
  0
ARC
  8
0
  6
CONTINUOUS
 10
440.927368
 20
92.308746
 40
29.000000
 50
-90.000000
 51
12.523100
  0
ARC
  8
0
  6
CONTINUOUS
 10
389.927368
 20
92.308746
 40
29.000000
 50
167.476807
 51
270.000000
  0
ARC
  8
0
  6
CONTINUOUS
 10
440.927368
 20
92.308746
 40
31.900000
 50
-90.000000
 51
12.523100
  0
ARC
  8
0
  6
CONTINUOUS
 10
389.927368
 20
92.308746
 40
31.900000
 50
167.476807
 51
270.000000
  0
ARC
  8
0
  6
CONTINUOUS
 10
415.427368
 20
151.308746
 40
41.099998
 50
-192.523193
 51
12.523100
  0
LINE
  8
0
  6
CONTINUOUS
 10
472.068390
 20
99.225754
 11
458.380585
 21
160.849457
  0
LINE
  8
0
  6
CONTINUOUS
 10
469.237396
 20
98.596939
 11
455.549591
 21
160.220627
  0
LINE
  8
0
  6
CONTINUOUS
 10
440.927368
 20
60.408749
 11
389.927368
 21
60.408749
  0
LINE
  8
0
  6
CONTINUOUS
 10
389.927368
 20
63.308750
 11
440.927368
 21
63.308750
  0
LINE
  8
0
  6
CONTINUOUS
 10
372.474182
 20
160.849533
 11
358.786377
 21
99.225815
  0
LINE
  8
0
  6
CONTINUOUS
 10
375.305176
 20
160.220703
 11
361.617371
 21
98.596992
  0
ARC
  8
0
  6
CONTINUOUS
 10
311.718567
 20
106.308746
 40
185.208893
 50
-13.998090
 51
13.998090
  0
LINE
  8
0
  6
CONTINUOUS
 10
477.427368
 20
27.242189
 11
477.427368
 21
11.308750
  0
LINE
  8
0
  6
CONTINUOUS
 10
353.427368
 20
27.242189
 11
353.427368
 21
11.308750
  0
LINE
  8
0
  6
CONTINUOUS
 10
391.669983
 20
34.308750
 11
439.184784
 21
34.308750
  0
LINE
  8
0
  6
CONTINUOUS
 10
440.427368
 20
33.372871
 11
440.427368
 21
30.308750
  0
LINE
  8
0
  6
CONTINUOUS
 10
389.548767
 20
33.430069
 11
386.891785
 21
30.773211
  0
LINE
  8
0
  6
CONTINUOUS
 10
441.305969
 20
33.430069
 11
443.962769
 21
30.773251
  0
LINE
  8
0
  6
CONTINUOUS
 10
390.427368
 20
33.372871
 11
390.427368
 21
30.308750
  0
ARC
  8
0
  6
CONTINUOUS
 10
447.498383
 20
34.308750
 40
5.000000
 50
-135.000107
 51
-90.000000
  0
ARC
  8
0
  6
CONTINUOUS
 10
439.184784
 20
31.308750
 40
3.000000
 50
44.999691
 51
90.000000
  0
ARC
  8
0
  6
CONTINUOUS
 10
441.427368
 20
30.308750
 40
1.000000
 50
180.000000
 51
270.000000
  0
ARC
  8
0
  6
CONTINUOUS
 10
383.356384
 20
34.308750
 40
5.000000
 50
-90.000000
 51
-45.000000
  0
ARC
  8
0
  6
CONTINUOUS
 10
391.669983
 20
31.308750
 40
3.000000
 50
90.000000
 51
134.999802
  0
ARC
  8
0
  6
CONTINUOUS
 10
389.427368
 20
30.308750
 40
1.000000
 50
-90.000000
 51
0.000000
  0
LINE
  8
0
  6
CONTINUOUS
 10
403.200378
 20
75.308746
 11
398.259979
 21
75.308746
  0
LINE
  8
0
  6
CONTINUOUS
 10
405.927368
 20
83.584152
 11
405.927368
 21
75.308746
  0
LINE
  8
0
  6
CONTINUOUS
 10
410.677368
 20
86.589996
 11
410.677368
 21
89.558746
  0
LINE
  8
0
  6
CONTINUOUS
 10
420.177368
 20
86.589996
 11
420.177368
 21
89.558746
  0
LINE
  8
0
  6
CONTINUOUS
 10
414.499573
 20
87.814613
 11
414.499573
 21
76.867348
  0
LINE
  8
0
  6
CONTINUOUS
 10
416.280792
 20
87.814613
 11
416.280792
 21
76.867348
  0
LINE
  8
0
  6
CONTINUOUS
 10
425.632385
 20
87.814613
 11
425.632385
 21
76.793129
  0
LINE
  8
0
  6
CONTINUOUS
 10
427.265167
 20
81.969887
 11
427.265167
 21
76.793129
  0
LINE
  8
0
  6
CONTINUOUS
 10
403.673370
 20
87.666168
 11
399.095581
 21
87.666168
  0
LINE
  8
0
  6
CONTINUOUS
 10
399.095581
 20
87.666168
 11
398.022980
 21
86.336166
  0
LINE
  8
0
  6
CONTINUOUS
 10
398.151978
 20
89.558746
 11
396.427368
 21
87.350281
  0
LINE
  8
0
  6
CONTINUOUS
 10
398.022980
 20
78.126587
 11
399.112793
 21
76.978668
  0
LINE
  8
0
  6
CONTINUOUS
 10
396.427368
 20
77.157867
 11
398.259979
 21
75.308746
  0
LINE
  8
0
  6
CONTINUOUS
 10
396.427368
 20
87.350281
 11
396.427368
 21
77.157867
  0
LINE
  8
0
  6
CONTINUOUS
 10
398.022980
 20
86.336166
 11
398.022980
 21
78.126587
  0
LINE
  8
0
  6
CONTINUOUS
 10
404.554382
 20
86.814613
 11
403.655396
 21
87.666168
  0
LINE
  8
0
  6
CONTINUOUS
 10
404.539978
 20
89.558746
 11
405.927368
 21
88.019165
  0
LINE
  8
0
  6
CONTINUOUS
 10
404.554382
 20
86.589996
 11
405.927368
 21
86.589996
  0
LINE
  8
0
  6
CONTINUOUS
 10
398.151978
 20
89.558746
 11
404.539978
 21
89.558746
  0
LINE
  8
0
  6
CONTINUOUS
 10
402.067993
 20
83.584152
 11
405.927368
 21
83.584152
  0
LINE
  8
0
  6
CONTINUOUS
 10
404.554382
 20
82.025551
 11
402.067993
 21
82.025551
  0
LINE
  8
0
  6
CONTINUOUS
 10
401.585571
 20
76.978668
 11
399.112793
 21
76.978668
  0
LINE
  8
0
  6
CONTINUOUS
 10
404.554382
 20
80.541168
 11
404.554382
 21
81.728668
  0
ARC
  8
0
  6
CONTINUOUS
 10
401.585571
 20
79.947411
 40
2.968750
 50
-89.999786
 51
0.000109
  0
LINE
  8
0
  6
CONTINUOUS
 10
404.554382
 20
76.444672
 11
404.554382
 21
75.308746
  0
LINE
  8
0
  6
CONTINUOUS
 10
405.927368
 20
88.019165
 11
405.927368
 21
86.589996
  0
LINE
  8
0
  6
CONTINUOUS
 10
404.554382
 20
82.025551
 11
404.554382
 21
79.947411
  0
LINE
  8
0
  6
CONTINUOUS
 10
402.067993
 20
83.584152
 11
402.067993
 21
82.025551
  0
LINE
  8
0
  6
CONTINUOUS
 10
404.554382
 20
75.308746
 11
405.927368
 21
75.308746
  0
LINE
  8
0
  6
CONTINUOUS
 10
404.554382
 20
76.444672
 11
403.200378
 21
75.308746
  0
LINE
  8
0
  6
CONTINUOUS
 10
416.280792
 20
76.867348
 11
416.874573
 21
76.867348
  0
LINE
  8
0
  6
CONTINUOUS
 10
413.794586
 20
76.867348
 11
413.794586
 21
75.308746
  0
LINE
  8
0
  6
CONTINUOUS
 10
416.874573
 20
76.867348
 11
416.874573
 21
75.308746
  0
LINE
  8
0
  6
CONTINUOUS
 10
419.186371
 20
86.589996
 11
420.177368
 21
86.589996
  0
LINE
  8
0
  6
CONTINUOUS
 10
410.677368
 20
86.589996
 11
411.731995
 21
86.589996
  0
LINE
  8
0
  6
CONTINUOUS
 10
410.677368
 20
89.558746
 11
420.177368
 21
89.558746
  0
LINE
  8
0
  6
CONTINUOUS
 10
413.794586
 20
75.308746
 11
416.874573
 21
75.308746
  0
LINE
  8
0
  6
CONTINUOUS
 10
413.794586
 20
76.867348
 11
414.499573
 21
76.867348
  0
ARC
  8
0
  6
CONTINUOUS
 10
430.623596
 20
85.755028
 40
3.803712
 50
-73.981873
 51
90.003510
  0
ARC
  8
0
  6
CONTINUOUS
 10
430.623596
 20
85.755028
 40
2.320524
 50
-82.585274
 51
62.411850
  0
LINE
  8
0
  6
CONTINUOUS
 10
424.927368
 20
89.558746
 11
430.623596
 21
89.558746
  0
LINE
  8
0
  6
CONTINUOUS
 10
430.923187
 20
83.453911
 11
427.265167
 21
83.453911
  0
LINE
  8
0
  6
CONTINUOUS
 10
424.927368
 20
89.558746
 11
424.927368
 21
87.814613
  0
LINE
  8
0
  6
CONTINUOUS
 10
427.265167
 20
87.814613
 11
427.265167
 21
83.453911
  0
LINE
  8
0
  6
CONTINUOUS
 10
431.673187
 20
82.099007
 11
434.027588
 21
76.793129
  0
LINE
  8
0
  6
CONTINUOUS
 10
430.305969
 20
81.969887
 11
432.533783
 21
76.793129
  0
LINE
  8
0
  6
CONTINUOUS
 10
424.927368
 20
76.793129
 11
425.632385
 21
76.793129
  0
LINE
  8
0
  6
CONTINUOUS
 10
427.265167
 20
76.793129
 11
427.914795
 21
76.793129
  0
LINE
  8
0
  6
CONTINUOUS
 10
427.914795
 20
75.308746
 11
424.927368
 21
75.308746
  0
LINE
  8
0
  6
CONTINUOUS
 10
432.237976
 20
76.793129
 11
432.533783
 21
76.793129
  0
LINE
  8
0
  6
CONTINUOUS
 10
434.027588
 20
76.793129
 11
434.427368
 21
76.793129
  0
LINE
  8
0
  6
CONTINUOUS
 10
432.237976
 20
75.308746
 11
434.427368
 21
75.308746
  0
LINE
  8
0
  6
CONTINUOUS
 10
434.427368
 20
76.793129
 11
434.427368
 21
75.308746
  0
LINE
  8
0
  6
CONTINUOUS
 10
432.237976
 20
76.793129
 11
432.237976
 21
75.308746
  0
LINE
  8
0
  6
CONTINUOUS
 10
427.914795
 20
76.793129
 11
427.914795
 21
75.308746
  0
LINE
  8
0
  6
CONTINUOUS
 10
424.927368
 20
76.793129
 11
424.927368
 21
75.308746
  0
LINE
  8
0
  6
CONTINUOUS
 10
412.242188
 20
87.814613
 11
411.731995
 21
86.589996
  0
LINE
  8
0
  6
CONTINUOUS
 10
418.756195
 20
87.814613
 11
419.186371
 21
86.589996
  0
LINE
  8
0
  6
CONTINUOUS
 10
416.280792
 20
87.814613
 11
418.756195
 21
87.814613
  0
LINE
  8
0
  6
CONTINUOUS
 10
414.499573
 20
87.814613
 11
412.242188
 21
87.814613
  0
LINE
  8
0
  6
CONTINUOUS
 10
427.265167
 20
81.969887
 11
430.305969
 21
81.969887
  0
LINE
  8
0
  6
CONTINUOUS
 10
424.927368
 20
87.814613
 11
425.632385
 21
87.814613
  0
LINE
  8
0
  6
CONTINUOUS
 10
427.265167
 20
87.814613
 11
431.698395
 21
87.811722
  0
LINE
  8
0
  6
CONTINUOUS
 10
404.554382
 20
86.814613
 11
404.554382
 21
86.589996
  0
LINE
  8
0
  6
CONTINUOUS
 10
487.427368
 20
160.085846
 11
487.427368
 21
88.531677
  0
LINE
  8
0
  6
CONTINUOUS
 10
343.427368
 20
160.085846
 11
343.427368
 21
88.531677
  0
ARC
  8
0
  6
CONTINUOUS
 10
415.427368
 20
124.308754
 40
88.000000
 50
228.189804
 51
311.810791
  0
ARC
  8
0
  6
CONTINUOUS
 10
415.427368
 20
124.308754
 40
88.000000
 50
48.217949
 51
131.810501
  0
ARC
  8
0
  6
CONTINUOUS
 10
383.427368
 20
160.085846
 40
40.000000
 50
131.810806
 51
180.000000
  0
ARC
  8
0
  6
CONTINUOUS
 10
447.427368
 20
160.085846
 40
40.000000
 50
0.000000
 51
48.251911
  0
ARC
  8
0
  6
CONTINUOUS
 10
447.427368
 20
88.531670
 40
40.000000
 50
-48.187901
 51
0.000000
  0
ARC
  8
0
  6
CONTINUOUS
 10
383.427368
 20
88.531670
 40
40.000000
 50
180.000000
 51
228.190094
  0
LINE
  8
0
  6
CONTINUOUS
 10
404.427368
 20
156.308746
 11
404.427368
 21
146.308746
  0
LINE
  8
0
  6
CONTINUOUS
 10
396.427368
 20
156.308746
 11
396.427368
 21
146.308746
  0
LINE
  8
0
  6
CONTINUOUS
 10
396.427368
 20
156.308746
 11
404.427368
 21
156.308746
  0
LINE
  8
0
  6
CONTINUOUS
 10
396.427368
 20
146.308746
 11
404.427368
 21
146.308746
  0
ARC
  8
0
  6
CONTINUOUS
 10
415.427368
 20
151.308746
 40
16.000000
 50
-161.790100
 51
161.790100
  0
LINE
  8
0
  6
CONTINUOUS
 10
686.427368
 20
364.366669
 11
676.927368
 21
364.366669
  0
LINE
  8
0
  6
CONTINUOUS
 10
685.927368
 20
380.366669
 11
686.427368
 21
380.366669
  0
LINE
  8
0
  6
CONTINUOUS
 10
686.427368
 20
454.366669
 11
676.927368
 21
454.366669
  0
LINE
  8
0
  6
CONTINUOUS
 10
676.927368
 20
454.366669
 11
676.927368
 21
440.366699
  0
LINE
  8
0
  6
CONTINUOUS
 10
685.927368
 20
438.366669
 11
686.427368
 21
438.366669
  0
LINE
  8
0
  6
CONTINUOUS
 10
676.927368
 20
378.366699
 11
676.927368
 21
364.366669
  0
LINE
  8
0
  6
CONTINUOUS
 10
686.427368
 20
362.366669
 11
686.427368
 21
456.366669
  0
LINE
  8
0
  6
CONTINUOUS
 10
686.427368
 20
380.366669
 11
730.402405
 21
380.366669
  0
LINE
  8
0
  6
CONTINUOUS
 10
686.427368
 20
438.366669
 11
730.402405
 21
438.366669
  0
LINE
  8
0
  6
CONTINUOUS
 10
728.927429
 20
362.366669
 11
686.427368
 21
362.366669
  0
LINE
  8
0
  6
CONTINUOUS
 10
728.927429
 20
456.366669
 11
686.427368
 21
456.366669
  0
ARC
  8
0
  6
CONTINUOUS
 10
728.927368
 20
367.366669
 40
5.000000
 50
-90.000000
 51
0.000000
  0
ARC
  8
0
  6
CONTINUOUS
 10
728.927429
 20
451.366669
 40
5.000000
 50
0.000000
 51
90.000000
  0
LINE
  8
0
  6
CONTINUOUS
 10
733.927368
 20
367.366669
 11
733.927429
 21
451.366699
  0
LINE
  8
0
  6
CONTINUOUS
 10
686.427368
 20
138.308746
 11
676.927368
 21
138.308746
  0
LINE
  8
0
  6
CONTINUOUS
 10
676.927368
 20
127.718048
 11
686.427368
 21
127.718048
  0
LINE
  8
0
  6
CONTINUOUS
 10
686.427368
 20
48.308750
 11
676.927368
 21
48.308750
  0
LINE
  8
0
  6
CONTINUOUS
 10
676.927368
 20
58.899460
 11
686.427368
 21
58.899460
  0
LINE
  8
0
  6
CONTINUOUS
 10
686.427368
 20
140.308746
 11
686.427368
 21
46.308750
  0
LINE
  8
0
  6
CONTINUOUS
 10
686.427368
 20
122.308746
 11
730.402405
 21
122.308746
  0
LINE
  8
0
  6
CONTINUOUS
 10
686.427368
 20
64.308746
 11
730.402405
 21
64.308746
  0
LINE
  8
0
  6
CONTINUOUS
 10
728.927429
 20
140.308746
 11
686.427368
 21
140.308746
  0
LINE
  8
0
  6
CONTINUOUS
 10
728.927429
 20
46.308750
 11
686.427368
 21
46.308750
  0
ARC
  8
0
  6
CONTINUOUS
 10
728.927368
 20
135.308746
 40
5.000000
 50
0.000000
 51
90.000000
  0
ARC
  8
0
  6
CONTINUOUS
 10
728.927429
 20
51.308750
 40
5.000000
 50
-90.000000
 51
0.000000
  0
LINE
  8
0
  6
CONTINUOUS
 10
733.927368
 20
135.308746
 11
733.927429
 21
51.308739
  0
LINE
  8
0
  6
CONTINUOUS
 10
676.927368
 20
48.308750
 11
676.927368
 21
138.308746
  0
LINE
  8
0
  6
CONTINUOUS
 10
685.927368
 20
380.366699
 11
685.927368
 21
438.366699
  0
LINE
  8
0
  6
CONTINUOUS
 10
623.927368
 20
438.366699
 11
623.927368
 21
380.366699
  0
LINE
  8
0
  6
CONTINUOUS
 10
683.927368
 20
378.366699
 11
625.927368
 21
378.366699
  0
LINE
  8
0
  6
CONTINUOUS
 10
683.927368
 20
440.366699
 11
625.927368
 21
440.366699
  0
LINE
  8
0
  6
CONTINUOUS
 10
625.927368
 20
378.366699
 11
623.927368
 21
380.366699
  0
LINE
  8
0
  6
CONTINUOUS
 10
623.927368
 20
438.366699
 11
625.927368
 21
440.366699
  0
LINE
  8
0
  6
CONTINUOUS
 10
685.927368
 20
438.366699
 11
683.927368
 21
440.366699
  0
LINE
  8
0
  6
CONTINUOUS
 10
685.927368
 20
380.366699
 11
683.927368
 21
378.366699
  0
LINE
  8
0
  6
CONTINUOUS
 10
631.927368
 20
383.366699
 11
631.927368
 21
378.366699
  0
LINE
  8
0
  6
CONTINUOUS
 10
628.927368
 20
386.366699
 11
623.927368
 21
386.366699
  0
CIRCLE
  8
0
  6
CONTINUOUS
 10
627.927368
 20
382.366699
 40
2.250000
  0
ARC
  8
0
  6
CONTINUOUS
 10
628.927368
 20
383.366699
 40
3.000000
 50
0.000000
 51
90.000000
  0
LINE
  8
0
  6
CONTINUOUS
 10
624.927368
 20
387.366699
 11
624.927368
 21
431.366699
  0
LINE
  8
0
  6
CONTINUOUS
 10
628.927368
 20
387.366699
 11
624.927368
 21
387.366699
  0
ARC
  8
0
  6
CONTINUOUS
 10
628.927368
 20
383.366699
 40
4.000000
 50
0.000000
 51
90.000000
  0
LINE
  8
0
  6
CONTINUOUS
 10
632.927368
 20
379.366699
 11
632.927368
 21
383.366699
  0
LINE
  8
0
  6
CONTINUOUS
 10
624.927368
 20
387.366699
 11
623.927368
 21
386.366699
  0
LINE
  8
0
  6
CONTINUOUS
 10
676.927368
 20
379.366699
 11
632.927368
 21
379.366699
  0
LINE
  8
0
  6
CONTINUOUS
 10
632.927368
 20
379.366699
 11
631.927368
 21
378.366699
  0
LINE
  8
0
  6
CONTINUOUS
 10
680.927368
 20
386.366699
 11
685.927368
 21
386.366699
  0
LINE
  8
0
  6
CONTINUOUS
 10
677.927368
 20
383.366699
 11
677.927368
 21
378.366699
  0
CIRCLE
  8
0
  6
CONTINUOUS
 10
681.927368
 20
382.366699
 40
2.250000
  0
ARC
  8
0
  6
CONTINUOUS
 10
680.927368
 20
383.366699
 40
3.000000
 50
90.000000
 51
180.000000
  0
LINE
  8
0
  6
CONTINUOUS
 10
676.927368
 20
383.366699
 11
676.927368
 21
379.366699
  0
ARC
  8
0
  6
CONTINUOUS
 10
680.927368
 20
383.366699
 40
4.000000
 50
90.000000
 51
180.000000
  0
LINE
  8
0
  6
CONTINUOUS
 10
684.927368
 20
387.366699
 11
680.927368
 21
387.366699
  0
LINE
  8
0
  6
CONTINUOUS
 10
676.927368
 20
379.366699
 11
677.927368
 21
378.366699
  0
LINE
  8
0
  6
CONTINUOUS
 10
684.927368
 20
387.366699
 11
685.927368
 21
386.366699
  0
LINE
  8
0
  6
CONTINUOUS
 10
677.927368
 20
435.366699
 11
677.927368
 21
440.366699
  0
LINE
  8
0
  6
CONTINUOUS
 10
680.927368
 20
432.366699
 11
685.927368
 21
432.366699
  0
CIRCLE
  8
0
  6
CONTINUOUS
 10
681.927368
 20
436.366699
 40
2.250000
  0
ARC
  8
0
  6
CONTINUOUS
 10
680.927368
 20
435.366699
 40
3.000000
 50
180.000000
 51
270.000000
  0
LINE
  8
0
  6
CONTINUOUS
 10
680.927368
 20
431.366699
 11
684.927368
 21
431.366699
  0
ARC
  8
0
  6
CONTINUOUS
 10
680.927368
 20
435.366699
 40
4.000000
 50
180.000000
 51
270.000000
  0
LINE
  8
0
  6
CONTINUOUS
 10
676.927368
 20
439.366699
 11
676.927368
 21
435.366699
  0
LINE
  8
0
  6
CONTINUOUS
 10
684.927368
 20
431.366699
 11
685.927368
 21
432.366699
  0
LINE
  8
0
  6
CONTINUOUS
 10
676.927368
 20
439.366699
 11
677.927368
 21
440.366699
  0
LINE
  8
0
  6
CONTINUOUS
 10
628.927368
 20
432.366699
 11
623.927368
 21
432.366699
  0
LINE
  8
0
  6
CONTINUOUS
 10
631.927368
 20
435.366699
 11
631.927368
 21
440.366699
  0
CIRCLE
  8
0
  6
CONTINUOUS
 10
627.927368
 20
436.366699
 40
2.250000
  0
ARC
  8
0
  6
CONTINUOUS
 10
628.927368
 20
435.366699
 40
3.000000
 50
-90.000000
 51
0.000000
  0
LINE
  8
0
  6
CONTINUOUS
 10
632.927368
 20
435.366699
 11
632.927368
 21
439.366699
  0
ARC
  8
0
  6
CONTINUOUS
 10
628.927368
 20
435.366699
 40
4.000000
 50
-90.000000
 51
0.000000
  0
LINE
  8
0
  6
CONTINUOUS
 10
624.927368
 20
431.366699
 11
628.927368
 21
431.366699
  0
LINE
  8
0
  6
CONTINUOUS
 10
632.927368
 20
439.366699
 11
631.927368
 21
440.366699
  0
LINE
  8
0
  6
CONTINUOUS
 10
624.927368
 20
431.366699
 11
623.927368
 21
432.366699
  0
LINE
  8
0
  6
CONTINUOUS
 10
676.927368
 20
439.366699
 11
632.927368
 21
439.366699
  0
LINE
  8
0
  6
CONTINUOUS
 10
684.927368
 20
387.366699
 11
684.927368
 21
431.366699
  0
LINE
  8
0
  6
CENTER
 10
654.927368
 20
373.120453
 11
654.927368
 21
445.813263
  0
LINE
  8
0
  6
CONTINUOUS
 10
684.427368
 20
139.808762
 11
625.927368
 21
139.808746
  0
LINE
  8
0
  6
CONTINUOUS
 10
684.427368
 20
139.808746
 11
684.427368
 21
138.308746
  0
LINE
  8
0
  6
CONTINUOUS
 10
638.427368
 20
139.808746
 11
638.427368
 21
138.308746
  0
LINE
  8
0
  6
CONTINUOUS
 10
685.927368
 20
188.808746
 11
685.927368
 21
141.808762
  0
LINE
  8
0
  6
CONTINUOUS
 10
623.927368
 20
188.808777
 11
623.927368
 21
141.808746
  0
LINE
  8
0
  6
CONTINUOUS
 10
623.927368
 20
141.808746
 11
625.927368
 21
139.808746
  0
LINE
  8
0
  6
CONTINUOUS
 10
685.927368
 20
141.808762
 11
683.927368
 21
139.808762
  0
LINE
  8
0
  6
CONTINUOUS
 10
685.927368
 20
141.808762
 11
623.927368
 21
141.808746
  0
LINE
  8
0
  6
CONTINUOUS
 10
685.927368
 20
151.808762
 11
623.927368
 21
151.808762
  0
LINE
  8
0
  6
CENTER
 10
654.927368
 20
200.365005
 11
654.927368
 21
135.214737
  0
LINE
  8
0
  6
CONTINUOUS
 10
685.927368
 20
152.808762
 11
623.927368
 21
152.808762
  0
LINE
  8
0
  6
CONTINUOUS
 10
684.927368
 20
189.808746
 11
624.927368
 21
189.808777
  0
LINE
  8
0
  6
CONTINUOUS
 10
624.927368
 20
189.808777
 11
623.927368
 21
188.808777
  0
LINE
  8
0
  6
CONTINUOUS
 10
685.927368
 20
188.808746
 11
684.927368
 21
189.808746
  0
LINE
  8
0
  6
CONTINUOUS
 10
685.927368
 20
188.808746
 11
623.927368
 21
188.808777
  0
LINE
  8
0
  6
CENTER
 10
688.552368
 20
172.808777
 11
682.802368
 21
172.808777
  0
LINE
  8
0
  6
CONTINUOUS
 10
687.052368
 20
183.308777
 11
683.927368
 21
183.308777
  0
LINE
  8
0
  6
CONTINUOUS
 10
687.052368
 20
162.308762
 11
683.927368
 21
162.308762
  0
LINE
  8
0
  6
CONTINUOUS
 10
566.927368
 20
438.366669
 11
566.927368
 21
452.366699
  0
TEXT
  8
0
 10
2.000000
 20
-3.000000
 40
4.000000
 41
1.000000
  1
HLMN-32L-1200~1800-S40C
 50
0.000000
  0
ENDSEC
  0
EOF
