  0
SECTION
  2
HEADER
  9
$ACADVER
  1
AC1014
  9
$ACADMAINTVER
 70
     9
  9
$DWGCODEPAGE
  3
ANSI_932
  9
$INSBASE
 10
0.0
 20
0.0
 30
0.0
  9
$EXTMIN
 10
56.71559791839309
 20
57.90855611127892
 30
0.0
  9
$EXTMAX
 10
1204.456757312054
 20
595.966486111279
 30
0.0
  9
$LIMMIN
 10
0.0
 20
0.0
  9
$LIMMAX
 10
297.0
 20
210.0
  9
$ORTHOMODE
 70
     1
  9
$REGENMODE
 70
     1
  9
$FILLMODE
 70
     1
  9
$QTEXTMODE
 70
     0
  9
$MIRRTEXT
 70
     0
  9
$DRAGMODE
 70
     2
  9
$LTSCALE
 40
3.0
  9
$OSMODE
 70
    37
  9
$ATTMODE
 70
     1
  9
$TEXTSIZE
 40
2.0
  9
$TRACEWID
 40
1.0
  9
$TEXTSTYLE
  7
STANDARD
  9
$CLAYER
  8
0
  9
$CELTYPE
  6
BYLAYER
  9
$CECOLOR
 62
   256
  9
$CELTSCALE
 40
1.0
  9
$DELOBJ
 70
     1
  9
$DISPSILH
 70
     0
  9
$DIMSCALE
 40
3.0
  9
$DIMASZ
 40
1.8
  9
$DIMEXO
 40
0.625
  9
$DIMDLI
 40
3.75
  9
$DIMRND
 40
0.0
  9
$DIMDLE
 40
0.0
  9
$DIMEXE
 40
0.8
  9
$DIMTP
 40
0.0
  9
$DIMTM
 40
0.0
  9
$DIMTXT
 40
1.8
  9
$DIMCEN
 40
2.5
  9
$DIMTSZ
 40
0.0
  9
$DIMTOL
 70
     0
  9
$DIMLIM
 70
     0
  9
$DIMTIH
 70
     0
  9
$DIMTOH
 70
     0
  9
$DIMSE1
 70
     0
  9
$DIMSE2
 70
     0
  9
$DIMTAD
 70
     1
  9
$DIMZIN
 70
     8
  9
$DIMBLK
  1

  9
$DIMASO
 70
     1
  9
$DIMSHO
 70
     1
  9
$DIMPOST
  1

  9
$DIMAPOST
  1

  9
$DIMALT
 70
     0
  9
$DIMALTD
 70
     4
  9
$DIMALTF
 40
0.0394
  9
$DIMLFAC
 40
1.0
  9
$DIMTOFL
 70
     1
  9
$DIMTVP
 40
0.0
  9
$DIMTIX
 70
     0
  9
$DIMSOXD
 70
     0
  9
$DIMSAH
 70
     0
  9
$DIMBLK1
  1

  9
$DIMBLK2
  1

  9
$DIMSTYLE
  2
STANDARD
  9
$DIMCLRD
 70
     0
  9
$DIMCLRE
 70
     0
  9
$DIMCLRT
 70
     0
  9
$DIMTFAC
 40
1.0
  9
$DIMGAP
 40
0.75
  9
$DIMJUST
 70
     0
  9
$DIMSD1
 70
     0
  9
$DIMSD2
 70
     0
  9
$DIMTOLJ
 70
     1
  9
$DIMTZIN
 70
     0
  9
$DIMALTZ
 70
     0
  9
$DIMALTTZ
 70
     0
  9
$DIMFIT
 70
     3
  9
$DIMUPT
 70
     0
  9
$DIMUNIT
 70
     8
  9
$DIMDEC
 70
     2
  9
$DIMTDEC
 70
     2
  9
$DIMALTU
 70
     8
  9
$DIMALTTD
 70
     4
  9
$DIMTXSTY
  7
STANDARD
  9
$DIMAUNIT
 70
     0
  9
$LUNITS
 70
     2
  9
$LUPREC
 70
     3
  9
$SKETCHINC
 40
1.0
  9
$FILLETRAD
 40
10.0
  9
$AUNITS
 70
     0
  9
$AUPREC
 70
     2
  9
$MENU
  1
.
  9
$ELEVATION
 40
0.0
  9
$PELEVATION
 40
0.0
  9
$THICKNESS
 40
0.0
  9
$LIMCHECK
 70
     0
  9
$BLIPMODE
 70
     0
  9
$CHAMFERA
 40
0.0
  9
$CHAMFERB
 40
0.0
  9
$CHAMFERC
 40
20.0
  9
$CHAMFERD
 40
0.0
  9
$SKPOLY
 70
     0
  9
$TDCREATE
 40
2453753.551250000
  9
$TDUPDATE
 40
2453832.466081261
  9
$TDINDWG
 40
0.1672750116
  9
$TDUSRTIMER
 40
0.1672750116
  9
$USRTIMER
 70
     1
  9
$ANGBASE
 50
0.0
  9
$ANGDIR
 70
     0
  9
$PDMODE
 70
     0
  9
$PDSIZE
 40
-10.0
  9
$PLINEWID
 40
0.0
  9
$COORDS
 70
     0
  9
$SPLFRAME
 70
     0
  9
$SPLINETYPE
 70
     6
  9
$SPLINESEGS
 70
     8
  9
$ATTDIA
 70
     0
  9
$ATTREQ
 70
     1
  9
$HANDLING
 70
-16383
  9
$HANDSEED
  5
2156
  9
$SURFTAB1
 70
     6
  9
$SURFTAB2
 70
     6
  9
$SURFTYPE
 70
     6
  9
$SURFU
 70
     6
  9
$SURFV
 70
     6
  9
$UCSNAME
  2

  9
$UCSORG
 10
0.0
 20
0.0
 30
0.0
  9
$UCSXDIR
 10
1.0
 20
0.0
 30
0.0
  9
$UCSYDIR
 10
0.0
 20
1.0
 30
0.0
  9
$PUCSNAME
  2

  9
$PUCSORG
 10
0.0
 20
0.0
 30
0.0
  9
$PUCSXDIR
 10
1.0
 20
0.0
 30
0.0
  9
$PUCSYDIR
 10
0.0
 20
1.0
 30
0.0
  9
$USERI1
 70
     0
  9
$USERI2
 70
     0
  9
$USERI3
 70
     0
  9
$USERI4
 70
     0
  9
$USERI5
 70
     0
  9
$USERR1
 40
0.0
  9
$USERR2
 40
0.0
  9
$USERR3
 40
0.0
  9
$USERR4
 40
0.0
  9
$USERR5
 40
0.0
  9
$WORLDVIEW
 70
     1
  9
$SHADEDGE
 70
     3
  9
$SHADEDIF
 70
    70
  9
$TILEMODE
 70
     1
  9
$MAXACTVP
 70
    48
  9
$PINSBASE
 10
0.0
 20
0.0
 30
0.0
  9
$PLIMCHECK
 70
     0
  9
$PEXTMIN
 10
0.0
 20
0.0
 30
0.0
  9
$PEXTMAX
 10
0.0
 20
0.0
 30
0.0
  9
$PLIMMIN
 10
0.0
 20
0.0
  9
$PLIMMAX
 10
12.0
 20
9.0
  9
$UNITMODE
 70
     0
  9
$VISRETAIN
 70
     1
  9
$PLINEGEN
 70
     0
  9
$PSLTSCALE
 70
     1
  9
$TREEDEPTH
 70
  3020
  9
$PICKSTYLE
 70
     1
  9
$CMLSTYLE
  2
STANDARD
  9
$CMLJUST
 70
     0
  9
$CMLSCALE
 40
1.0
  9
$PROXYGRAPHICS
 70
     1
  9
$MEASUREMENT
 70
     0
  0
ENDSEC
  0
SECTION
  2
CLASSES
  0
CLASS
  1
DICTIONARYVAR
  2
AcDbDictionaryVar
  3
AutoCAD 2000
 90
        0
280
     0
281
     0
  0
CLASS
  1
ACDBDICTIONARYWDFLT
  2
AcDbDictionaryWithDefault
  3
AutoCAD 2000
 90
        0
280
     0
281
     0
  0
CLASS
  1
ACDBPLACEHOLDER
  2
AcDbPlaceHolder
  3
AutoCAD 2000
 90
        0
280
     0
281
     0
  0
CLASS
  1
LAYOUT
  2
AcDbLayout
  3
AutoCAD 2000
 90
        0
280
     0
281
     0
  0
CLASS
  1
LONG_TRANSACTION
  2
AcDbLongTransaction
  3
AutoCAD 2000
 90
        0
280
     0
281
     0
  0
CLASS
  1
LWPOLYLINE
  2
AcDbPolyline
  3
AutoCAD 2000
 90
        0
280
     0
281
     1
  0
CLASS
  1
HATCH
  2
AcDbHatch
  3
AutoCAD 2000
 90
        0
280
     0
281
     1
  0
CLASS
  1
XRECORD
  2
AcDbXrecord
  3
AutoCAD 2000
 90
        0
280
     0
281
     0
  0
ENDSEC
  0
SECTION
  2
TABLES
  0
TABLE
  2
VPORT
  5
6E
330
0
100
AcDbSymbolTable
 70
     2
  0
VPORT
  5
2130
330
6E
100
AcDbSymbolTableRecord
100
AcDbViewportTableRecord
  2
*ACTIVE
 70
     0
 10
0.0
 20
0.0
 11
1.0
 21
1.0
 12
619.7339518747281
 22
309.0321226394627
 13
0.0
 23
0.0
 14
10.0
 24
10.0
 15
10.0
 25
10.0
 16
0.0
 26
0.0
 36
1.0
 17
0.0
 27
0.0
 37
0.0
 40
750.1454345053433
 41
1.566970091027307
 42
50.0
 43
0.0
 44
0.0
 50
0.0
 51
0.0
 71
     0
 72
   100
 73
     1
 74
     3
 75
     0
 76
     0
 77
     0
 78
     0
  0
ENDTAB
  0
TABLE
  2
LTYPE
  5
69
330
0
100
AcDbSymbolTable
 70
     3
  0
LTYPE
  5
6A
330
69
100
AcDbSymbolTableRecord
100
AcDbLinetypeTableRecord
  2
BYBLOCK
 70
     0
  3

 72
    65
 73
     0
 40
0.0
  0
LTYPE
  5
6B
330
69
100
AcDbSymbolTableRecord
100
AcDbLinetypeTableRecord
  2
BYLAYER
 70
     0
  3

 72
    65
 73
     0
 40
0.0
  0
LTYPE
  5
8
330
69
100
AcDbSymbolTableRecord
100
AcDbLinetypeTableRecord
  2
CONTINUOUS
 70
     0
  3
Solid line
 72
    65
 73
     0
 40
0.0
  0
LTYPE
  5
27C
330
69
100
AcDbSymbolTableRecord
100
AcDbLinetypeTableRecord
  2
SEKKEI_A2_
 70
     0
  3
center(A2)  ____ _ ____ _ ____ _ ____ _ ____ _ 
 72
    65
 73
     4
 40
14.28749999999999
 49
9.525
 74
     0
 49
-1.587499999999999
 74
     0
 49
1.587499999999999
 74
     0
 49
-1.587499999999999
 74
     0
  0
LTYPE
  5
2B4
330
69
100
AcDbSymbolTableRecord
100
AcDbLinetypeTableRecord
  2
HIDDEN2
 70
     0
  3
Hidden (.5x) _ _ _ _ _ _ _ _ _ _ _ _ _ _ _ _ _
 72
    65
 73
     2
 40
4.762499999999999
 49
3.174999999999999
 74
     0
 49
-1.587499999999999
 74
     0
  0
ENDTAB
  0
TABLE
  2
LAYER
  5
66
330
0
100
AcDbSymbolTable
 70
     9
  0
LAYER
  5
5E
330
66
100
AcDbSymbolTableRecord
100
AcDbLayerTableRecord
  2
0
 70
     0
 62
     7
  6
CONTINUOUS
  0
LAYER
  5
3E
330
66
100
AcDbSymbolTableRecord
100
AcDbLayerTableRecord
  2
CENTER
 70
     0
 62
     3
  6
SEKKEI_A2_
  0
LAYER
  5
2B5
330
66
100
AcDbSymbolTableRecord
100
AcDbLayerTableRecord
  2
HIDS
 70
     0
 62
     1
  6
HIDDEN2
  0
LAYER
  5
2BA
330
66
100
AcDbSymbolTableRecord
100
AcDbLayerTableRecord
  2
HOJO
 70
     0
 62
     4
  6
CONTINUOUS
  0
LAYER
  5
3FA
330
66
100
AcDbSymbolTableRecord
100
AcDbLayerTableRecord
  2
TITLE
 70
     0
 62
     4
  6
CONTINUOUS
  0
ENDTAB
  0
TABLE
  2
STYLE
  5
67
330
0
100
AcDbSymbolTable
 70
     1
  0
STYLE
  5
16
330
67
100
AcDbSymbolTableRecord
100
AcDbTextStyleTableRecord
  2
STANDARD
 70
     0
 40
0.0
 41
1.0
 50
0.0
 71
     0
 42
2.0
  3
simplex.shx
  4
extfont.shx
  0
ENDTAB
  0
TABLE
  2
VIEW
  5
6C
330
0
100
AcDbSymbolTable
 70
     0
  0
ENDTAB
  0
TABLE
  2
UCS
  5
6D
330
0
100
AcDbSymbolTable
 70
     0
  0
ENDTAB
  0
TABLE
  2
APPID
  5
70
330
0
100
AcDbSymbolTable
 70
     1
  0
APPID
  5
71
330
70
100
AcDbSymbolTableRecord
100
AcDbRegAppTableRecord
  2
ACAD
 70
     0
  0
ENDTAB
  0
TABLE
  2
DIMSTYLE
  5
72
330
0
100
AcDbSymbolTable
 70
     2
  0
DIMSTYLE
105
73
330
72
100
AcDbSymbolTableRecord
100
AcDbDimStyleTableRecord
  2
STANDARD
 70
     0
  3

  4

  5

  6

  7

 40
3.0
 41
1.8
 42
0.625
 43
3.75
 44
0.8
 45
0.0
 46
0.0
 47
0.0
 48
0.0
140
1.8
141
2.5
142
0.0
143
0.0394
144
1.0
145
0.0
146
1.0
147
0.75
 71
     0
 72
     0
 73
     0
 74
     0
 75
     0
 76
     0
 77
     1
 78
     8
170
     0
171
     4
172
     1
173
     0
174
     0
175
     0
176
     0
177
     0
178
     0
270
     8
271
     2
272
     2
273
     8
274
     4
340
16
275
     0
280
     0
281
     0
282
     0
283
     1
284
     0
285
     0
286
     0
287
     3
288
     0
  0
ENDTAB
  0
TABLE
  2
BLOCK_RECORD
  5
1
330
0
100
AcDbSymbolTable
 70
    86
  0
BLOCK_RECORD
  5
2
102
{ACAD_XDICTIONARY
360
2152
102
}
330
1
100
AcDbSymbolTableRecord
100
AcDbBlockTableRecord
  2
*MODEL_SPACE
  0
BLOCK_RECORD
  5
212B
102
{ACAD_XDICTIONARY
360
2154
102
}
330
1
100
AcDbSymbolTableRecord
100
AcDbBlockTableRecord
  2
*PAPER_SPACE
  0
ENDTAB
  0
ENDSEC
  0
SECTION
  2
BLOCKS
  0
BLOCK
  5
5D
330
2
100
AcDbEntity
  8
0
100
AcDbBlockBegin
  2
*MODEL_SPACE
 70
     0
 10
0.0
 20
0.0
 30
0.0
  3
*MODEL_SPACE
  1

  0
ENDBLK
  5
5F
330
2
100
AcDbEntity
  8
0
100
AcDbBlockEnd
  0
BLOCK
  5
212D
330
212B
100
AcDbEntity
 67
     1
  8
0
100
AcDbBlockBegin
  2
*PAPER_SPACE
 70
     0
 10
0.0
 20
0.0
 30
0.0
  3
*PAPER_SPACE
  1

  0
ENDBLK
  5
212E
330
212B
100
AcDbEntity
 67
     1
  8
0
100
AcDbBlockEnd
  0
ENDSEC
  0
SECTION
  2
ENTITIES
  0
ARC
  5
68C
330
2
100
AcDbEntity
  8
0
100
AcDbCircle
 10
875.9567578120559
 20
207.9085631112789
 30
0.0
 40
16.0
100
AcDbArc
 50
198.2099
 51
161.7900999999999
  0
LINE
  5
68D
330
2
100
AcDbEntity
  8
0
100
AcDbLine
 10
856.9567578120558
 20
202.9085631112788
 30
0.0
 11
864.9567578120558
 21
202.9085631112788
 31
0.0
  0
LINE
  5
68E
330
2
100
AcDbEntity
  8
0
100
AcDbLine
 10
856.9567578120558
 20
212.9085631112789
 30
0.0
 11
864.9567578120558
 21
212.9085631112789
 31
0.0
  0
ARC
  5
68F
330
2
100
AcDbEntity
  8
0
100
AcDbCircle
 10
875.9567578120559
 20
180.9085631112789
 30
0.0
 40
88.0
100
AcDbArc
 50
48.21794900000014
 51
131.8105010000001
  0
ARC
  5
690
330
2
100
AcDbEntity
  8
0
100
AcDbCircle
 10
875.9567578120559
 20
180.9085631112789
 30
0.0
 40
88.0
100
AcDbArc
 50
228.1898039999999
 51
311.8107909999999
  0
LINE
  5
691
330
2
100
AcDbEntity
  8
0
100
AcDbLine
 10
862.1149608120559
 20
133.5784781112789
 30
0.0
 11
859.6421518120557
 21
133.5784781112789
 31
0.0
  0
LINE
  5
692
330
2
100
AcDbEntity
  8
0
100
AcDbLine
 10
858.6813668120559
 20
146.1585561112789
 30
0.0
 11
865.069366812056
 21
146.1585561112789
 31
0.0
  0
LINE
  5
693
330
2
100
AcDbEntity
  8
0
100
AcDbLine
 10
864.2027598120558
 20
144.2659781112789
 30
0.0
 11
859.6249698120558
 21
144.2659781112789
 31
0.0
  0
LINE
  5
694
330
2
100
AcDbEntity
  8
0
100
AcDbLine
 10
863.7297678120559
 20
131.9085561112789
 30
0.0
 11
858.7893688120558
 21
131.9085561112789
 31
0.0
  0
LINE
  5
695
330
2
100
AcDbEntity
  8
0
100
AcDbLine
 10
852.1993718120558
 20
90.90855611127892
 30
0.0
 11
899.7141428120558
 21
90.90855611127892
 31
0.0
  0
LINE
  5
696
330
2
100
AcDbEntity
  8
0
100
AcDbLine
 10
850.4567578120559
 20
119.9085561112789
 30
0.0
 11
901.4567578120558
 21
119.9085561112789
 31
0.0
  0
LINE
  5
697
330
2
100
AcDbEntity
  8
0
100
AcDbLine
 10
901.4567578120558
 20
117.0085541112789
 30
0.0
 11
850.4567578120559
 21
117.0085541112789
 31
0.0
  0
ARC
  5
698
330
2
100
AcDbEntity
  8
0
100
AcDbCircle
 10
875.9567578120559
 20
207.9085631112789
 30
0.0
 40
41.09999799999999
100
AcDbArc
 50
167.4768070000002
 51
12.52309999999996
  0
ARC
  5
699
330
2
100
AcDbEntity
  8
0
100
AcDbCircle
 10
875.9567578120559
 20
207.9085631112789
 30
0.0
 40
44.0
100
AcDbArc
 50
12.52309999999996
 51
167.4768070000002
  0
CIRCLE
  5
69A
330
2
100
AcDbEntity
  8
0
100
AcDbCircle
 10
875.9567578120559
 20
207.9085631112789
 30
0.0
 40
39.0
  0
LINE
  5
69B
330
2
100
AcDbEntity
  8
0
100
AcDbLine
 10
902.4601448120559
 20
272.9085631112789
 30
0.0
 11
849.4533698120559
 21
272.9085631112789
 31
0.0
  0
LINE
  5
69C
330
2
100
AcDbEntity
  8
0
100
AcDbLine
 10
951.9567578120559
 20
85.90855611127892
 30
0.0
 11
799.9567578120559
 21
85.90855611127892
 31
0.0
  0
LINE
  5
69D
330
2
100
AcDbEntity
  8
0
100
AcDbLine
 10
951.9567578120559
 20
67.90855611127892
 30
0.0
 11
799.9567578120559
 21
67.90855611127892
 31
0.0
  0
LINE
  5
69E
330
2
100
AcDbEntity
  8
CENTER
100
AcDbLine
 10
931.0291154114398
 20
207.9085631112789
 30
0.0
 11
820.8843839333527
 21
207.9085631112789
 31
0.0
  0
LINE
  5
69F
330
2
100
AcDbEntity
  8
CENTER
100
AcDbLine
 10
56.71560941839152
 20
465.966486111279
 30
0.0
 11
471.2158229183917
 21
465.9664861112788
 31
0.0
  0
LINE
  5
6A0
330
2
100
AcDbEntity
  8
0
100
AcDbLine
 10
326.7655669183916
 20
390.9664861112789
 30
0.0
 11
443.6656519183919
 21
390.9664861112788
 31
0.0
  0
LINE
  5
6A1
330
2
100
AcDbEntity
  8
0
100
AcDbLine
 10
367.7156089183918
 20
530.9664861112789
 30
0.0
 11
402.7156089183917
 21
530.9664861112789
 31
0.0
  0
LINE
  5
6A2
330
2
100
AcDbEntity
  8
0
100
AcDbLine
 10
404.2156089183918
 20
585.9664861112789
 30
0.0
 11
369.2156089183918
 21
585.9664861112789
 31
0.0
  0
LINE
  5
6A3
330
2
100
AcDbEntity
  8
0
100
AcDbLine
 10
349.9567899183919
 20
403.966486111279
 30
0.0
 11
420.4744289183918
 21
403.9664861112788
 31
0.0
  0
LINE
  5
6A4
330
2
100
AcDbEntity
  8
0
100
AcDbLine
 10
349.9567899183919
 20
527.966486111279
 30
0.0
 11
420.4744289183918
 21
527.966486111279
 31
0.0
  0
LINE
  5
6A5
330
2
100
AcDbEntity
  8
0
100
AcDbLine
 10
457.4822409183918
 20
420.9664861112789
 30
0.0
 11
312.5522489183915
 21
420.966486111279
 31
0.0
  0
LINE
  5
6A6
330
2
100
AcDbEntity
  8
0
100
AcDbLine
 10
312.5522489183917
 20
510.9664861112789
 30
0.0
 11
457.4822409183918
 21
510.9664861112789
 31
0.0
  0
LINE
  5
6A7
330
2
100
AcDbEntity
  8
CENTER
100
AcDbLine
 10
595.8034981110637
 20
57.90855611127892
 30
0.0
 11
595.8034981110637
 21
282.9085631112789
 31
0.0
  0
ARC
  5
6A8
330
2
100
AcDbEntity
  8
0
100
AcDbCircle
 10
644.8035061110637
 20
89.90855611127892
 30
0.0
 40
4.0
100
AcDbArc
 50
180.0
 51
270.0
  0
ARC
  5
6A9
330
2
100
AcDbEntity
  8
0
100
AcDbCircle
 10
645.8035061110637
 20
255.6497741112789
 30
0.0
 40
5.0
100
AcDbArc
 50
180.0
 51
253.6107940000003
  0
ARC
  5
6AA
330
2
100
AcDbEntity
  8
0
100
AcDbCircle
 10
645.8035061110637
 20
113.2525731112789
 30
0.0
 40
5.0
100
AcDbArc
 50
106.172501
 51
180.0
  0
LINE
  5
6AB
330
2
100
AcDbEntity
  8
0
100
AcDbLine
 10
668.7145011110636
 20
86.25673511127894
 30
0.0
 11
643.3102961110637
 21
90.49077811127892
 31
0.0
  0
LINE
  5
6AC
330
2
100
AcDbEntity
  8
0
100
AcDbLine
 10
625.8034981110637
 20
67.90855611127892
 30
0.0
 11
670.8035061110637
 21
67.90855611127892
 31
0.0
  0
LINE
  5
6AD
330
2
100
AcDbEntity
  8
CENTER
100
AcDbLine
 10
523.8035021110637
 20
207.9085631112789
 30
0.0
 11
725.8035061110636
 21
207.9085631112789
 31
0.0
  0
LINE
  5
6AE
330
2
100
AcDbEntity
  8
CENTER
100
AcDbLine
 10
521.8034981110637
 20
162.9085561112789
 30
0.0
 11
669.8034981110637
 21
162.9085561112789
 31
0.0
  0
LINE
  5
6B0
330
2
100
AcDbEntity
  8
0
100
AcDbLine
 10
550.8035021110637
 20
269.1748291112789
 30
0.0
 11
550.8035021110637
 21
67.90855611127892
 31
0.0
  0
LINE
  5
6B1
330
2
100
AcDbEntity
  8
0
100
AcDbLine
 10
540.8035021110637
 20
123.6645521112789
 30
0.0
 11
540.8035021110637
 21
211.8189481112789
 31
0.0
  0
LINE
  5
6B2
330
2
100
AcDbEntity
  8
0
100
AcDbLine
 10
640.8035061110637
 20
269.1753171112789
 30
0.0
 11
640.8035061110637
 21
67.90855611127892
 31
0.0
  0
LINE
  5
6B4
330
2
100
AcDbEntity
  8
0
100
AcDbLine
 10
522.8925011110637
 20
86.25671511127894
 30
0.0
 11
548.2967001110637
 21
90.49075511127893
 31
0.0
  0
LINE
  5
6B5
330
2
100
AcDbEntity
  8
0
100
AcDbLine
 10
523.3035011110636
 20
85.90855611127892
 30
0.0
 11
546.8035021110637
 21
85.90855611127892
 31
0.0
  0
LINE
  5
6B6
330
2
100
AcDbEntity
  8
0
100
AcDbLine
 10
520.8035011110637
 20
67.90855611127892
 30
0.0
 11
565.8035021110637
 21
67.90855611127892
 31
0.0
  0
ARC
  5
6B7
330
2
100
AcDbEntity
  8
0
100
AcDbCircle
 10
523.3035011110636
 20
83.79075811127894
 30
0.0
 40
2.5
100
AcDbArc
 50
99.46275299999982
 51
180.0
  0
ARC
  5
6B8
330
2
100
AcDbEntity
  8
0
100
AcDbCircle
 10
523.3035011110636
 20
83.40857511127893
 30
0.0
 40
2.5
100
AcDbArc
 50
90.0
 51
180.0
  0
LINE
  5
6B9
330
2
100
AcDbEntity
  8
HIDS
100
AcDbLine
 10
529.3035021110637
 20
85.90855611127892
 30
0.0
 11
529.3035021110637
 21
67.90855611127892
 31
0.0
  0
LINE
  5
6BA
330
2
100
AcDbEntity
  8
0
100
AcDbLine
 10
520.8035011110637
 20
83.79073511127893
 30
0.0
 11
520.8035011110637
 21
67.90855611127892
 31
0.0
  0
LINE
  5
6BB
330
2
100
AcDbEntity
  8
CENTER
100
AcDbLine
 10
535.8035021110636
 20
90.90855611127892
 30
0.0
 11
535.8035021110636
 21
62.90855611127892
 31
0.0
  0
LINE
  5
6BC
330
2
100
AcDbEntity
  8
0
100
AcDbLine
 10
567.3035021110637
 20
69.40855611127893
 30
0.0
 11
624.3034981110637
 21
69.40855611127893
 31
0.0
  0
LINE
  5
6BD
330
2
100
AcDbEntity
  8
HIDS
100
AcDbLine
 10
542.3035021110637
 20
85.90855611127892
 30
0.0
 11
542.3035021110637
 21
67.90855611127892
 31
0.0
  0
ARC
  5
6BE
330
2
100
AcDbEntity
  8
0
100
AcDbCircle
 10
546.8035021110637
 20
89.90851811127891
 30
0.0
 40
4.0
100
AcDbArc
 50
270.0
 51
0.0
  0
ARC
  5
6BF
330
2
100
AcDbEntity
  8
0
100
AcDbCircle
 10
547.8035021110637
 20
93.44993811127892
 30
0.0
 40
3.0
100
AcDbArc
 50
279.4625170000001
 51
0.0
  0
LINE
  5
6C0
330
2
100
AcDbEntity
  8
0
100
AcDbLine
 10
565.8035021110637
 20
67.90855611127892
 30
0.0
 11
567.3035021110637
 21
69.40855611127893
 31
0.0
  0
LINE
  5
6C1
330
2
100
AcDbEntity
  8
0
100
AcDbLine
 10
544.4109011110636
 20
118.8624131112788
 30
0.0
 11
547.1960991110637
 21
118.0546971112789
 31
0.0
  0
ARC
  5
6C2
330
2
100
AcDbEntity
  8
0
100
AcDbCircle
 10
545.8035021110637
 20
123.6645981112789
 30
0.0
 40
5.0
100
AcDbArc
 50
180.0
 51
253.8282009999997
  0
ARC
  5
6C3
330
2
100
AcDbEntity
  8
0
100
AcDbCircle
 10
545.8035021110637
 20
113.2525351112789
 30
0.0
 40
5.0
100
AcDbArc
 50
0.0
 51
73.82791899999978
  0
ARC
  5
6C4
330
2
100
AcDbEntity
  8
0
100
AcDbCircle
 10
548.8035021110637
 20
113.8872161112789
 30
0.0
 40
2.0
100
AcDbArc
 50
30.94791
 51
53.21712100000005
  0
ARC
  5
6C5
330
2
100
AcDbEntity
  8
0
100
AcDbCircle
 10
554.7913031110637
 20
121.8963331112789
 30
0.0
 40
8.0
100
AcDbArc
 50
211.0014039999998
 51
233.2169950000002
  0
LINE
  5
6C6
330
2
100
AcDbEntity
  8
0
100
AcDbLine
 10
625.8034981110637
 20
67.90855611127892
 30
0.0
 11
624.3034981110637
 21
69.40855611127893
 31
0.0
  0
ARC
  5
6C7
330
2
100
AcDbEntity
  8
0
100
AcDbCircle
 10
643.8035061110637
 20
93.44997611127894
 30
0.0
 40
3.0
100
AcDbArc
 50
180.0
 51
260.5379030000001
  0
ARC
  5
6C8
330
2
100
AcDbEntity
  8
0
100
AcDbCircle
 10
642.8035061110636
 20
113.8872161112789
 30
0.0
 40
2.0
100
AcDbArc
 50
126.7828829999998
 51
149.0520939999995
  0
ARC
  5
6C9
330
2
100
AcDbEntity
  8
0
100
AcDbCircle
 10
636.8156981110637
 20
121.8963331112789
 30
0.0
 40
8.0
100
AcDbArc
 50
306.7830009999998
 51
328.9986000000002
  0
LINE
  5
6CA
330
2
100
AcDbEntity
  8
0
100
AcDbLine
 10
533.8035021110637
 20
172.6497511112789
 30
0.0
 11
533.8035021110637
 21
243.1673831112789
 31
0.0
  0
ARC
  5
6CB
330
2
100
AcDbEntity
  8
0
100
AcDbCircle
 10
536.8035021110637
 20
163.8567751112789
 30
0.0
 40
4.0
100
AcDbArc
 50
0.0
 51
73.61064899999971
  0
ARC
  5
6CC
330
2
100
AcDbEntity
  8
0
100
AcDbCircle
 10
538.8035021110637
 20
172.6497821112789
 30
0.0
 40
5.0
100
AcDbArc
 50
180.0
 51
253.6107940000003
  0
LINE
  5
6CD
330
2
100
AcDbEntity
  8
0
100
AcDbLine
 10
537.3927011110636
 20
167.8529221112789
 30
0.0
 11
537.9321011110637
 21
167.6942541112789
 31
0.0
  0
LINE
  5
6CE
330
2
100
AcDbEntity
  8
0
100
AcDbLine
 10
553.3779001110636
 20
240.4085631112788
 30
0.0
 11
638.0561001110636
 21
240.4085631112788
 31
0.0
  0
LINE
  5
6CF
330
2
100
AcDbEntity
  8
0
100
AcDbLine
 10
553.7510991110637
 20
272.1743711112789
 30
0.0
 11
595.8034981110637
 21
272.9085631112789
 31
0.0
  0
ARC
  5
6D1
330
2
100
AcDbEntity
  8
0
100
AcDbCircle
 10
538.8035021110637
 20
243.1673981112788
 30
0.0
 40
5.0
100
AcDbArc
 50
106.3898999999998
 51
180.0
  0
LINE
  5
6D2
330
2
100
AcDbEntity
  8
0
100
AcDbLine
 10
547.2143031110637
 20
250.8529151112789
 30
0.0
 11
537.3927011110636
 21
247.9641821112789
 31
0.0
  0
ARC
  5
6D3
330
2
100
AcDbEntity
  8
0
100
AcDbCircle
 10
545.8035021110637
 20
255.6497281112789
 30
0.0
 40
5.0
100
AcDbArc
 50
286.3897710000003
 51
0.0
  0
ARC
  5
6D4
330
2
100
AcDbEntity
  8
0
100
AcDbCircle
 10
553.8035021110637
 20
269.1748291112789
 30
0.0
 40
3.0
100
AcDbArc
 50
91.00060300000007
 51
180.0
  0
LINE
  5
6D5
330
2
100
AcDbEntity
  8
0
100
AcDbLine
 10
637.8559041110637
 20
272.1748601112789
 30
0.0
 11
595.8034981110637
 21
272.9085631112789
 31
0.0
  0
ARC
  5
6D6
330
2
100
AcDbEntity
  8
0
100
AcDbCircle
 10
637.8035061110637
 20
269.1753021112789
 30
0.0
 40
3.0
100
AcDbArc
 50
0.0
 51
89.00057999999992
  0
ARC
  5
6D7
330
2
100
AcDbEntity
  8
0
100
AcDbCircle
 10
843.9567578120559
 20
145.1314711112789
 30
0.0
 40
40.0
100
AcDbArc
 50
180.0
 51
228.1900939999998
  0
LINE
  5
6D8
330
2
100
AcDbEntity
  8
0
100
AcDbLine
 10
858.6813668120559
 20
146.1585561112789
 30
0.0
 11
856.9567578120558
 21
143.9500901112789
 31
0.0
  0
ARC
  5
6D9
330
2
100
AcDbEntity
  8
0
100
AcDbCircle
 10
850.4567578120559
 20
148.9085561112789
 30
0.0
 40
31.89999999999999
100
AcDbArc
 50
167.4768070000002
 51
270.0
  0
ARC
  5
6DA
330
2
100
AcDbEntity
  8
0
100
AcDbCircle
 10
850.4567578120559
 20
148.9085561112789
 30
0.0
 40
29.0
100
AcDbArc
 50
167.4768070000002
 51
270.0
  0
LINE
  5
6DB
330
2
100
AcDbEntity
  8
0
100
AcDbLine
 10
799.9567578120559
 20
236.2141211112789
 30
0.0
 11
799.9567578120559
 21
67.90855611127892
 31
0.0
  0
LINE
  5
6DD
330
2
100
AcDbEntity
  8
0
100
AcDbLine
 10
650.8035061110637
 20
123.6645751112789
 30
0.0
 11
650.8035061110637
 21
211.8189481112789
 31
0.0
  0
LINE
  5
6DE
330
2
100
AcDbEntity
  8
CENTER
100
AcDbLine
 10
655.8035061110636
 20
90.90855611127892
 30
0.0
 11
655.8035061110636
 21
62.90855611127892
 31
0.0
  0
ARC
  5
6DF
330
2
100
AcDbEntity
  8
0
100
AcDbCircle
 10
668.3035061110636
 20
83.79073511127893
 30
0.0
 40
2.5
100
AcDbArc
 50
0.0
 51
80.53768199999993
  0
ARC
  5
6E0
330
2
100
AcDbEntity
  8
0
100
AcDbCircle
 10
668.3035061110636
 20
83.40855611127892
 30
0.0
 40
2.5
100
AcDbArc
 50
0.0
 51
90.0
  0
LINE
  5
6E1
330
2
100
AcDbEntity
  8
HIDS
100
AcDbLine
 10
649.3035061110637
 20
85.90855611127892
 30
0.0
 11
649.3035061110637
 21
67.90855611127892
 31
0.0
  0
LINE
  5
6E2
330
2
100
AcDbEntity
  8
HIDS
100
AcDbLine
 10
662.3035061110637
 20
85.90855611127892
 30
0.0
 11
662.3035061110637
 21
67.90855611127892
 31
0.0
  0
LINE
  5
6E3
330
2
100
AcDbEntity
  8
0
100
AcDbLine
 10
670.8035061110637
 20
83.79073511127893
 30
0.0
 11
670.8035061110637
 21
67.90855611127892
 31
0.0
  0
LINE
  5
6E4
330
2
100
AcDbEntity
  8
0
100
AcDbLine
 10
668.3035061110636
 20
85.90855611127892
 30
0.0
 11
644.8035061110637
 21
85.90855611127892
 31
0.0
  0
ARC
  5
6E5
330
2
100
AcDbEntity
  8
0
100
AcDbCircle
 10
645.8035061110637
 20
123.6645521112789
 30
0.0
 40
5.0
100
AcDbArc
 50
286.1723019999999
 51
0.0
  0
LINE
  5
6E6
330
2
100
AcDbEntity
  8
0
100
AcDbLine
 10
647.1960991110637
 20
118.8624131112788
 30
0.0
 11
644.4108971110637
 21
118.0546971112789
 31
0.0
  0
LINE
  5
6E7
330
2
100
AcDbEntity
  8
CENTER
100
AcDbLine
 10
828.4567578120556
 20
90.90855611127892
 30
0.0
 11
828.4567578120558
 21
62.90855611127892
 31
0.0
  0
LINE
  5
6E8
330
2
100
AcDbEntity
  8
HIDS
100
AcDbLine
 10
821.9567578120559
 20
85.90855611127892
 30
0.0
 11
821.9567578120559
 21
67.90855611127892
 31
0.0
  0
LINE
  5
6E9
330
2
100
AcDbEntity
  8
0
100
AcDbLine
 10
813.9567578120558
 20
83.84199711127894
 30
0.0
 11
813.9567578120558
 21
67.90855611127892
 31
0.0
  0
LINE
  5
6EA
330
2
100
AcDbEntity
  8
HIDS
100
AcDbLine
 10
834.9567578120559
 20
85.90855611127892
 30
0.0
 11
834.9567578120559
 21
67.90855611127892
 31
0.0
  0
ARC
  5
6EB
330
2
100
AcDbEntity
  8
0
100
AcDbCircle
 10
843.8857428120559
 20
90.90855611127892
 30
0.0
 40
5.0
100
AcDbArc
 50
270.0
 51
315.0
  0
ARC
  5
6EC
330
2
100
AcDbEntity
  8
0
100
AcDbCircle
 10
849.9567578120558
 20
86.90855611127892
 30
0.0
 40
1.0
100
AcDbArc
 50
270.0
 51
0.0
  0
ARC
  5
6ED
330
2
100
AcDbEntity
  8
0
100
AcDbCircle
 10
852.1993718120558
 20
87.90855611127893
 30
0.0
 40
3.0
100
AcDbArc
 50
90.0
 51
134.9998019999995
  0
LINE
  5
6EE
330
2
100
AcDbEntity
  8
0
100
AcDbLine
 10
850.9567578120559
 20
89.97267711127893
 30
0.0
 11
850.9567578120559
 21
86.90855611127892
 31
0.0
  0
LINE
  5
6EF
330
2
100
AcDbEntity
  8
0
100
AcDbLine
 10
850.0781568120558
 20
90.02987511127889
 30
0.0
 11
847.4211438120558
 21
87.37301411127893
 31
0.0
  0
LINE
  5
6F0
330
2
100
AcDbEntity
  8
0
100
AcDbLine
 10
858.5523688120558
 20
142.9359761112789
 30
0.0
 11
858.5523688120558
 21
134.7263961112789
 31
0.0
  0
LINE
  5
6F1
330
2
100
AcDbEntity
  8
0
100
AcDbLine
 10
856.9567578120558
 20
143.9500901112789
 30
0.0
 11
856.9567578120558
 21
133.7576771112789
 31
0.0
  0
LINE
  5
6F2
330
2
100
AcDbEntity
  8
0
100
AcDbLine
 10
856.9567578120558
 20
133.7576771112789
 30
0.0
 11
858.7893688120558
 21
131.9085561112789
 31
0.0
  0
LINE
  5
6F3
330
2
100
AcDbEntity
  8
0
100
AcDbLine
 10
858.5523688120558
 20
134.7263961112789
 30
0.0
 11
859.6421518120557
 21
133.5784781112789
 31
0.0
  0
LINE
  5
6F4
330
2
100
AcDbEntity
  8
0
100
AcDbLine
 10
859.6249698120558
 20
144.2659781112789
 30
0.0
 11
858.5523688120558
 21
142.9359761112789
 31
0.0
  0
LINE
  5
6F5
330
2
100
AcDbEntity
  8
0
100
AcDbLine
 10
660.8035061110637
 20
225.4085631112789
 30
0.0
 11
660.8035061110637
 21
190.4085631112789
 31
0.0
  0
LINE
  5
6F6
330
2
100
AcDbEntity
  8
0
100
AcDbLine
 10
657.8035061110637
 20
172.6497511112789
 30
0.0
 11
657.8035061110637
 21
243.1673831112789
 31
0.0
  0
LINE
  5
6F7
330
2
100
AcDbEntity
  8
0
100
AcDbLine
 10
670.8035061110637
 20
202.9085631112788
 30
0.0
 11
715.8035061110637
 21
202.9085631112788
 31
0.0
  0
LINE
  5
6F8
330
2
100
AcDbEntity
  8
0
100
AcDbLine
 10
670.8035061110637
 20
212.9085631112789
 30
0.0
 11
715.8035061110637
 21
212.9085631112789
 31
0.0
  0
LINE
  5
6F9
330
2
100
AcDbEntity
  8
0
100
AcDbLine
 10
660.8035061110637
 20
191.9085631112789
 30
0.0
 11
715.8035061110637
 21
191.9085631112789
 31
0.0
  0
LINE
  5
6FA
330
2
100
AcDbEntity
  8
0
100
AcDbLine
 10
660.8035061110637
 20
223.9085631112789
 30
0.0
 11
715.8035061110637
 21
223.9085631112789
 31
0.0
  0
ARC
  5
6FB
330
2
100
AcDbEntity
  8
0
100
AcDbCircle
 10
654.8035061110637
 20
163.8568061112789
 30
0.0
 40
4.0
100
AcDbArc
 50
106.3899989999996
 51
180.0
  0
ARC
  5
6FC
330
2
100
AcDbEntity
  8
0
100
AcDbCircle
 10
652.8035061110637
 20
172.6497441112788
 30
0.0
 40
5.0
100
AcDbArc
 50
286.3896790000003
 51
0.0
  0
LINE
  5
6FD
330
2
100
AcDbEntity
  8
0
100
AcDbLine
 10
654.2143031110636
 20
167.8529221112789
 30
0.0
 11
653.6749051110636
 21
167.6942381112789
 31
0.0
  0
ARC
  5
6FE
330
2
100
AcDbEntity
  8
0
100
AcDbCircle
 10
670.8035061110637
 20
207.9085631112789
 30
0.0
 40
5.0
100
AcDbArc
 50
90.0
 51
270.0
  0
LINE
  5
6FF
330
2
100
AcDbEntity
  8
0
100
AcDbLine
 10
657.8035061110637
 20
190.4085631112789
 30
0.0
 11
660.8035061110637
 21
190.4085631112789
 31
0.0
  0
LINE
  5
700
330
2
100
AcDbEntity
  8
0
100
AcDbLine
 10
715.8035061110637
 20
191.9085631112789
 30
0.0
 11
715.8035061110637
 21
223.9085631112789
 31
0.0
  0
ARC
  5
701
330
2
100
AcDbEntity
  8
0
100
AcDbCircle
 10
652.8035061110637
 20
243.1673521112788
 30
0.0
 40
5.0
100
AcDbArc
 50
0.0
 51
73.61052699999977
  0
LINE
  5
702
330
2
100
AcDbEntity
  8
0
100
AcDbLine
 10
657.8035061110637
 20
225.4085631112789
 30
0.0
 11
660.8035061110637
 21
225.4085631112789
 31
0.0
  0
LINE
  5
703
330
2
100
AcDbEntity
  8
0
100
AcDbLine
 10
654.2143031110636
 20
247.9641971112789
 30
0.0
 11
644.3926931110636
 21
250.8529151112789
 31
0.0
  0
ARC
  5
704
330
2
100
AcDbEntity
  8
0
100
AcDbCircle
 10
843.9567578120559
 20
216.6856631112789
 30
0.0
 40
40.0
100
AcDbArc
 50
131.8108060000002
 51
180.0
  0
LINE
  5
705
330
2
100
AcDbEntity
  8
0
100
AcDbLine
 10
803.9567578120559
 20
216.6856631112789
 30
0.0
 11
803.9567578120559
 21
145.1314791112789
 31
0.0
  0
LINE
  5
706
330
2
100
AcDbEntity
  8
0
100
AcDbLine
 10
835.8345648120558
 20
216.8205201112789
 30
0.0
 11
822.1467598120558
 21
155.1967941112789
 31
0.0
  0
LINE
  5
707
330
2
100
AcDbEntity
  8
0
100
AcDbLine
 10
833.0035718120559
 20
217.4493351112789
 30
0.0
 11
819.3157658120558
 21
155.8256171112789
 31
0.0
  0
LINE
  5
708
330
2
100
AcDbEntity
  8
0
100
AcDbLine
 10
856.9567578120558
 20
212.9085631112789
 30
0.0
 11
856.9567578120558
 21
202.9085631112788
 31
0.0
  0
LINE
  5
709
330
2
100
AcDbEntity
  8
0
100
AcDbLine
 10
803.4067698120558
 20
242.7941831112789
 30
0.0
 11
844.9033518120559
 21
271.4886111112789
 31
0.0
  0
ARC
  5
70A
330
2
100
AcDbEntity
  8
0
100
AcDbCircle
 10
807.9567578120558
 20
236.2140751112789
 30
0.0
 40
8.0
100
AcDbArc
 50
124.6633
 51
180.0
  0
ARC
  5
70B
330
2
100
AcDbEntity
  8
0
100
AcDbCircle
 10
849.4533698120559
 20
264.9085631112789
 30
0.0
 40
8.0
100
AcDbArc
 50
90.0
 51
124.6633
  0
TEXT
  5
70C
330
2
100
AcDbEntity
  8
TITLE
100
AcDbText
 10
536.106330339143
 20
491.2563302238108
 30
0.0
 40
7.5
  1
HLMN-32L-1200~1800-T40K
 41
0.8
100
AcDbText
  0
LINE
  5
70D
330
2
100
AcDbEntity
  8
0
100
AcDbLine
 10
414.2156089183917
 20
507.966486111279
 30
0.0
 11
414.2156089183917
 21
423.9664861112788
 31
0.0
  0
LINE
  5
70E
330
2
100
AcDbEntity
  8
0
100
AcDbLine
 10
461.2158229183917
 20
465.966486111279
 30
0.0
 11
460.4303309183917
 21
510.9664861112789
 31
0.0
  0
LINE
  5
70F
330
2
100
AcDbEntity
  8
0
100
AcDbLine
 10
400.4143089183917
 20
535.9664861112789
 30
0.0
 11
400.4143089183917
 21
585.9664861112789
 31
0.0
  0
LINE
  5
710
330
2
100
AcDbEntity
  8
0
100
AcDbLine
 10
404.2156089183918
 20
585.9664861112789
 30
0.0
 11
404.2156089183918
 21
535.9664861112789
 31
0.0
  0
LINE
  5
711
330
2
100
AcDbEntity
  8
0
100
AcDbLine
 10
451.1592129183918
 20
535.7676951112789
 30
0.0
 11
460.4303309183917
 21
510.9664861112789
 31
0.0
  0
ARC
  5
712
330
2
100
AcDbEntity
  8
0
100
AcDbCircle
 10
457.4822409183916
 20
507.9664861112791
 30
0.0
 40
3.0
100
AcDbArc
 50
1.000000000000156
 51
90.0
  0
ARC
  5
713
330
2
100
AcDbEntity
  8
0
100
AcDbCircle
 10
432.7156089183915
 20
525.966486111279
 30
0.0
 40
6.5
100
AcDbArc
 50
308.7593079999999
 51
230.2848630000001
  0
LINE
  5
715
330
2
100
AcDbEntity
  8
0
100
AcDbLine
 10
404.2156089183918
 20
540.966486111279
 30
0.0
 11
443.6656519183919
 21
540.966486111279
 31
0.0
  0
LINE
  5
716
330
2
100
AcDbEntity
  8
0
100
AcDbLine
 10
435.9595969183917
 20
520.966486111279
 30
0.0
 11
426.2744169183918
 21
520.966486111279
 31
0.0
  0
ARC
  5
718
330
2
100
AcDbEntity
  8
0
100
AcDbCircle
 10
443.6656519183916
 20
532.9664861112791
 30
0.0
 40
8.0
100
AcDbArc
 50
20.49661300000034
 51
90.0
  0
ARC
  5
719
330
2
100
AcDbEntity
  8
0
100
AcDbCircle
 10
446.3716149183917
 20
515.9664861112791
 30
0.0
 40
5.0
100
AcDbArc
 50
196.1721589999999
 51
270.0
  0
LINE
  5
71A
330
2
100
AcDbEntity
  8
0
100
AcDbLine
 10
442.6156029183919
 20
510.9664861112789
 30
0.0
 11
442.6188379183918
 21
510.9554081112789
 31
0.0
  0
ARC
  5
71B
330
2
100
AcDbEntity
  8
0
100
AcDbCircle
 10
435.9595969183917
 20
515.9664861112791
 30
0.0
 40
5.0
100
AcDbArc
 50
16.17216500000017
 51
90.0
  0
LINE
  5
71C
330
2
100
AcDbEntity
  8
0
100
AcDbLine
 10
440.7617519183918
 20
517.359095111279
 30
0.0
 11
441.5694609183917
 21
514.573878111279
 31
0.0
  0
LINE
  5
71D
330
2
100
AcDbEntity
  8
0
100
AcDbLine
 10
402.7156089183917
 20
527.966486111279
 30
0.0
 11
402.7156089183917
 21
530.9664861112789
 31
0.0
  0
ARC
  5
71E
330
2
100
AcDbEntity
  8
0
100
AcDbCircle
 10
420.4744289183915
 20
522.9664861112791
 30
0.0
 40
5.0
100
AcDbArc
 50
16.38954200000009
 51
90.0
  0
LINE
  5
71F
330
2
100
AcDbEntity
  8
0
100
AcDbLine
 10
400.4143089183917
 20
535.9664861112789
 30
0.0
 11
404.2156089183918
 21
535.9664861112789
 31
0.0
  0
LINE
  5
720
330
2
100
AcDbEntity
  8
0
100
AcDbLine
 10
401.2156089183918
 20
530.9664861112789
 30
0.0
 11
401.2156089183918
 21
535.9664861112789
 31
0.0
  0
LINE
  5
721
330
2
100
AcDbEntity
  8
0
100
AcDbLine
 10
425.2712429183918
 20
524.3773141112789
 30
0.0
 11
426.2744169183918
 21
520.966486111279
 31
0.0
  0
LINE
  5
722
330
2
100
AcDbEntity
  8
0
100
AcDbLine
 10
451.1592129183918
 20
396.1652781112789
 30
0.0
 11
460.4303309183917
 21
420.9664861112789
 31
0.0
  0
LINE
  5
723
330
2
100
AcDbEntity
  8
0
100
AcDbLine
 10
461.2158229183917
 20
465.966486111279
 30
0.0
 11
460.4303309183917
 21
420.9664861112789
 31
0.0
  0
ARC
  5
724
330
2
100
AcDbEntity
  8
0
100
AcDbCircle
 10
457.4822409183916
 20
423.966486111279
 30
0.0
 40
3.0
100
AcDbArc
 50
270.0
 51
358.9999999999998
  0
ARC
  5
725
330
2
100
AcDbEntity
  8
0
100
AcDbCircle
 10
432.7156089183915
 20
405.9664861112789
 30
0.0
 40
6.5
100
AcDbArc
 50
129.7151369999997
 51
51.24069200000005
  0
LINE
  5
727
330
2
100
AcDbEntity
  8
0
100
AcDbLine
 10
435.9595969183917
 20
410.9664861112788
 30
0.0
 11
426.2744169183918
 21
410.9664861112788
 31
0.0
  0
ARC
  5
729
330
2
100
AcDbEntity
  8
0
100
AcDbCircle
 10
446.3716149183917
 20
415.966486111279
 30
0.0
 40
5.0
100
AcDbArc
 50
90.0
 51
163.827841
  0
LINE
  5
72A
330
2
100
AcDbEntity
  8
0
100
AcDbLine
 10
442.6156029183919
 20
420.9664861112789
 30
0.0
 11
442.6188379183918
 21
420.977564111279
 31
0.0
  0
ARC
  5
72B
330
2
100
AcDbEntity
  8
0
100
AcDbCircle
 10
435.9595969183917
 20
415.966486111279
 30
0.0
 40
5.0
100
AcDbArc
 50
270.0
 51
343.8278349999998
  0
LINE
  5
72C
330
2
100
AcDbEntity
  8
0
100
AcDbLine
 10
440.7617519183918
 20
414.573878111279
 30
0.0
 11
441.5694609183917
 21
417.3590951112788
 31
0.0
  0
ARC
  5
72D
330
2
100
AcDbEntity
  8
0
100
AcDbCircle
 10
443.6656519183916
 20
398.9664861112789
 30
0.0
 40
8.0
100
AcDbArc
 50
270.0
 51
339.5033869999997
  0
LINE
  5
72E
330
2
100
AcDbEntity
  8
0
100
AcDbLine
 10
425.2712429183918
 20
407.5556591112789
 30
0.0
 11
426.2744169183918
 21
410.9664861112788
 31
0.0
  0
ARC
  5
72F
330
2
100
AcDbEntity
  8
0
100
AcDbCircle
 10
420.4744289183915
 20
408.9664861112789
 30
0.0
 40
5.0
100
AcDbArc
 50
270.0
 51
343.6104580000001
  0
LINE
  5
730
330
2
100
AcDbEntity
  8
0
100
AcDbLine
 10
1137.456787812055
 20
115.4992541112789
 30
0.0
 11
1028.494446812055
 21
115.4992541112789
 31
0.0
  0
LINE
  5
731
330
2
100
AcDbEntity
  8
0
100
AcDbLine
 10
1137.456787812055
 20
184.3178501112789
 30
0.0
 11
1028.494446812055
 21
184.3178501112789
 31
0.0
  0
LINE
  5
732
330
2
100
AcDbEntity
  8
0
100
AcDbLine
 10
1137.456787812055
 20
104.9085561112789
 30
0.0
 11
1018.456787812055
 21
104.9085561112789
 31
0.0
  0
LINE
  5
733
330
2
100
AcDbEntity
  8
0
100
AcDbLine
 10
1137.456787812055
 20
194.9085631112789
 30
0.0
 11
1018.456787812055
 21
194.9085631112789
 31
0.0
  0
LINE
  5
734
330
2
100
AcDbEntity
  8
CENTER
100
AcDbLine
 10
1204.456757312054
 20
149.9085561112789
 30
0.0
 11
919.0704048120558
 21
149.9085561112789
 31
0.0
  0
ARC
  5
735
330
2
100
AcDbEntity
  8
0
100
AcDbCircle
 10
907.9567578120558
 20
145.1314711112789
 30
0.0
 40
40.0
100
AcDbArc
 50
311.8120990000001
 51
0.0
  0
LINE
  5
736
330
2
100
AcDbEntity
  8
0
100
AcDbLine
 10
885.4567578120558
 20
146.1585561112789
 30
0.0
 11
885.4567578120558
 21
144.4144151112789
 31
0.0
  0
ARC
  5
737
330
2
100
AcDbEntity
  8
0
100
AcDbCircle
 10
891.1529548120558
 20
142.3548371112789
 30
0.0
 40
3.803712
100
AcDbArc
 50
286.0181269999995
 51
90.00350999999964
  0
LINE
  5
738
330
2
100
AcDbEntity
  8
0
100
AcDbLine
 10
865.069366812056
 20
146.1585561112789
 30
0.0
 11
866.4567578120559
 21
144.6189741112789
 31
0.0
  0
LINE
  5
739
330
2
100
AcDbEntity
  8
0
100
AcDbLine
 10
880.7067578120559
 20
143.1898061112789
 30
0.0
 11
880.7067578120559
 21
146.1585561112789
 31
0.0
  0
LINE
  5
73A
330
2
100
AcDbEntity
  8
0
100
AcDbLine
 10
871.2067578120558
 20
143.1898061112789
 30
0.0
 11
871.2067578120558
 21
146.1585561112789
 31
0.0
  0
ARC
  5
73B
330
2
100
AcDbEntity
  8
0
100
AcDbCircle
 10
772.2479558120558
 20
162.9085561112789
 30
0.0
 40
185.2088929999999
100
AcDbArc
 50
346.0019099999997
 51
13.99809000000029
  0
ARC
  5
73C
330
2
100
AcDbEntity
  8
0
100
AcDbCircle
 10
901.4567578120558
 20
148.9085561112789
 30
0.0
 40
31.89999999999999
100
AcDbArc
 50
270.0
 51
12.52309999999996
  0
ARC
  5
73D
330
2
100
AcDbEntity
  8
0
100
AcDbCircle
 10
901.4567578120558
 20
148.9085561112789
 30
0.0
 40
29.0
100
AcDbArc
 50
270.0
 51
12.52309999999996
  0
LINE
  5
73E
330
2
100
AcDbEntity
  8
0
100
AcDbLine
 10
951.9567578120559
 20
94.40855611127892
 30
0.0
 11
951.9567578120559
 21
231.4085631112789
 31
0.0
  0
LINE
  5
73F
330
2
100
AcDbEntity
  8
CENTER
100
AcDbLine
 10
875.9567578120559
 20
282.9085631112789
 30
0.0
 11
875.9567578120558
 21
57.90855611127892
 31
0.0
  0
LINE
  5
740
330
2
100
AcDbEntity
  8
0
100
AcDbLine
 10
972.4567578120559
 20
123.5562911112789
 30
0.0
 11
972.4567578120559
 21
224.9086851112789
 31
0.0
  0
LINE
  5
741
330
2
100
AcDbEntity
  8
0
100
AcDbLine
 10
1018.456787812055
 20
194.9085631112789
 30
0.0
 11
1018.456787812055
 21
104.9085561112789
 31
0.0
  0
LINE
  5
742
330
2
100
AcDbEntity
  8
0
100
AcDbLine
 10
1027.456787812055
 20
192.9085631112789
 30
0.0
 11
1027.456787812055
 21
106.9085371112789
 31
0.0
  0
LINE
  5
743
330
2
100
AcDbEntity
  8
0
100
AcDbLine
 10
963.9567578120558
 20
226.9085631112789
 30
0.0
 11
963.9567578120558
 21
98.90855611127893
 31
0.0
  0
ARC
  5
744
330
2
100
AcDbEntity
  8
0
100
AcDbCircle
 10
974.9567268120559
 20
100.8879751112789
 30
0.0
 40
2.5
100
AcDbArc
 50
91.99999999999958
 51
179.7392269999997
  0
LINE
  5
745
330
2
100
AcDbEntity
  8
0
100
AcDbLine
 10
1018.456787812055
 20
114.3895591112789
 30
0.0
 11
963.9567578120558
 21
114.3895591112789
 31
0.0
  0
LINE
  5
746
330
2
100
AcDbEntity
  8
0
100
AcDbLine
 10
963.9567578120558
 20
103.0053731112789
 30
0.0
 11
1018.456787812055
 21
104.9085561112789
 31
0.0
  0
LINE
  5
747
330
2
100
AcDbEntity
  8
CENTER
100
AcDbLine
 10
923.4567578120559
 20
90.90855611127892
 30
0.0
 11
923.4567578120559
 21
62.90855611127892
 31
0.0
  0
LINE
  5
748
330
2
100
AcDbEntity
  8
HIDS
100
AcDbLine
 10
916.956757812056
 20
85.90855611127892
 30
0.0
 11
916.956757812056
 21
67.90855611127892
 31
0.0
  0
LINE
  5
749
330
2
100
AcDbEntity
  8
0
100
AcDbLine
 10
901.8353588120557
 20
90.02987511127889
 30
0.0
 11
904.4921578120559
 21
87.37305611127894
 31
0.0
  0
ARC
  5
74A
330
2
100
AcDbEntity
  8
0
100
AcDbCircle
 10
901.9567578120559
 20
86.90855611127892
 30
0.0
 40
1.0
100
AcDbArc
 50
180.0
 51
270.0
  0
ARC
  5
74B
330
2
100
AcDbEntity
  8
0
100
AcDbCircle
 10
899.7141428120558
 20
87.90855611127893
 30
0.0
 40
3.0
100
AcDbArc
 50
44.99969100000007
 51
90.0
  0
LINE
  5
74C
330
2
100
AcDbEntity
  8
0
100
AcDbLine
 10
900.9567578120559
 20
89.97267711127893
 30
0.0
 11
900.9567578120559
 21
86.90855611127892
 31
0.0
  0
ARC
  5
74D
330
2
100
AcDbEntity
  8
0
100
AcDbCircle
 10
908.0277718120557
 20
90.90855611127892
 30
0.0
 40
5.0
100
AcDbArc
 50
224.9998930000002
 51
270.0
  0
LINE
  5
74E
330
2
100
AcDbEntity
  8
0
100
AcDbLine
 10
887.7945568120559
 20
144.4144151112789
 30
0.0
 11
892.2277538120559
 21
144.4115311112789
 31
0.0
  0
LINE
  5
74F
330
2
100
AcDbEntity
  8
0
100
AcDbLine
 10
887.7945568120559
 20
138.5696961112789
 30
0.0
 11
890.8353588120558
 21
138.5696961112789
 31
0.0
  0
LINE
  5
750
330
2
100
AcDbEntity
  8
0
100
AcDbLine
 10
891.4525458120559
 20
140.0537131112789
 30
0.0
 11
887.7945568120559
 21
140.0537131112789
 31
0.0
  0
LINE
  5
751
330
2
100
AcDbEntity
  8
0
100
AcDbLine
 10
874.3239448120558
 20
131.9085561112789
 30
0.0
 11
877.4039618120559
 21
131.9085561112789
 31
0.0
  0
ARC
  5
752
330
2
100
AcDbEntity
  8
0
100
AcDbCircle
 10
862.1149608120559
 20
136.5472121112789
 30
0.0
 40
2.96875
100
AcDbArc
 50
270.0002139999998
 51
0.0001089999998967
  0
LINE
  5
753
330
2
100
AcDbEntity
  8
0
100
AcDbLine
 10
875.0289618120559
 20
144.4144151112789
 30
0.0
 11
875.0289618120559
 21
133.4671571112789
 31
0.0
  0
LINE
  5
754
330
2
100
AcDbEntity
  8
0
100
AcDbLine
 10
866.4567578120559
 20
140.1839541112789
 30
0.0
 11
866.4567578120559
 21
131.9085561112789
 31
0.0
  0
LINE
  5
755
330
2
100
AcDbEntity
  8
0
100
AcDbLine
 10
865.0837718120557
 20
133.0444731112789
 30
0.0
 11
863.7297678120559
 21
131.9085561112789
 31
0.0
  0
LINE
  5
756
330
2
100
AcDbEntity
  8
0
100
AcDbLine
 10
865.0837718120557
 20
131.9085561112789
 30
0.0
 11
866.4567578120559
 21
131.9085561112789
 31
0.0
  0
LINE
  5
757
330
2
100
AcDbEntity
  8
0
100
AcDbLine
 10
865.0837718120557
 20
133.0444731112789
 30
0.0
 11
865.0837718120557
 21
131.9085561112789
 31
0.0
  0
LINE
  5
758
330
2
100
AcDbEntity
  8
0
100
AcDbLine
 10
874.3239448120558
 20
133.4671571112789
 30
0.0
 11
875.0289618120559
 21
133.4671571112789
 31
0.0
  0
LINE
  5
759
330
2
100
AcDbEntity
  8
0
100
AcDbLine
 10
874.3239448120558
 20
133.4671571112789
 30
0.0
 11
874.3239448120558
 21
131.9085561112789
 31
0.0
  0
LINE
  5
75A
330
2
100
AcDbEntity
  8
0
100
AcDbLine
 10
865.0837718120557
 20
143.4144151112789
 30
0.0
 11
865.0837718120557
 21
143.1898061112789
 31
0.0
  0
LINE
  5
75B
330
2
100
AcDbEntity
  8
0
100
AcDbLine
 10
862.5973518120558
 20
140.1839541112789
 30
0.0
 11
862.5973518120558
 21
138.6253531112789
 31
0.0
  0
LINE
  5
75C
330
2
100
AcDbEntity
  8
0
100
AcDbLine
 10
865.0837718120557
 20
138.6253531112789
 30
0.0
 11
865.0837718120557
 21
136.5472121112789
 31
0.0
  0
LINE
  5
75D
330
2
100
AcDbEntity
  8
0
100
AcDbLine
 10
866.4567578120559
 20
144.6189741112789
 30
0.0
 11
866.4567578120559
 21
143.1898061112789
 31
0.0
  0
LINE
  5
75E
330
2
100
AcDbEntity
  8
0
100
AcDbLine
 10
865.0837718120557
 20
137.1409781112789
 30
0.0
 11
865.0837718120557
 21
138.3284781112789
 31
0.0
  0
LINE
  5
75F
330
2
100
AcDbEntity
  8
0
100
AcDbLine
 10
865.0837718120557
 20
138.6253531112789
 30
0.0
 11
862.5973518120558
 21
138.6253531112789
 31
0.0
  0
LINE
  5
760
330
2
100
AcDbEntity
  8
0
100
AcDbLine
 10
862.5973518120558
 20
140.1839541112789
 30
0.0
 11
866.4567578120559
 21
140.1839541112789
 31
0.0
  0
LINE
  5
761
330
2
100
AcDbEntity
  8
0
100
AcDbLine
 10
865.0837718120557
 20
143.1898061112789
 30
0.0
 11
866.4567578120559
 21
143.1898061112789
 31
0.0
  0
LINE
  5
762
330
2
100
AcDbEntity
  8
0
100
AcDbLine
 10
865.0837718120557
 20
143.4144151112789
 30
0.0
 11
864.1847538120558
 21
144.2659781112789
 31
0.0
  0
LINE
  5
763
330
2
100
AcDbEntity
  8
0
100
AcDbLine
 10
875.0289618120559
 20
144.4144151112789
 30
0.0
 11
872.7715458120558
 21
144.4144151112789
 31
0.0
  0
LINE
  5
764
330
2
100
AcDbEntity
  8
0
100
AcDbLine
 10
872.7715458120558
 20
144.4144151112789
 30
0.0
 11
872.2613538120558
 21
143.1898061112789
 31
0.0
  0
LINE
  5
765
330
2
100
AcDbEntity
  8
0
100
AcDbLine
 10
871.2067578120558
 20
143.1898061112789
 30
0.0
 11
872.2613538120558
 21
143.1898061112789
 31
0.0
  0
LINE
  5
766
330
2
100
AcDbEntity
  8
0
100
AcDbLine
 10
887.7945568120559
 20
138.5696961112789
 30
0.0
 11
887.7945568120559
 21
133.3929381112789
 31
0.0
  0
LINE
  5
767
330
2
100
AcDbEntity
  8
0
100
AcDbLine
 10
886.1617438120559
 20
144.4144151112789
 30
0.0
 11
886.1617438120559
 21
133.3929381112789
 31
0.0
  0
LINE
  5
768
330
2
100
AcDbEntity
  8
0
100
AcDbLine
 10
876.8101508120558
 20
144.4144151112789
 30
0.0
 11
876.8101508120558
 21
133.4671571112789
 31
0.0
  0
LINE
  5
769
330
2
100
AcDbEntity
  8
0
100
AcDbLine
 10
877.4039618120559
 20
133.4671571112789
 30
0.0
 11
877.4039618120559
 21
131.9085561112789
 31
0.0
  0
LINE
  5
76A
330
2
100
AcDbEntity
  8
0
100
AcDbLine
 10
876.8101508120558
 20
133.4671571112789
 30
0.0
 11
877.4039618120559
 21
133.4671571112789
 31
0.0
  0
LINE
  5
76B
330
2
100
AcDbEntity
  8
0
100
AcDbLine
 10
885.4567578120558
 20
133.3929381112789
 30
0.0
 11
885.4567578120558
 21
131.9085561112789
 31
0.0
  0
LINE
  5
76C
330
2
100
AcDbEntity
  8
0
100
AcDbLine
 10
888.4441538120558
 20
133.3929381112789
 30
0.0
 11
888.4441538120558
 21
131.9085561112789
 31
0.0
  0
LINE
  5
76D
330
2
100
AcDbEntity
  8
0
100
AcDbLine
 10
888.4441538120558
 20
131.9085561112789
 30
0.0
 11
885.4567578120558
 21
131.9085561112789
 31
0.0
  0
LINE
  5
76E
330
2
100
AcDbEntity
  8
0
100
AcDbLine
 10
887.7945568120559
 20
133.3929381112789
 30
0.0
 11
888.4441538120558
 21
133.3929381112789
 31
0.0
  0
LINE
  5
76F
330
2
100
AcDbEntity
  8
0
100
AcDbLine
 10
885.4567578120558
 20
133.3929381112789
 30
0.0
 11
886.1617438120559
 21
133.3929381112789
 31
0.0
  0
LINE
  5
770
330
2
100
AcDbEntity
  8
0
100
AcDbLine
 10
876.8101508120558
 20
144.4144151112789
 30
0.0
 11
879.2855538120559
 21
144.4144151112789
 31
0.0
  0
LINE
  5
771
330
2
100
AcDbEntity
  8
0
100
AcDbLine
 10
879.2855538120559
 20
144.4144151112789
 30
0.0
 11
879.7157598120559
 21
143.1898061112789
 31
0.0
  0
LINE
  5
772
330
2
100
AcDbEntity
  8
0
100
AcDbLine
 10
879.7157598120559
 20
143.1898061112789
 30
0.0
 11
880.7067578120559
 21
143.1898061112789
 31
0.0
  0
LINE
  5
773
330
2
100
AcDbEntity
  8
0
100
AcDbLine
 10
885.4567578120558
 20
144.4144151112789
 30
0.0
 11
886.1617438120559
 21
144.4144151112789
 31
0.0
  0
LINE
  5
774
330
2
100
AcDbEntity
  8
0
100
AcDbLine
 10
887.7945568120559
 20
144.4144151112789
 30
0.0
 11
887.7945568120559
 21
140.0537131112789
 31
0.0
  0
LINE
  5
775
330
2
100
AcDbEntity
  8
0
100
AcDbLine
 10
890.8353588120558
 20
138.5696961112789
 30
0.0
 11
893.0631718120558
 21
133.3929381112789
 31
0.0
  0
LINE
  5
776
330
2
100
AcDbEntity
  8
0
100
AcDbLine
 10
892.2025458120558
 20
138.6988161112789
 30
0.0
 11
894.5569468120559
 21
133.3929381112789
 31
0.0
  0
LINE
  5
777
330
2
100
AcDbEntity
  8
0
100
AcDbLine
 10
892.7673658120559
 20
133.3929381112789
 30
0.0
 11
892.7673658120559
 21
131.9085561112789
 31
0.0
  0
LINE
  5
778
330
2
100
AcDbEntity
  8
0
100
AcDbLine
 10
894.9567578120559
 20
133.3929381112789
 30
0.0
 11
894.9567578120559
 21
131.9085561112789
 31
0.0
  0
LINE
  5
779
330
2
100
AcDbEntity
  8
0
100
AcDbLine
 10
892.7673658120559
 20
131.9085561112789
 30
0.0
 11
894.9567578120559
 21
131.9085561112789
 31
0.0
  0
LINE
  5
77A
330
2
100
AcDbEntity
  8
0
100
AcDbLine
 10
894.5569468120559
 20
133.3929381112789
 30
0.0
 11
894.9567578120559
 21
133.3929381112789
 31
0.0
  0
LINE
  5
77B
330
2
100
AcDbEntity
  8
0
100
AcDbLine
 10
892.7673658120559
 20
133.3929381112789
 30
0.0
 11
893.0631718120558
 21
133.3929381112789
 31
0.0
  0
ARC
  5
77C
330
2
100
AcDbEntity
  8
0
100
AcDbCircle
 10
891.1529548120558
 20
142.3548371112789
 30
0.0
 40
2.320524
100
AcDbArc
 50
277.4147260000004
 51
62.41184999999949
  0
LINE
  5
77D
330
2
100
AcDbEntity
  8
HIDS
100
AcDbLine
 10
929.9567578120559
 20
85.90855611127892
 30
0.0
 11
929.9567578120559
 21
67.90855611127892
 31
0.0
  0
LINE
  5
77E
330
2
100
AcDbEntity
  8
0
100
AcDbLine
 10
937.9567578120559
 20
83.84199711127894
 30
0.0
 11
937.9567578120559
 21
67.90855611127892
 31
0.0
  0
LINE
  5
77F
330
2
100
AcDbEntity
  8
0
100
AcDbLine
 10
951.9567578120559
 20
94.40855611127892
 30
0.0
 11
951.9567578120559
 21
67.90855611127892
 31
0.0
  0
LINE
  5
780
330
2
100
AcDbEntity
  8
0
100
AcDbLine
 10
956.9567578120558
 20
98.90855611127893
 30
0.0
 11
963.9567578120558
 21
98.90855611127893
 31
0.0
  0
ARC
  5
781
330
2
100
AcDbEntity
  8
0
100
AcDbCircle
 10
956.9567578120558
 20
93.90853711127892
 30
0.0
 40
5.0
100
AcDbArc
 50
90.0
 51
180.0
  0
LINE
  5
782
330
2
100
AcDbEntity
  8
0
100
AcDbLine
 10
970.4567578120558
 20
98.90845711127894
 30
0.0
 11
963.9567578120558
 21
98.90845711127894
 31
0.0
  0
ARC
  5
783
330
2
100
AcDbEntity
  8
0
100
AcDbCircle
 10
970.4567578120558
 20
100.9084571112789
 30
0.0
 40
2.0
100
AcDbArc
 50
270.0
 51
359.7392269999997
  0
LINE
  5
784
330
2
100
AcDbEntity
  8
0
100
AcDbLine
 10
971.888794812056
 20
122.3415541112789
 30
0.0
 11
963.9567578120558
 21
122.3415541112789
 31
0.0
  0
ARC
  5
785
330
2
100
AcDbEntity
  8
0
100
AcDbCircle
 10
1025.456787812055
 20
106.9085561112789
 30
0.0
 40
2.0
100
AcDbArc
 50
270.0
 51
0.0
  0
LINE
  5
786
330
2
100
AcDbEntity
  8
0
100
AcDbLine
 10
1018.456787812055
 20
129.4025591112789
 30
0.0
 11
974.4567578120559
 21
129.4025591112789
 31
0.0
  0
ARC
  5
787
330
2
100
AcDbEntity
  8
0
100
AcDbCircle
 10
974.956757812056
 20
204.4440861112789
 30
0.0
 40
2.5
100
AcDbArc
 50
180.0
 51
225.0
  0
LINE
  5
788
330
2
100
AcDbEntity
  8
0
100
AcDbLine
 10
1018.456787812055
 20
194.9085631112789
 30
0.0
 11
972.4567578120559
 21
196.5149171112789
 31
0.0
  0
LINE
  5
789
330
2
100
AcDbEntity
  8
CENTER
100
AcDbLine
 10
998.9247661125693
 20
162.9085561112789
 30
0.0
 11
919.0704048120558
 21
162.9085561112789
 31
0.0
  0
ARC
  5
78A
330
2
100
AcDbEntity
  8
0
100
AcDbCircle
 10
907.9567578120558
 20
216.6856631112789
 30
0.0
 40
40.0
100
AcDbArc
 50
0.0
 51
48.25191100000012
  0
LINE
  5
78B
330
2
100
AcDbEntity
  8
0
100
AcDbLine
 10
929.7667548120559
 20
155.1967411112789
 30
0.0
 11
916.0789498120559
 21
216.8204291112789
 31
0.0
  0
LINE
  5
78C
330
2
100
AcDbEntity
  8
0
100
AcDbLine
 10
885.4567578120558
 20
146.1585561112789
 30
0.0
 11
891.1529548120558
 21
146.1585561112789
 31
0.0
  0
LINE
  5
78D
330
2
100
AcDbEntity
  8
0
100
AcDbLine
 10
871.2067578120558
 20
146.1585561112789
 30
0.0
 11
880.7067578120559
 21
146.1585561112789
 31
0.0
  0
LINE
  5
78E
330
2
100
AcDbEntity
  8
0
100
AcDbLine
 10
864.9567578120558
 20
212.9085631112789
 30
0.0
 11
864.9567578120558
 21
202.9085631112788
 31
0.0
  0
LINE
  5
78F
330
2
100
AcDbEntity
  8
0
100
AcDbLine
 10
947.9567578120558
 20
216.6856631112789
 30
0.0
 11
947.9567578120558
 21
145.1314871112789
 31
0.0
  0
LINE
  5
790
330
2
100
AcDbEntity
  8
0
100
AcDbLine
 10
932.5977488120559
 20
155.8255631112789
 30
0.0
 11
918.9099438120559
 21
217.4492591112789
 31
0.0
  0
LINE
  5
791
330
2
100
AcDbEntity
  8
0
100
AcDbLine
 10
948.5067448120558
 20
242.7941831112789
 30
0.0
 11
907.0101628120559
 21
271.4886111112789
 31
0.0
  0
ARC
  5
792
330
2
100
AcDbEntity
  8
0
100
AcDbCircle
 10
902.4601448120559
 20
264.9085631112789
 30
0.0
 40
8.0
100
AcDbArc
 50
55.33630000000021
 51
90.0
  0
LINE
  5
793
330
2
100
AcDbEntity
  8
0
100
AcDbLine
 10
956.9567578120558
 20
226.9085631112789
 30
0.0
 11
963.9567578120558
 21
226.9085631112789
 31
0.0
  0
LINE
  5
794
330
2
100
AcDbEntity
  8
0
100
AcDbLine
 10
951.9567578120559
 20
231.4085631112789
 30
0.0
 11
951.9567578120559
 21
236.2141211112789
 31
0.0
  0
ARC
  5
795
330
2
100
AcDbEntity
  8
0
100
AcDbCircle
 10
956.9567578120558
 20
231.9085631112788
 30
0.0
 40
5.0
100
AcDbArc
 50
180.0
 51
270.0
  0
ARC
  5
796
330
2
100
AcDbEntity
  8
0
100
AcDbCircle
 10
943.9567578120559
 20
236.2141511112789
 30
0.0
 40
8.0
100
AcDbArc
 50
0.0
 51
55.33620100000035
  0
LINE
  5
797
330
2
100
AcDbEntity
  8
0
100
AcDbLine
 10
970.4567578120558
 20
226.9086551112788
 30
0.0
 11
963.9567578120558
 21
226.9086551112788
 31
0.0
  0
ARC
  5
798
330
2
100
AcDbEntity
  8
0
100
AcDbCircle
 10
970.4567268120559
 20
224.9086851112789
 30
0.0
 40
2.0
100
AcDbArc
 50
0.0
 51
90.0
  0
ARC
  5
799
330
2
100
AcDbEntity
  8
0
100
AcDbCircle
 10
980.6712658120559
 20
198.7295781112788
 30
0.0
 40
2.5
100
AcDbArc
 50
225.0
 51
267.9999999999996
  0
LINE
  5
79A
330
2
100
AcDbEntity
  8
0
100
AcDbLine
 10
973.1889958120559
 20
202.6763251112789
 30
0.0
 11
978.9035038120559
 21
196.9618161112789
 31
0.0
  0
ARC
  5
79B
330
2
100
AcDbEntity
  8
0
100
AcDbCircle
 10
1025.456787812055
 20
192.9085791112789
 30
0.0
 40
2.0
100
AcDbArc
 50
0.0
 51
90.0
  0
LINE
  5
79C
330
2
100
AcDbEntity
  8
0
100
AcDbLine
 10
1137.456787812055
 20
104.9085561112789
 30
0.0
 11
1137.456787812055
 21
194.9085631112789
 31
0.0
  0
LINE
  5
79D
330
2
100
AcDbEntity
  8
0
100
AcDbLine
 10
1194.456726812056
 20
191.9085631112789
 30
0.0
 11
1194.456787812056
 21
107.9085441112789
 31
0.0
  0
LINE
  5
79E
330
2
100
AcDbEntity
  8
0
100
AcDbLine
 10
1146.956787812055
 20
196.9085631112789
 30
0.0
 11
1146.956787812055
 21
102.9085561112789
 31
0.0
  0
LINE
  5
79F
330
2
100
AcDbEntity
  8
0
100
AcDbLine
 10
1137.456787812055
 20
115.4992691112789
 30
0.0
 11
1146.956787812055
 21
115.4992691112789
 31
0.0
  0
LINE
  5
7A0
330
2
100
AcDbEntity
  8
0
100
AcDbLine
 10
1146.956787812055
 20
104.9085561112789
 30
0.0
 11
1137.456787812055
 21
104.9085561112789
 31
0.0
  0
ARC
  5
7A1
330
2
100
AcDbEntity
  8
0
100
AcDbCircle
 10
1189.456787812055
 20
107.9085561112789
 30
0.0
 40
5.0
100
AcDbArc
 50
270.0
 51
0.0
  0
LINE
  5
7A2
330
2
100
AcDbEntity
  8
0
100
AcDbLine
 10
1189.456787812055
 20
102.9085561112789
 30
0.0
 11
1146.956787812055
 21
102.9085561112789
 31
0.0
  0
LINE
  5
7A3
330
2
100
AcDbEntity
  8
0
100
AcDbLine
 10
1146.956787812055
 20
120.9085561112789
 30
0.0
 11
1190.931763812056
 21
120.9085561112789
 31
0.0
  0
LINE
  5
7A6
330
2
100
AcDbEntity
  8
0
100
AcDbLine
 10
1137.456787812055
 20
184.3178501112789
 30
0.0
 11
1146.956787812055
 21
184.3178501112789
 31
0.0
  0
LINE
  5
7A7
330
2
100
AcDbEntity
  8
0
100
AcDbLine
 10
1146.956787812055
 20
194.9085631112789
 30
0.0
 11
1137.456787812055
 21
194.9085631112789
 31
0.0
  0
LINE
  5
7AE
330
2
100
AcDbEntity
  8
0
100
AcDbLine
 10
1146.956787812055
 20
178.9085631112789
 30
0.0
 11
1190.931763812056
 21
178.9085631112789
 31
0.0
  0
LINE
  5
7AF
330
2
100
AcDbEntity
  8
0
100
AcDbLine
 10
1189.456787812055
 20
196.9085631112789
 30
0.0
 11
1146.956787812055
 21
196.9085631112789
 31
0.0
  0
ARC
  5
7B2
330
2
100
AcDbEntity
  8
0
100
AcDbCircle
 10
1189.456726812055
 20
191.9085631112789
 30
0.0
 40
5.0
100
AcDbArc
 50
0.0
 51
90.0
  0
LINE
  5
7B3
330
2
100
AcDbEntity
  8
0
100
AcDbLine
 10
123.7155789183916
 20
436.966486111279
 30
0.0
 11
233.7155789183916
 21
436.966486111279
 31
0.0
  0
LINE
  5
7B4
330
2
100
AcDbEntity
  8
0
100
AcDbLine
 10
123.7155789183916
 20
494.966486111279
 30
0.0
 11
233.7155789183916
 21
494.966486111279
 31
0.0
  0
LINE
  5
7B5
330
2
100
AcDbEntity
  8
0
100
AcDbLine
 10
123.7155789183916
 20
420.966486111279
 30
0.0
 11
242.7155789183916
 21
420.966486111279
 31
0.0
  0
LINE
  5
7B6
330
2
100
AcDbEntity
  8
0
100
AcDbLine
 10
123.7155789183918
 20
510.9664861112789
 30
0.0
 11
242.7155789183919
 21
510.9664861112789
 31
0.0
  0
LINE
  5
7B8
330
2
100
AcDbEntity
  8
0
100
AcDbLine
 10
281.5726039183918
 20
487.7619881112789
 30
0.0
 11
281.5726039183918
 21
444.049403111279
 31
0.0
  0
LINE
  5
7B9
330
2
100
AcDbEntity
  8
0
100
AcDbLine
 10
242.7155789183919
 20
514.9784801112789
 30
0.0
 11
242.7155789183916
 21
416.9544931112788
 31
0.0
  0
LINE
  5
7BA
330
2
100
AcDbEntity
  8
0
100
AcDbLine
 10
288.7156089183915
 20
403.966486111279
 30
0.0
 11
288.7156089183918
 21
527.966486111279
 31
0.0
  0
LINE
  5
7BB
330
2
100
AcDbEntity
  8
0
100
AcDbLine
 10
309.2153959183917
 20
465.966486111279
 30
0.0
 11
309.9494349183917
 21
508.0188541112789
 31
0.0
  0
LINE
  5
7BC
330
2
100
AcDbEntity
  8
0
100
AcDbLine
 10
297.2156089183918
 20
529.9664861112789
 30
0.0
 11
297.2156089183915
 21
401.9664861112789
 31
0.0
  0
LINE
  5
7BD
330
2
100
AcDbEntity
  8
0
100
AcDbLine
 10
356.2156089183918
 20
507.966486111279
 30
0.0
 11
356.2156089183918
 21
423.966486111279
 31
0.0
  0
LINE
  5
7BE
330
2
100
AcDbEntity
  8
CENTER
100
AcDbLine
 10
385.2156089183918
 20
595.966486111279
 30
0.0
 11
385.2156089183918
 21
380.9664861112789
 31
0.0
  0
LINE
  5
7BF
330
2
100
AcDbEntity
  8
0
100
AcDbLine
 10
243.2152739183918
 20
515.495936111279
 30
0.0
 11
288.7156089183918
 21
517.0848331112789
 31
0.0
  0
ARC
  5
7C0
330
2
100
AcDbEntity
  8
0
100
AcDbCircle
 10
286.1919889183916
 20
514.986231111279
 30
0.0
 40
2.5
100
AcDbArc
 50
271.9999999999995
 51
359.8957059999996
  0
LINE
  5
7C1
330
2
100
AcDbEntity
  8
0
100
AcDbLine
 10
281.5726039183918
 20
489.9664861112789
 30
0.0
 11
288.6875939183917
 21
489.9664861112789
 31
0.0
  0
LINE
  5
7C2
330
2
100
AcDbEntity
  8
0
100
AcDbLine
 10
369.2156089183918
 20
530.9664861112789
 30
0.0
 11
369.2156089183918
 21
585.9664861112789
 31
0.0
  0
LINE
  5
7C3
330
2
100
AcDbEntity
  8
0
100
AcDbLine
 10
334.4716209183918
 20
520.966486111279
 30
0.0
 11
344.1568019183916
 21
520.966486111279
 31
0.0
  0
ARC
  5
7C5
330
2
100
AcDbEntity
  8
0
100
AcDbCircle
 10
337.7156089183916
 20
525.966486111279
 30
0.0
 40
6.5
100
AcDbArc
 50
309.7151339999998
 51
231.2406879999997
  0
LINE
  5
7C6
330
2
100
AcDbEntity
  8
0
100
AcDbLine
 10
326.7655669183918
 20
540.966486111279
 30
0.0
 11
369.2156089183918
 21
540.966486111279
 31
0.0
  0
ARC
  5
7C8
330
2
100
AcDbEntity
  8
0
100
AcDbCircle
 10
349.9567899183916
 20
522.9664861112791
 30
0.0
 40
5.0
100
AcDbArc
 50
90.0
 51
163.6104739999997
  0
LINE
  5
7C9
330
2
100
AcDbEntity
  8
0
100
AcDbLine
 10
367.7156089183918
 20
527.966486111279
 30
0.0
 11
367.7156089183918
 21
530.9664861112789
 31
0.0
  0
LINE
  5
7CA
330
2
100
AcDbEntity
  8
0
100
AcDbLine
 10
345.1599759183918
 20
524.3773141112789
 30
0.0
 11
344.1568019183916
 21
520.966486111279
 31
0.0
  0
ARC
  5
7CB
330
2
100
AcDbEntity
  8
0
100
AcDbCircle
 10
312.9489769183917
 20
507.9664861112791
 30
0.0
 40
3.0
100
AcDbArc
 50
90.0
 51
178.9999999999998
  0
LINE
  5
7CC
330
2
100
AcDbEntity
  8
0
100
AcDbLine
 10
319.2720059183918
 20
535.7676951112789
 30
0.0
 11
310.2172269183918
 21
511.5452221112788
 31
0.0
  0
ARC
  5
7CE
330
2
100
AcDbEntity
  8
0
100
AcDbCircle
 10
326.7655669183916
 20
532.9664861112791
 30
0.0
 40
8.0
100
AcDbArc
 50
90.0
 51
159.5033869999996
  0
ARC
  5
7CF
330
2
100
AcDbEntity
  8
0
100
AcDbCircle
 10
334.4716209183916
 20
515.9664861112791
 30
0.0
 40
5.0
100
AcDbArc
 50
90.0
 51
163.8278499999997
  0
LINE
  5
7D0
330
2
100
AcDbEntity
  8
0
100
AcDbLine
 10
327.8156159183918
 20
510.9664861112789
 30
0.0
 11
327.8123809183919
 21
510.9554081112789
 31
0.0
  0
ARC
  5
7D1
330
2
100
AcDbEntity
  8
0
100
AcDbCircle
 10
324.0596039183915
 20
515.9664861112791
 30
0.0
 40
5.0
100
AcDbArc
 50
270.0
 51
343.8278349999998
  0
LINE
  5
7D2
330
2
100
AcDbEntity
  8
0
100
AcDbLine
 10
329.6694669183918
 20
517.359095111279
 30
0.0
 11
328.8617579183917
 21
514.573878111279
 31
0.0
  0
ARC
  5
7D3
330
2
100
AcDbEntity
  8
0
100
AcDbCircle
 10
290.7156089183915
 20
527.9664861112791
 30
0.0
 40
2.0
100
AcDbArc
 50
90.0
 51
180.0
  0
ARC
  5
7D4
330
2
100
AcDbEntity
  8
0
100
AcDbCircle
 10
299.7879359183916
 20
524.966486111279
 30
0.0
 40
5.0
100
AcDbArc
 50
15.00000000000042
 51
90.0
  0
LINE
  5
7D5
330
2
100
AcDbEntity
  8
0
100
AcDbLine
 10
290.7156089183918
 20
529.9664861112789
 30
0.0
 11
297.2156089183918
 21
529.9664861112789
 31
0.0
  0
LINE
  5
7D6
330
2
100
AcDbEntity
  8
0
100
AcDbLine
 10
299.7879359183919
 20
529.9664861112789
 30
0.0
 11
297.2156089183918
 21
529.9664861112789
 31
0.0
  0
LINE
  5
7D7
330
2
100
AcDbEntity
  8
0
100
AcDbLine
 10
304.6175559183918
 20
526.260584111279
 30
0.0
 11
307.7226279183919
 21
514.672388111279
 31
0.0
  0
ARC
  5
7D8
330
2
100
AcDbEntity
  8
0
100
AcDbCircle
 10
312.5522489183915
 20
515.9664861112791
 30
0.0
 40
5.0
100
AcDbArc
 50
195.0000000000003
 51
270.0
  0
LINE
  5
7D9
330
2
100
AcDbEntity
  8
0
100
AcDbLine
 10
288.7156089183918
 20
512.5728401112789
 30
0.0
 11
288.6875939183919
 21
512.5718641112789
 31
0.0
  0
LINE
  5
7DA
330
2
100
AcDbEntity
  8
0
100
AcDbLine
 10
233.7155789183918
 20
508.9664861112789
 30
0.0
 11
233.7155789183916
 21
494.966486111279
 31
0.0
  0
LINE
  5
7DB
330
2
100
AcDbEntity
  8
0
100
AcDbLine
 10
242.7155789183919
 20
510.9664861112789
 30
0.0
 11
286.2792389183919
 21
512.487757111279
 31
0.0
  0
LINE
  5
7DC
330
2
100
AcDbEntity
  8
0
100
AcDbLine
 10
242.7155789183919
 20
514.9784801112789
 30
0.0
 11
243.2152739183918
 21
515.495936111279
 31
0.0
  0
ARC
  5
7DD
330
2
100
AcDbEntity
  8
0
100
AcDbCircle
 10
235.7155789183916
 20
508.966517111279
 30
0.0
 40
2.0
100
AcDbArc
 50
90.0
 51
180.0
  0
LINE
  5
7DE
330
2
100
AcDbEntity
  8
0
100
AcDbLine
 10
243.2152739183916
 20
416.4370371112791
 30
0.0
 11
288.7156089183915
 21
414.8481391112791
 31
0.0
  0
ARC
  5
7DF
330
2
100
AcDbEntity
  8
0
100
AcDbCircle
 10
286.1919889183916
 20
416.946741111279
 30
0.0
 40
2.5
100
AcDbArc
 50
0.1042939999995873
 51
87.99999999999959
  0
LINE
  5
7E0
330
2
100
AcDbEntity
  8
0
100
AcDbLine
 10
282.1777679183917
 20
441.9664861112789
 30
0.0
 11
288.6875939183917
 21
441.9664861112789
 31
0.0
  0
LINE
  5
7E1
330
2
100
AcDbEntity
  8
0
100
AcDbLine
 10
334.4716209183918
 20
410.9664861112789
 30
0.0
 11
344.1568019183916
 21
410.9664861112789
 31
0.0
  0
LINE
  5
7E2
330
2
100
AcDbEntity
  8
CENTER
100
AcDbLine
 10
348.0632649183917
 20
405.9664861112789
 30
0.0
 11
327.3679529183916
 21
405.9664861112789
 31
0.0
  0
ARC
  5
7E3
330
2
100
AcDbEntity
  8
0
100
AcDbCircle
 10
337.7156089183916
 20
405.9664861112789
 30
0.0
 40
6.5
100
AcDbArc
 50
128.7593120000002
 51
50.2848660000002
  0
LINE
  5
7E6
330
2
100
AcDbEntity
  8
0
100
AcDbLine
 10
345.1599759183918
 20
407.555659111279
 30
0.0
 11
344.1568019183916
 21
410.9664861112789
 31
0.0
  0
ARC
  5
7E7
330
2
100
AcDbEntity
  8
0
100
AcDbCircle
 10
349.9567899183916
 20
408.9664861112789
 30
0.0
 40
5.0
100
AcDbArc
 50
196.3895399999997
 51
270.0
  0
LINE
  5
7E8
330
2
100
AcDbEntity
  8
0
100
AcDbLine
 10
309.2153959183917
 20
465.966486111279
 30
0.0
 11
309.9494349183917
 21
423.9141181112789
 31
0.0
  0
LINE
  5
7E9
330
2
100
AcDbEntity
  8
0
100
AcDbLine
 10
319.2720059183918
 20
396.1652781112791
 30
0.0
 11
310.2172269183918
 21
420.3877511112789
 31
0.0
  0
LINE
  5
7EA
330
2
100
AcDbEntity
  8
CENTER
100
AcDbLine
 10
337.7156089183916
 20
416.3141421112788
 30
0.0
 11
337.7156089183916
 21
395.618830111279
 31
0.0
  0
ARC
  5
7EB
330
2
100
AcDbEntity
  8
0
100
AcDbCircle
 10
334.4716209183916
 20
415.966486111279
 30
0.0
 40
5.0
100
AcDbArc
 50
196.1721589999999
 51
270.0
  0
ARC
  5
7EC
330
2
100
AcDbEntity
  8
0
100
AcDbCircle
 10
324.0596039183915
 20
415.966486111279
 30
0.0
 40
5.0
100
AcDbArc
 50
16.17216500000017
 51
90.0
  0
LINE
  5
7ED
330
2
100
AcDbEntity
  8
0
100
AcDbLine
 10
327.8156159183915
 20
420.966486111279
 30
0.0
 11
327.8123809183919
 21
420.977564111279
 31
0.0
  0
LINE
  5
7EE
330
2
100
AcDbEntity
  8
0
100
AcDbLine
 10
329.6694669183918
 20
414.5738781112791
 30
0.0
 11
328.8617579183917
 21
417.359095111279
 31
0.0
  0
ARC
  5
7EF
330
2
100
AcDbEntity
  8
0
100
AcDbCircle
 10
326.7655669183916
 20
398.9664861112789
 30
0.0
 40
8.0
100
AcDbArc
 50
200.4966180000001
 51
270.0
  0
LINE
  5
7F0
330
2
100
AcDbEntity
  8
0
100
AcDbLine
 10
304.6175559183918
 20
405.672388111279
 30
0.0
 11
307.7226279183917
 21
417.260584111279
 31
0.0
  0
ARC
  5
7F1
330
2
100
AcDbEntity
  8
0
100
AcDbCircle
 10
312.5522489183915
 20
415.966486111279
 30
0.0
 40
5.0
100
AcDbArc
 50
90.0
 51
164.9999999999995
  0
ARC
  5
7F2
330
2
100
AcDbEntity
  8
0
100
AcDbCircle
 10
312.9489769183917
 20
423.966486111279
 30
0.0
 40
3.0
100
AcDbArc
 50
181.0000000000001
 51
270.0
  0
ARC
  5
7F3
330
2
100
AcDbEntity
  8
0
100
AcDbCircle
 10
299.7879359183916
 20
406.9664861112789
 30
0.0
 40
5.0
100
AcDbArc
 50
270.0
 51
344.9999999999996
  0
LINE
  5
7F4
330
2
100
AcDbEntity
  8
0
100
AcDbLine
 10
290.7156089183915
 20
401.9664861112789
 30
0.0
 11
297.2156089183915
 21
401.9664861112789
 31
0.0
  0
LINE
  5
7F5
330
2
100
AcDbEntity
  8
0
100
AcDbLine
 10
299.7879359183919
 20
401.9664861112789
 30
0.0
 11
297.2156089183915
 21
401.9664861112789
 31
0.0
  0
ARC
  5
7F6
330
2
100
AcDbEntity
  8
0
100
AcDbCircle
 10
290.7156089183915
 20
403.966486111279
 30
0.0
 40
2.0
100
AcDbArc
 50
180.0
 51
270.0
  0
LINE
  5
7F7
330
2
100
AcDbEntity
  8
0
100
AcDbLine
 10
233.7155789183916
 20
436.966486111279
 30
0.0
 11
233.7155789183916
 21
422.966456111279
 31
0.0
  0
LINE
  5
7F8
330
2
100
AcDbEntity
  8
0
100
AcDbLine
 10
242.7155789183916
 20
420.966486111279
 30
0.0
 11
286.2792389183916
 21
419.445216111279
 31
0.0
  0
ARC
  5
7F9
330
2
100
AcDbEntity
  8
0
100
AcDbCircle
 10
235.7155789183916
 20
422.9664861112789
 30
0.0
 40
2.0
100
AcDbArc
 50
180.0
 51
270.0
  0
LINE
  5
7FA
330
2
100
AcDbEntity
  8
0
100
AcDbLine
 10
242.7155789183916
 20
416.9544931112788
 30
0.0
 11
243.2152739183916
 21
416.4370371112791
 31
0.0
  0
LINE
  5
7FB
330
2
100
AcDbEntity
  8
0
100
AcDbLine
 10
66.71563991839184
 20
507.966486111279
 30
0.0
 11
66.71557891839166
 21
423.966486111279
 31
0.0
  0
LINE
  5
7FC
330
2
100
AcDbEntity
  8
0
100
AcDbLine
 10
114.2155789183918
 20
512.9664861112789
 30
0.0
 11
114.2155789183916
 21
418.9664861112789
 31
0.0
  0
LINE
  5
803
330
2
100
AcDbEntity
  8
0
100
AcDbLine
 10
123.7155789183916
 20
494.966486111279
 30
0.0
 11
114.2155789183916
 21
494.966486111279
 31
0.0
  0
LINE
  5
804
330
2
100
AcDbEntity
  8
0
100
AcDbLine
 10
114.2155789183918
 20
510.9664861112789
 30
0.0
 11
123.7155789183918
 21
510.9664861112789
 31
0.0
  0
LINE
  5
805
330
2
100
AcDbEntity
  8
0
100
AcDbLine
 10
123.7155789183917
 20
490.9664861112789
 30
0.0
 11
123.7155789183918
 21
510.9664861112789
 31
0.0
  0
ARC
  5
808
330
2
100
AcDbEntity
  8
0
100
AcDbCircle
 10
71.71563991839184
 20
507.9664861112791
 30
0.0
 40
5.0
100
AcDbArc
 50
90.0
 51
180.0
  0
LINE
  5
809
330
2
100
AcDbEntity
  8
0
100
AcDbLine
 10
71.71557891839189
 20
512.9664861112789
 30
0.0
 11
114.2155789183918
 21
512.9664861112789
 31
0.0
  0
LINE
  5
80A
330
2
100
AcDbEntity
  8
0
100
AcDbLine
 10
114.2155789183916
 20
494.966486111279
 30
0.0
 11
70.24060291839169
 21
494.966486111279
 31
0.0
  0
LINE
  5
80E
330
2
100
AcDbEntity
  8
0
100
AcDbLine
 10
123.7155789183916
 20
436.966486111279
 30
0.0
 11
114.2155789183916
 21
436.966486111279
 31
0.0
  0
LINE
  5
80F
330
2
100
AcDbEntity
  8
0
100
AcDbLine
 10
114.2155789183916
 20
420.966486111279
 30
0.0
 11
123.7155789183916
 21
420.966486111279
 31
0.0
  0
LINE
  5
810
330
2
100
AcDbEntity
  8
0
100
AcDbLine
 10
123.7155789183916
 20
420.966486111279
 30
0.0
 11
123.7155789183916
 21
440.966486111279
 31
0.0
  0
ARC
  5
813
330
2
100
AcDbEntity
  8
0
100
AcDbCircle
 10
114.2155789183916
 20
426.696650111279
 30
0.0
 40
3.0
100
AcDbArc
 50
0.0
 51
90.0
  0
ARC
  5
814
330
2
100
AcDbEntity
  8
0
100
AcDbCircle
 10
114.2155789183916
 20
426.696650111279
 30
0.0
 40
4.5
100
AcDbArc
 50
0.0
 51
90.0
  0
LINE
  5
815
330
2
100
AcDbEntity
  8
0
100
AcDbLine
 10
114.2155789183916
 20
436.966486111279
 30
0.0
 11
70.24060291839169
 21
436.966486111279
 31
0.0
  0
LINE
  5
817
330
2
100
AcDbEntity
  8
0
100
AcDbLine
 10
71.71557891839166
 20
418.9664861112789
 30
0.0
 11
114.2155789183916
 21
418.9664861112789
 31
0.0
  0
LINE
  5
818
330
2
100
AcDbEntity
  8
HOJO
100
AcDbLine
 10
117.2155789183916
 20
422.696650111279
 30
0.0
 11
118.7155789183916
 21
422.196650111279
 31
0.0
  0
LINE
  5
819
330
2
100
AcDbEntity
  8
HOJO
100
AcDbLine
 10
115.7155789183916
 20
421.696650111279
 30
0.0
 11
117.2155789183916
 21
422.196650111279
 31
0.0
  0
LINE
  5
81A
330
2
100
AcDbEntity
  8
0
100
AcDbLine
 10
118.7155789183916
 20
426.696650111279
 30
0.0
 11
118.7155789183916
 21
422.196650111279
 31
0.0
  0
LINE
  5
81B
330
2
100
AcDbEntity
  8
0
100
AcDbLine
 10
117.2155789183916
 20
426.696650111279
 30
0.0
 11
117.2155789183916
 21
422.196650111279
 31
0.0
  0
LINE
  5
81C
330
2
100
AcDbEntity
  8
0
100
AcDbLine
 10
115.7155789183916
 20
426.696650111279
 30
0.0
 11
115.7155789183916
 21
421.6810551112789
 31
0.0
  0
ARC
  5
81D
330
2
100
AcDbEntity
  8
0
100
AcDbCircle
 10
114.2155789183916
 20
426.696650111279
 30
0.0
 40
1.5
100
AcDbArc
 50
0.0
 51
90.0
  0
ARC
  5
81E
330
2
100
AcDbEntity
  8
0
100
AcDbCircle
 10
71.71557891839166
 20
423.966486111279
 30
0.0
 40
5.0
100
AcDbArc
 50
180.0
 51
270.0
  0
LINE
  5
8D7
330
2
100
AcDbEntity
  8
CENTER
100
AcDbLine
 10
443.0632649183917
 20
405.9664861112788
 30
0.0
 11
422.3679529183918
 21
405.9664861112788
 31
0.0
  0
LINE
  5
8D8
330
2
100
AcDbEntity
  8
CENTER
100
AcDbLine
 10
432.7156089183918
 20
416.3141421112787
 30
0.0
 11
432.7156089183918
 21
395.6188301112789
 31
0.0
  0
LINE
  5
8D9
330
2
100
AcDbEntity
  8
CENTER
100
AcDbLine
 10
443.0632649183917
 20
525.9664861112789
 30
0.0
 11
422.3679529183918
 21
525.9664861112789
 31
0.0
  0
LINE
  5
8DA
330
2
100
AcDbEntity
  8
CENTER
100
AcDbLine
 10
432.7156089183918
 20
536.3141421112788
 30
0.0
 11
432.7156089183918
 21
515.618830111279
 31
0.0
  0
LINE
  5
8DB
330
2
100
AcDbEntity
  8
CENTER
100
AcDbLine
 10
348.0632649183917
 20
525.9664861112789
 30
0.0
 11
327.3679529183918
 21
525.9664861112789
 31
0.0
  0
LINE
  5
8DC
330
2
100
AcDbEntity
  8
CENTER
100
AcDbLine
 10
337.7156089183918
 20
536.3141421112788
 30
0.0
 11
337.7156089183918
 21
515.618830111279
 31
0.0
  0
TEXT
  5
8E2
330
2
100
AcDbEntity
  8
TITLE
100
AcDbText
 10
536.106330339143
 20
479.2563302238108
 30
0.0
 40
7.5
  1
HLMN-32L-1200~1800-T40WK
 41
0.8
100
AcDbText
  0
TEXT
  5
8E3
330
2
100
AcDbEntity
  8
TITLE
100
AcDbText
 10
536.106330339143
 20
455.2563302238109
 30
0.0
 40
7.5
  1
HLMN-32L-1200~1800-T60WK
 41
0.8
100
AcDbText
  0
TEXT
  5
8E4
330
2
100
AcDbEntity
  8
TITLE
100
AcDbText
 10
536.106330339143
 20
467.2563302238109
 30
0.0
 40
7.5
  1
HLMN-32L-1200~1800-T60K
 41
0.8
100
AcDbText
  0
TEXT
  5
8E7
330
2
100
AcDbEntity
  8
TITLE
100
AcDbText
 10
536.106330339143
 20
431.2563302238109
 30
0.0
 40
7.5
  1
HLMN-32L-600~900-T90WK
 41
0.8
100
AcDbText
  0
TEXT
  5
8E8
330
2
100
AcDbEntity
  8
TITLE
100
AcDbText
 10
536.106330339143
 20
443.2563302238109
 30
0.0
 40
7.5
  1
HLMN-32L-600~900-T90K
 41
0.8
100
AcDbText
  0
TEXT
  5
8E9
330
2
100
AcDbEntity
  8
TITLE
100
AcDbText
 10
689.770711284765
 20
443.2563302238109
 30
0.0
 40
7.5
  1
HLMN-32L-600~900-S90K
 41
0.8
100
AcDbText
  0
TEXT
  5
8EA
330
2
100
AcDbEntity
  8
TITLE
100
AcDbText
 10
689.770711284765
 20
431.2563302238109
 30
0.0
 40
7.5
  1
HLMN-32L-600~900-S90WK
 41
0.8
100
AcDbText
  0
TEXT
  5
8ED
330
2
100
AcDbEntity
  8
TITLE
100
AcDbText
 10
689.770711284765
 20
467.2563302238109
 30
0.0
 40
7.5
  1
HLMN-32L-1200~1800-S60K
 41
0.8
100
AcDbText
  0
TEXT
  5
8EE
330
2
100
AcDbEntity
  8
TITLE
100
AcDbText
 10
689.770711284765
 20
455.2563302238109
 30
0.0
 40
7.5
  1
HLMN-32L-1200~1800-S60WK
 41
0.8
100
AcDbText
  0
TEXT
  5
8EF
330
2
100
AcDbEntity
  8
TITLE
100
AcDbText
 10
689.770711284765
 20
479.2563302238108
 30
0.0
 40
7.5
  1
HLMN-32L-1200~1800-S40WK
 41
0.8
100
AcDbText
  0
TEXT
  5
8F0
330
2
100
AcDbEntity
  8
TITLE
100
AcDbText
 10
689.770711284765
 20
491.2563302238108
 30
0.0
 40
7.5
  1
HLMN-32L-1200~1800-S40K
 41
0.8
100
AcDbText
  0
LINE
  5
9AC
330
2
100
AcDbEntity
  8
0
100
AcDbLine
 10
367.9404009183917
 20
146.1585631112789
 30
0.0
 11
366.2156089183917
 21
143.9500981112789
 31
0.0
  0
LINE
  5
9AD
330
2
100
AcDbEntity
  8
0
100
AcDbLine
 10
366.2156089183917
 20
133.7576841112789
 30
0.0
 11
368.0481889183918
 21
131.9085631112789
 31
0.0
  0
LINE
  5
9AE
330
2
100
AcDbEntity
  8
CENTER
100
AcDbLine
 10
330.1432218726056
 20
207.9085631112789
 30
0.0
 11
440.2879859740587
 21
207.9085631112789
 31
0.0
  0
LINE
  5
9AF
330
2
100
AcDbEntity
  8
0
100
AcDbLine
 10
309.2156089183918
 20
67.90856711127898
 30
0.0
 11
461.2156089183918
 21
67.90856711127898
 31
0.0
  0
LINE
  5
9B0
330
2
100
AcDbEntity
  8
0
100
AcDbLine
 10
309.2156089183918
 20
85.90856711127898
 30
0.0
 11
461.2156089183918
 21
85.90856711127898
 31
0.0
  0
LINE
  5
9B1
330
2
100
AcDbEntity
  8
0
100
AcDbLine
 10
358.712190918392
 20
272.9085631112789
 30
0.0
 11
411.7189959183918
 21
272.9085631112789
 31
0.0
  0
CIRCLE
  5
9B2
330
2
100
AcDbEntity
  8
0
100
AcDbCircle
 10
385.2156089183918
 20
207.9085631112789
 30
0.0
 40
39.0
  0
ARC
  5
9B3
330
2
100
AcDbEntity
  8
0
100
AcDbCircle
 10
385.2156089183918
 20
207.9085631112789
 30
0.0
 40
44.0
100
AcDbArc
 50
12.52323999999984
 51
167.476898
  0
ARC
  5
9B4
330
2
100
AcDbEntity
  8
0
100
AcDbCircle
 10
385.2156089183918
 20
207.9085631112789
 30
0.0
 40
41.09999799999999
100
AcDbArc
 50
167.476898
 51
12.52323999999984
  0
LINE
  5
9B5
330
2
100
AcDbEntity
  8
0
100
AcDbLine
 10
359.7156089183918
 20
117.0085691112789
 30
0.0
 11
410.7156089183917
 21
117.0085691112789
 31
0.0
  0
LINE
  5
9B6
330
2
100
AcDbEntity
  8
0
100
AcDbLine
 10
410.7156089183917
 20
119.9085631112789
 30
0.0
 11
359.7156089183918
 21
119.9085631112789
 31
0.0
  0
LINE
  5
9B7
330
2
100
AcDbEntity
  8
0
100
AcDbLine
 10
408.9729939183919
 20
90.90856711127901
 30
0.0
 11
361.4581929183918
 21
90.90856711127901
 31
0.0
  0
LINE
  5
9B8
330
2
100
AcDbEntity
  8
0
100
AcDbLine
 10
312.6655599183918
 20
242.7941831112789
 30
0.0
 11
354.1622029183918
 21
271.4886261112789
 31
0.0
  0
LINE
  5
9B9
330
2
100
AcDbEntity
  8
0
100
AcDbLine
 10
71.71558291839187
 20
196.9085631112789
 30
0.0
 11
114.2156049183918
 21
196.9085631112789
 31
0.0
  0
LINE
  5
9BA
330
2
100
AcDbEntity
  8
0
100
AcDbLine
 10
114.2156049183918
 20
178.9085631112789
 30
0.0
 11
70.24057291839199
 21
178.9085631112789
 31
0.0
  0
LINE
  5
9BB
330
2
100
AcDbEntity
  8
0
100
AcDbLine
 10
71.71558291839187
 20
102.908567111279
 30
0.0
 11
114.2156049183918
 21
102.908567111279
 31
0.0
  0
LINE
  5
9BC
330
2
100
AcDbEntity
  8
0
100
AcDbLine
 10
114.2156049183918
 20
120.9085631112789
 30
0.0
 11
70.24057291839199
 21
120.9085631112789
 31
0.0
  0
LINE
  5
9BD
330
2
100
AcDbEntity
  8
CENTER
100
AcDbLine
 10
56.71559791839309
 20
149.9085631112789
 30
0.0
 11
342.1019609183918
 21
149.9085631112789
 31
0.0
  0
LINE
  5
9BE
330
2
100
AcDbEntity
  8
0
100
AcDbLine
 10
66.7156129183918
 20
191.9085631112789
 30
0.0
 11
66.71558291839187
 21
107.9085561112789
 31
0.0
  0
ARC
  5
9BF
330
2
100
AcDbEntity
  8
0
100
AcDbCircle
 10
71.71558291839187
 20
107.908567111279
 30
0.0
 40
5.0
100
AcDbArc
 50
180.0
 51
270.0
  0
ARC
  5
9C0
330
2
100
AcDbEntity
  8
0
100
AcDbCircle
 10
71.7156129183918
 20
191.9085631112789
 30
0.0
 40
5.0
100
AcDbArc
 50
90.0
 51
180.0
  0
LINE
  5
9C1
330
2
100
AcDbEntity
  8
CENTER
100
AcDbLine
 10
337.7156089183918
 20
90.90856711127901
 30
0.0
 11
337.7156089183918
 21
62.90856711127901
 31
0.0
  0
LINE
  5
9C2
330
2
100
AcDbEntity
  8
0
100
AcDbLine
 10
309.2156089183918
 20
94.40856711127901
 30
0.0
 11
309.2156089183918
 21
67.90856711127898
 31
0.0
  0
LINE
  5
9C3
330
2
100
AcDbEntity
  8
HIDS
100
AcDbLine
 10
331.2156089183918
 20
85.90856711127898
 30
0.0
 11
331.2156089183918
 21
67.90856711127898
 31
0.0
  0
LINE
  5
9C4
330
2
100
AcDbEntity
  8
HIDS
100
AcDbLine
 10
344.2156089183918
 20
85.90856711127898
 30
0.0
 11
344.2156089183918
 21
67.90856711127898
 31
0.0
  0
LINE
  5
9C5
330
2
100
AcDbEntity
  8
0
100
AcDbLine
 10
323.2156089183918
 20
83.84200611127898
 30
0.0
 11
323.2156089183918
 21
67.90856711127898
 31
0.0
  0
LINE
  5
9C6
330
2
100
AcDbEntity
  8
0
100
AcDbLine
 10
123.7156049183918
 20
194.9085631112789
 30
0.0
 11
242.7156089183918
 21
194.9085631112789
 31
0.0
  0
LINE
  5
9C7
330
2
100
AcDbEntity
  8
0
100
AcDbLine
 10
123.7156049183918
 20
104.908567111279
 30
0.0
 11
242.7156089183918
 21
104.908567111279
 31
0.0
  0
LINE
  5
9C8
330
2
100
AcDbEntity
  8
0
100
AcDbLine
 10
233.7156089183918
 20
192.9085631112789
 30
0.0
 11
233.7156089183918
 21
106.908548111279
 31
0.0
  0
LINE
  5
9C9
330
2
100
AcDbEntity
  8
0
100
AcDbLine
 10
114.2156049183918
 20
196.9085631112789
 30
0.0
 11
114.2156049183918
 21
102.908567111279
 31
0.0
  0
LINE
  5
9CA
330
2
100
AcDbEntity
  8
0
100
AcDbLine
 10
123.7156049183918
 20
104.908567111279
 30
0.0
 11
123.7156049183918
 21
194.9085631112789
 31
0.0
  0
LINE
  5
9CB
330
2
100
AcDbEntity
  8
0
100
AcDbLine
 10
123.7156049183918
 20
115.4992651112789
 30
0.0
 11
232.6779189183919
 21
115.4992651112789
 31
0.0
  0
LINE
  5
9CC
330
2
100
AcDbEntity
  8
0
100
AcDbLine
 10
123.7156049183918
 20
115.4992771112789
 30
0.0
 11
114.2156049183918
 21
115.4992771112789
 31
0.0
  0
LINE
  5
9CD
330
2
100
AcDbEntity
  8
0
100
AcDbLine
 10
114.2156049183918
 20
104.908567111279
 30
0.0
 11
123.7156049183918
 21
104.908567111279
 31
0.0
  0
ARC
  5
9CE
330
2
100
AcDbEntity
  8
0
100
AcDbCircle
 10
235.7156089183918
 20
106.908567111279
 30
0.0
 40
2.0
100
AcDbArc
 50
180.0
 51
270.0
  0
LINE
  5
9CF
330
2
100
AcDbEntity
  8
0
100
AcDbLine
 10
123.7156049183918
 20
184.3178651112789
 30
0.0
 11
232.6779189183919
 21
184.3178651112789
 31
0.0
  0
LINE
  5
9D0
330
2
100
AcDbEntity
  8
0
100
AcDbLine
 10
123.7156049183918
 20
184.3178651112789
 30
0.0
 11
114.2156049183918
 21
184.3178651112789
 31
0.0
  0
LINE
  5
9D1
330
2
100
AcDbEntity
  8
0
100
AcDbLine
 10
115.7156049183918
 20
178.4379671112789
 30
0.0
 11
115.7156049183918
 21
173.4223651112789
 31
0.0
  0
LINE
  5
9D2
330
2
100
AcDbEntity
  8
0
100
AcDbLine
 10
117.2156049183918
 20
178.4379671112789
 30
0.0
 11
117.2156049183918
 21
173.9379671112789
 31
0.0
  0
LINE
  5
9D3
330
2
100
AcDbEntity
  8
0
100
AcDbLine
 10
118.7156049183918
 20
178.4379671112789
 30
0.0
 11
118.7156049183918
 21
173.9379671112789
 31
0.0
  0
LINE
  5
9D4
330
2
100
AcDbEntity
  8
HOJO
100
AcDbLine
 10
115.7156049183918
 20
173.4379671112789
 30
0.0
 11
117.2156049183918
 21
173.9379671112789
 31
0.0
  0
LINE
  5
9D5
330
2
100
AcDbEntity
  8
HOJO
100
AcDbLine
 10
117.2156049183918
 20
174.4379671112789
 30
0.0
 11
118.7156049183918
 21
173.9379671112789
 31
0.0
  0
ARC
  5
9D6
330
2
100
AcDbEntity
  8
0
100
AcDbCircle
 10
114.2156049183918
 20
178.4379671112789
 30
0.0
 40
1.5
100
AcDbArc
 50
0.0
 51
90.0
  0
ARC
  5
9D7
330
2
100
AcDbEntity
  8
0
100
AcDbCircle
 10
114.2156049183918
 20
178.4379671112789
 30
0.0
 40
4.5
100
AcDbArc
 50
0.0
 51
90.0
  0
ARC
  5
9D8
330
2
100
AcDbEntity
  8
0
100
AcDbCircle
 10
114.2156049183918
 20
178.4379671112789
 30
0.0
 40
3.0
100
AcDbArc
 50
0.0
 51
90.0
  0
LINE
  5
9DA
330
2
100
AcDbEntity
  8
0
100
AcDbLine
 10
114.2156049183918
 20
194.9085631112789
 30
0.0
 11
123.7156049183918
 21
194.9085631112789
 31
0.0
  0
ARC
  5
9E4
330
2
100
AcDbEntity
  8
0
100
AcDbCircle
 10
235.7156089183918
 20
192.9085941112789
 30
0.0
 40
2.0
100
AcDbArc
 50
90.0
 51
180.0
  0
LINE
  5
9E5
330
2
100
AcDbEntity
  8
0
100
AcDbLine
 10
328.5746169183919
 20
155.8255711112789
 30
0.0
 11
342.2623919183918
 21
217.449274111279
 31
0.0
  0
LINE
  5
9E6
330
2
100
AcDbEntity
  8
0
100
AcDbLine
 10
331.4056109183918
 20
155.196756111279
 30
0.0
 11
345.0934159183919
 21
216.820444111279
 31
0.0
  0
LINE
  5
9E7
330
2
100
AcDbEntity
  8
0
100
AcDbLine
 10
309.2156089183918
 20
94.40856711127901
 30
0.0
 11
309.2156089183918
 21
231.4085631112789
 31
0.0
  0
ARC
  5
9E8
330
2
100
AcDbEntity
  8
0
100
AcDbCircle
 10
488.9244099183919
 20
162.9085631112789
 30
0.0
 40
185.2088929999999
100
AcDbArc
 50
166.0019069999989
 51
193.998093000001
  0
LINE
  5
9E9
330
2
100
AcDbEntity
  8
0
100
AcDbLine
 10
297.2156089183918
 20
226.9085631112789
 30
0.0
 11
297.2156089183918
 21
98.90856711127902
 31
0.0
  0
LINE
  5
9EA
330
2
100
AcDbEntity
  8
0
100
AcDbLine
 10
242.7156089183918
 20
194.9085631112789
 30
0.0
 11
242.7156089183918
 21
104.908567111279
 31
0.0
  0
LINE
  5
9EB
330
2
100
AcDbEntity
  8
0
100
AcDbLine
 10
288.7156089183918
 20
123.5562991112789
 30
0.0
 11
288.7156089183918
 21
224.9086851112789
 31
0.0
  0
LINE
  5
9EC
330
2
100
AcDbEntity
  8
CENTER
100
AcDbLine
 10
225.0391648900504
 20
162.9085631112789
 30
0.0
 11
316.8857984738165
 21
162.9085631112789
 31
0.0
  0
LINE
  5
9ED
330
2
100
AcDbEntity
  8
0
100
AcDbLine
 10
304.2156089183918
 20
98.90856711127902
 30
0.0
 11
297.2156089183918
 21
98.90856711127902
 31
0.0
  0
LINE
  5
9EE
330
2
100
AcDbEntity
  8
0
100
AcDbLine
 10
297.2156089183918
 20
103.0053841112789
 30
0.0
 11
242.7156089183918
 21
104.908567111279
 31
0.0
  0
LINE
  5
9EF
330
2
100
AcDbEntity
  8
0
100
AcDbLine
 10
242.7156089183918
 20
114.389566111279
 30
0.0
 11
297.2156089183918
 21
114.389566111279
 31
0.0
  0
LINE
  5
9F0
330
2
100
AcDbEntity
  8
0
100
AcDbLine
 10
290.7156089183918
 20
98.90846811127898
 30
0.0
 11
297.2156089183918
 21
98.90846811127898
 31
0.0
  0
ARC
  5
9F1
330
2
100
AcDbEntity
  8
0
100
AcDbCircle
 10
290.7156089183918
 20
100.9084681112789
 30
0.0
 40
2.0
100
AcDbArc
 50
180.2607729999994
 51
270.0
  0
ARC
  5
9F2
330
2
100
AcDbEntity
  8
0
100
AcDbCircle
 10
286.215653918392
 20
100.887987111279
 30
0.0
 40
2.5
100
AcDbArc
 50
0.2607730000011057
 51
88.00000000000284
  0
LINE
  5
9F3
330
2
100
AcDbEntity
  8
0
100
AcDbLine
 10
242.7156089183918
 20
129.4025671112789
 30
0.0
 11
286.7156089183918
 21
129.4025671112789
 31
0.0
  0
LINE
  5
9F4
330
2
100
AcDbEntity
  8
0
100
AcDbLine
 10
289.2835709183918
 20
122.3415701112789
 30
0.0
 11
297.2156089183918
 21
122.3415701112789
 31
0.0
  0
ARC
  5
9F5
330
2
100
AcDbEntity
  8
0
100
AcDbCircle
 10
359.7156089183918
 20
148.9085631112789
 30
0.0
 40
29.0
100
AcDbArc
 50
167.476898
 51
270.0
  0
ARC
  5
9F6
330
2
100
AcDbEntity
  8
0
100
AcDbCircle
 10
359.7156089183918
 20
148.9085631112789
 30
0.0
 40
31.89999999999999
100
AcDbArc
 50
167.476898
 51
270.0
  0
ARC
  5
9F7
330
2
100
AcDbEntity
  8
0
100
AcDbCircle
 10
304.2156239183918
 20
93.90854811127894
 30
0.0
 40
5.0
100
AcDbArc
 50
0.0
 51
90.0
  0
ARC
  5
9F8
330
2
100
AcDbEntity
  8
0
100
AcDbCircle
 10
361.4581929183918
 20
87.90856711127899
 30
0.0
 40
3.0
100
AcDbArc
 50
90.0
 51
135.0003050000002
  0
ARC
  5
9F9
330
2
100
AcDbEntity
  8
0
100
AcDbCircle
 10
359.2156089183918
 20
86.90856711127898
 30
0.0
 40
1.0
100
AcDbArc
 50
270.0
 51
0.0
  0
LINE
  5
9FA
330
2
100
AcDbEntity
  8
0
100
AcDbLine
 10
359.3370079183919
 20
90.02988611127898
 30
0.0
 11
356.6802079183919
 21
87.37306811127899
 31
0.0
  0
ARC
  5
9FB
330
2
100
AcDbEntity
  8
0
100
AcDbCircle
 10
353.1445939183918
 20
90.90856711127901
 30
0.0
 40
5.0
100
AcDbArc
 50
270.0
 51
315.0000920000004
  0
LINE
  5
9FC
330
2
100
AcDbEntity
  8
0
100
AcDbLine
 10
360.2156089183917
 20
89.972688111279
 30
0.0
 11
360.2156089183917
 21
86.90856711127898
 31
0.0
  0
LINE
  5
9FD
330
2
100
AcDbEntity
  8
0
100
AcDbLine
 10
366.2156089183917
 20
143.9500981112789
 30
0.0
 11
366.2156089183917
 21
133.7576841112789
 31
0.0
  0
LINE
  5
9FE
330
2
100
AcDbEntity
  8
0
100
AcDbLine
 10
304.2156089183918
 20
226.9085631112789
 30
0.0
 11
297.2156089183918
 21
226.9085631112789
 31
0.0
  0
LINE
  5
9FF
330
2
100
AcDbEntity
  8
0
100
AcDbLine
 10
242.7156089183918
 20
194.9085631112789
 30
0.0
 11
288.7156089183918
 21
196.5149171112789
 31
0.0
  0
LINE
  5
A00
330
2
100
AcDbEntity
  8
0
100
AcDbLine
 10
287.9833699183918
 20
202.6763401112789
 30
0.0
 11
282.2688619183918
 21
196.9618171112789
 31
0.0
  0
ARC
  5
A01
330
2
100
AcDbEntity
  8
0
100
AcDbCircle
 10
280.5010849183918
 20
198.7295931112789
 30
0.0
 40
2.5
100
AcDbArc
 50
271.999999999997
 51
315.0
  0
ARC
  5
A02
330
2
100
AcDbEntity
  8
0
100
AcDbCircle
 10
286.2156089183918
 20
204.444101111279
 30
0.0
 40
2.5
100
AcDbArc
 50
315.0
 51
0.0
  0
LINE
  5
A03
330
2
100
AcDbEntity
  8
0
100
AcDbLine
 10
290.7156089183918
 20
226.9086701112789
 30
0.0
 11
297.2156089183918
 21
226.9086701112789
 31
0.0
  0
ARC
  5
A04
330
2
100
AcDbEntity
  8
0
100
AcDbCircle
 10
290.7156239183919
 20
224.9086851112789
 30
0.0
 40
2.0
100
AcDbArc
 50
90.0
 51
180.0
  0
LINE
  5
A05
330
2
100
AcDbEntity
  8
0
100
AcDbLine
 10
309.2156089183918
 20
231.4085631112789
 30
0.0
 11
309.2156089183918
 21
236.2141211112789
 31
0.0
  0
ARC
  5
A06
330
2
100
AcDbEntity
  8
0
100
AcDbCircle
 10
304.2155779183917
 20
231.9085631112789
 30
0.0
 40
5.0
100
AcDbArc
 50
270.0
 51
0.0
  0
ARC
  5
A07
330
2
100
AcDbEntity
  8
0
100
AcDbCircle
 10
317.2156089183918
 20
236.214166111279
 30
0.0
 40
8.0
100
AcDbArc
 50
124.6638029999975
 51
180.0
  0
ARC
  5
A08
330
2
100
AcDbEntity
  8
0
100
AcDbCircle
 10
358.712190918392
 20
264.9085631112789
 30
0.0
 40
8.0
100
AcDbArc
 50
90.0
 51
124.6636959999983
  0
LINE
  5
A09
330
2
100
AcDbEntity
  8
0
100
AcDbLine
 10
457.7655959183918
 20
242.7941831112789
 30
0.0
 11
416.2690139183919
 21
271.4886261112789
 31
0.0
  0
LINE
  5
A0A
330
2
100
AcDbEntity
  8
CENTER
100
AcDbLine
 10
385.2156089183919
 20
282.9085631112789
 30
0.0
 11
385.2156089183918
 21
57.90856711127898
 31
0.0
  0
LINE
  5
A0B
330
2
100
AcDbEntity
  8
CENTER
100
AcDbLine
 10
432.7156089183918
 20
90.90856711127901
 30
0.0
 11
432.7156089183918
 21
62.90856711127895
 31
0.0
  0
LINE
  5
A0C
330
2
100
AcDbEntity
  8
HIDS
100
AcDbLine
 10
426.2156089183918
 20
85.90856711127898
 30
0.0
 11
426.2156089183918
 21
67.90856711127898
 31
0.0
  0
LINE
  5
A0D
330
2
100
AcDbEntity
  8
HIDS
100
AcDbLine
 10
439.2156089183917
 20
85.90856711127898
 30
0.0
 11
439.2156089183917
 21
67.90856711127898
 31
0.0
  0
LINE
  5
A0E
330
2
100
AcDbEntity
  8
0
100
AcDbLine
 10
447.2156089183918
 20
83.84200611127898
 30
0.0
 11
447.2156089183918
 21
67.90856711127898
 31
0.0
  0
LINE
  5
A0F
330
2
100
AcDbEntity
  8
0
100
AcDbLine
 10
461.2156089183918
 20
236.2141211112789
 30
0.0
 11
461.2156089183918
 21
67.90856711127898
 31
0.0
  0
LINE
  5
A10
330
2
100
AcDbEntity
  8
0
100
AcDbLine
 10
428.1687949183918
 20
217.4493501112789
 30
0.0
 11
441.8565999183918
 21
155.8256321112789
 31
0.0
  0
LINE
  5
A11
330
2
100
AcDbEntity
  8
0
100
AcDbLine
 10
425.3378009183918
 20
216.8205201112789
 30
0.0
 11
439.0256059183919
 21
155.1968091112789
 31
0.0
  0
ARC
  5
A12
330
2
100
AcDbEntity
  8
0
100
AcDbCircle
 10
410.7156089183917
 20
148.9085631112789
 30
0.0
 40
29.0
100
AcDbArc
 50
270.0
 51
12.52323999999984
  0
ARC
  5
A13
330
2
100
AcDbEntity
  8
0
100
AcDbCircle
 10
410.7156089183917
 20
148.9085631112789
 30
0.0
 40
31.89999999999999
100
AcDbArc
 50
270.0
 51
12.52323999999984
  0
ARC
  5
A14
330
2
100
AcDbEntity
  8
0
100
AcDbCircle
 10
417.2865929183918
 20
90.90856711127901
 30
0.0
 40
5.0
100
AcDbArc
 50
225.0
 51
270.0
  0
ARC
  5
A15
330
2
100
AcDbEntity
  8
0
100
AcDbCircle
 10
408.9729939183919
 20
87.90856711127899
 30
0.0
 40
3.0
100
AcDbArc
 50
45.00015999999781
 51
90.0
  0
ARC
  5
A16
330
2
100
AcDbEntity
  8
0
100
AcDbCircle
 10
411.2156089183917
 20
86.90856711127898
 30
0.0
 40
1.0
100
AcDbArc
 50
180.0
 51
270.0
  0
LINE
  5
A17
330
2
100
AcDbEntity
  8
0
100
AcDbLine
 10
411.0942099183919
 20
90.02988611127898
 30
0.0
 11
413.7511919183919
 21
87.37302611127899
 31
0.0
  0
LINE
  5
A18
330
2
100
AcDbEntity
  8
0
100
AcDbLine
 10
410.2156089183917
 20
89.972688111279
 30
0.0
 11
410.2156089183917
 21
86.90856711127898
 31
0.0
  0
LINE
  5
A19
330
2
100
AcDbEntity
  8
0
100
AcDbLine
 10
394.7156089183918
 20
146.1585631112789
 30
0.0
 11
400.4118059183919
 21
146.1585631112789
 31
0.0
  0
LINE
  5
A1A
330
2
100
AcDbEntity
  8
0
100
AcDbLine
 10
400.7113969183918
 20
140.0537281112789
 30
0.0
 11
397.0535909183918
 21
140.0537281112789
 31
0.0
  0
LINE
  5
A1B
330
2
100
AcDbEntity
  8
0
100
AcDbLine
 10
397.0535909183918
 20
144.4144301112789
 30
0.0
 11
401.4866049183917
 21
144.411539111279
 31
0.0
  0
LINE
  5
A1C
330
2
100
AcDbEntity
  8
0
100
AcDbLine
 10
400.0942099183919
 20
138.5697041112789
 30
0.0
 11
402.3222069183918
 21
133.392946111279
 31
0.0
  0
LINE
  5
A1D
330
2
100
AcDbEntity
  8
0
100
AcDbLine
 10
397.0535909183918
 20
144.4144301112789
 30
0.0
 11
397.0535909183918
 21
140.0537281112789
 31
0.0
  0
LINE
  5
A1E
330
2
100
AcDbEntity
  8
0
100
AcDbLine
 10
395.4208089183919
 20
144.4144301112789
 30
0.0
 11
395.4208089183919
 21
133.392946111279
 31
0.0
  0
LINE
  5
A1F
330
2
100
AcDbEntity
  8
0
100
AcDbLine
 10
384.2878129183919
 20
144.4144301112789
 30
0.0
 11
384.2878129183919
 21
133.4671651112789
 31
0.0
  0
LINE
  5
A20
330
2
100
AcDbEntity
  8
0
100
AcDbLine
 10
386.0692159183918
 20
144.4144301112789
 30
0.0
 11
386.0692159183918
 21
133.4671651112789
 31
0.0
  0
LINE
  5
A21
330
2
100
AcDbEntity
  8
0
100
AcDbLine
 10
367.8114029183918
 20
142.935991111279
 30
0.0
 11
367.8114029183918
 21
134.7264041112789
 31
0.0
  0
LINE
  5
A22
330
2
100
AcDbEntity
  8
0
100
AcDbLine
 10
383.5827959183918
 20
133.4671651112789
 30
0.0
 11
384.2878129183919
 21
133.4671651112789
 31
0.0
  0
LINE
  5
A23
330
2
100
AcDbEntity
  8
0
100
AcDbLine
 10
383.5827959183918
 20
131.9085631112789
 30
0.0
 11
386.6628129183918
 21
131.9085631112789
 31
0.0
  0
LINE
  5
A24
330
2
100
AcDbEntity
  8
0
100
AcDbLine
 10
371.8562029183917
 20
140.1839691112789
 30
0.0
 11
375.7156089183918
 21
140.1839691112789
 31
0.0
  0
LINE
  5
A25
330
2
100
AcDbEntity
  8
0
100
AcDbLine
 10
374.3425919183919
 20
131.9085631112789
 30
0.0
 11
375.7156089183918
 21
131.9085631112789
 31
0.0
  0
LINE
  5
A26
330
2
100
AcDbEntity
  8
0
100
AcDbLine
 10
374.3425919183919
 20
138.6253681112789
 30
0.0
 11
371.8562029183917
 21
138.6253681112789
 31
0.0
  0
LINE
  5
A27
330
2
100
AcDbEntity
  8
0
100
AcDbLine
 10
371.8562029183917
 20
140.1839691112789
 30
0.0
 11
371.8562029183917
 21
138.6253681112789
 31
0.0
  0
LINE
  5
A28
330
2
100
AcDbEntity
  8
0
100
AcDbLine
 10
374.3425919183919
 20
133.0444891112789
 30
0.0
 11
374.3425919183919
 21
131.9085631112789
 31
0.0
  0
LINE
  5
A29
330
2
100
AcDbEntity
  8
0
100
AcDbLine
 10
374.3425919183919
 20
133.0444891112789
 30
0.0
 11
372.9885879183918
 21
131.9085631112789
 31
0.0
  0
LINE
  5
A2A
330
2
100
AcDbEntity
  8
0
100
AcDbLine
 10
367.8114029183918
 20
134.7264041112789
 30
0.0
 11
368.9012169183918
 21
133.5784851112789
 31
0.0
  0
LINE
  5
A2B
330
2
100
AcDbEntity
  8
0
100
AcDbLine
 10
371.3738119183917
 20
133.5784851112789
 30
0.0
 11
368.9012169183918
 21
133.5784851112789
 31
0.0
  0
LINE
  5
A2C
330
2
100
AcDbEntity
  8
0
100
AcDbLine
 10
372.9885879183918
 20
131.9085631112789
 30
0.0
 11
368.0481889183918
 21
131.9085631112789
 31
0.0
  0
ARC
  5
A2D
330
2
100
AcDbEntity
  8
0
100
AcDbCircle
 10
371.3738119183917
 20
136.5472281112789
 30
0.0
 40
2.96875
100
AcDbArc
 50
270.0002140000007
 51
0.0001089999998967
  0
LINE
  5
A2E
330
2
100
AcDbEntity
  8
0
100
AcDbLine
 10
374.3425919183919
 20
137.1409851112789
 30
0.0
 11
374.3425919183919
 21
138.3284851112789
 31
0.0
  0
LINE
  5
A2F
330
2
100
AcDbEntity
  8
0
100
AcDbLine
 10
374.3425919183919
 20
138.6253681112789
 30
0.0
 11
374.3425919183919
 21
136.5472281112789
 31
0.0
  0
LINE
  5
A30
330
2
100
AcDbEntity
  8
0
100
AcDbLine
 10
383.5827959183918
 20
133.4671651112789
 30
0.0
 11
383.5827959183918
 21
131.9085631112789
 31
0.0
  0
LINE
  5
A31
330
2
100
AcDbEntity
  8
0
100
AcDbLine
 10
375.7156089183918
 20
140.1839691112789
 30
0.0
 11
375.7156089183918
 21
131.9085631112789
 31
0.0
  0
LINE
  5
A32
330
2
100
AcDbEntity
  8
0
100
AcDbLine
 10
386.0692159183918
 20
133.4671651112789
 30
0.0
 11
386.6628129183918
 21
133.4671651112789
 31
0.0
  0
LINE
  5
A33
330
2
100
AcDbEntity
  8
0
100
AcDbLine
 10
386.6628129183918
 20
133.4671651112789
 30
0.0
 11
386.6628129183918
 21
131.9085631112789
 31
0.0
  0
LINE
  5
A34
330
2
100
AcDbEntity
  8
0
100
AcDbLine
 10
397.0535909183918
 20
138.5697041112789
 30
0.0
 11
400.0942099183919
 21
138.5697041112789
 31
0.0
  0
LINE
  5
A35
330
2
100
AcDbEntity
  8
0
100
AcDbLine
 10
394.7156089183918
 20
133.392946111279
 30
0.0
 11
395.4208089183919
 21
133.392946111279
 31
0.0
  0
LINE
  5
A36
330
2
100
AcDbEntity
  8
0
100
AcDbLine
 10
397.0535909183918
 20
133.392946111279
 30
0.0
 11
397.7030049183917
 21
133.392946111279
 31
0.0
  0
LINE
  5
A37
330
2
100
AcDbEntity
  8
0
100
AcDbLine
 10
397.7030049183917
 20
131.9085631112789
 30
0.0
 11
394.7156089183918
 21
131.9085631112789
 31
0.0
  0
LINE
  5
A38
330
2
100
AcDbEntity
  8
0
100
AcDbLine
 10
397.7030049183917
 20
133.392946111279
 30
0.0
 11
397.7030049183917
 21
131.9085631112789
 31
0.0
  0
LINE
  5
A39
330
2
100
AcDbEntity
  8
0
100
AcDbLine
 10
394.7156089183918
 20
133.392946111279
 30
0.0
 11
394.7156089183918
 21
131.9085631112789
 31
0.0
  0
LINE
  5
A3A
330
2
100
AcDbEntity
  8
0
100
AcDbLine
 10
397.0535909183918
 20
138.5697041112789
 30
0.0
 11
397.0535909183918
 21
133.392946111279
 31
0.0
  0
LINE
  5
A3B
330
2
100
AcDbEntity
  8
0
100
AcDbLine
 10
384.2878129183919
 20
144.4144301112789
 30
0.0
 11
382.0303979183918
 21
144.4144301112789
 31
0.0
  0
LINE
  5
A3C
330
2
100
AcDbEntity
  8
0
100
AcDbLine
 10
380.4656089183918
 20
146.1585631112789
 30
0.0
 11
389.9656089183918
 21
146.1585631112789
 31
0.0
  0
LINE
  5
A3D
330
2
100
AcDbEntity
  8
0
100
AcDbLine
 10
374.3284019183918
 20
146.1585631112789
 30
0.0
 11
375.7156089183918
 21
144.6189821112789
 31
0.0
  0
LINE
  5
A3E
330
2
100
AcDbEntity
  8
0
100
AcDbLine
 10
374.3425919183919
 20
143.1898131112789
 30
0.0
 11
375.7156089183918
 21
143.1898131112789
 31
0.0
  0
LINE
  5
A3F
330
2
100
AcDbEntity
  8
0
100
AcDbLine
 10
374.3425919183919
 20
143.4144301112789
 30
0.0
 11
373.4436059183917
 21
144.2659851112789
 31
0.0
  0
LINE
  5
A40
330
2
100
AcDbEntity
  8
0
100
AcDbLine
 10
374.3425919183919
 20
143.4144301112789
 30
0.0
 11
374.3425919183919
 21
143.1898131112789
 31
0.0
  0
LINE
  5
A41
330
2
100
AcDbEntity
  8
0
100
AcDbLine
 10
368.8840049183918
 20
144.2659851112789
 30
0.0
 11
367.8114029183918
 21
142.935991111279
 31
0.0
  0
LINE
  5
A42
330
2
100
AcDbEntity
  8
0
100
AcDbLine
 10
373.4616109183919
 20
144.2659851112789
 30
0.0
 11
368.8840049183918
 21
144.2659851112789
 31
0.0
  0
LINE
  5
A43
330
2
100
AcDbEntity
  8
0
100
AcDbLine
 10
367.9404009183917
 20
146.1585631112789
 30
0.0
 11
374.3284019183918
 21
146.1585631112789
 31
0.0
  0
LINE
  5
A44
330
2
100
AcDbEntity
  8
0
100
AcDbLine
 10
380.4656089183918
 20
143.1898131112789
 30
0.0
 11
380.4656089183918
 21
146.1585631112789
 31
0.0
  0
LINE
  5
A45
330
2
100
AcDbEntity
  8
0
100
AcDbLine
 10
380.4656089183918
 20
143.1898131112789
 30
0.0
 11
381.5202049183918
 21
143.1898131112789
 31
0.0
  0
LINE
  5
A46
330
2
100
AcDbEntity
  8
0
100
AcDbLine
 10
382.0303979183918
 20
144.4144301112789
 30
0.0
 11
381.5202049183918
 21
143.1898131112789
 31
0.0
  0
LINE
  5
A47
330
2
100
AcDbEntity
  8
0
100
AcDbLine
 10
375.7156089183918
 20
144.6189821112789
 30
0.0
 11
375.7156089183918
 21
143.1898131112789
 31
0.0
  0
LINE
  5
A48
330
2
100
AcDbEntity
  8
0
100
AcDbLine
 10
389.9656089183918
 20
143.1898131112789
 30
0.0
 11
389.9656089183918
 21
146.1585631112789
 31
0.0
  0
LINE
  5
A49
330
2
100
AcDbEntity
  8
0
100
AcDbLine
 10
388.9746109183917
 20
143.1898131112789
 30
0.0
 11
389.9656089183918
 21
143.1898131112789
 31
0.0
  0
LINE
  5
A4A
330
2
100
AcDbEntity
  8
0
100
AcDbLine
 10
388.5444049183918
 20
144.4144301112789
 30
0.0
 11
388.9746109183917
 21
143.1898131112789
 31
0.0
  0
LINE
  5
A4B
330
2
100
AcDbEntity
  8
0
100
AcDbLine
 10
386.0692159183918
 20
144.4144301112789
 30
0.0
 11
388.5444049183918
 21
144.4144301112789
 31
0.0
  0
LINE
  5
A4C
330
2
100
AcDbEntity
  8
0
100
AcDbLine
 10
394.7156089183918
 20
146.1585631112789
 30
0.0
 11
394.7156089183918
 21
144.4144301112789
 31
0.0
  0
LINE
  5
A4D
330
2
100
AcDbEntity
  8
0
100
AcDbLine
 10
394.7156089183918
 20
144.4144301112789
 30
0.0
 11
395.4208089183919
 21
144.4144301112789
 31
0.0
  0
ARC
  5
A4E
330
2
100
AcDbEntity
  8
0
100
AcDbCircle
 10
400.4118059183919
 20
142.3548451112789
 30
0.0
 40
3.803712
100
AcDbArc
 50
286.0181269999971
 51
90.00350999999719
  0
ARC
  5
A4F
330
2
100
AcDbEntity
  8
0
100
AcDbCircle
 10
400.4118059183919
 20
142.3548451112789
 30
0.0
 40
2.320524
100
AcDbArc
 50
277.4147260000004
 51
62.41184999999839
  0
LINE
  5
A50
330
2
100
AcDbEntity
  8
0
100
AcDbLine
 10
402.0262169183918
 20
133.392946111279
 30
0.0
 11
402.3222069183918
 21
133.392946111279
 31
0.0
  0
LINE
  5
A51
330
2
100
AcDbEntity
  8
0
100
AcDbLine
 10
403.8157979183917
 20
133.392946111279
 30
0.0
 11
404.2156089183918
 21
133.392946111279
 31
0.0
  0
LINE
  5
A52
330
2
100
AcDbEntity
  8
0
100
AcDbLine
 10
402.0262169183918
 20
131.9085631112789
 30
0.0
 11
404.2156089183918
 21
131.9085631112789
 31
0.0
  0
LINE
  5
A53
330
2
100
AcDbEntity
  8
0
100
AcDbLine
 10
404.2156089183918
 20
133.392946111279
 30
0.0
 11
404.2156089183918
 21
131.9085631112789
 31
0.0
  0
LINE
  5
A54
330
2
100
AcDbEntity
  8
0
100
AcDbLine
 10
402.0262169183918
 20
133.392946111279
 30
0.0
 11
402.0262169183918
 21
131.9085631112789
 31
0.0
  0
LINE
  5
A55
330
2
100
AcDbEntity
  8
0
100
AcDbLine
 10
401.4613969183918
 20
138.698824111279
 30
0.0
 11
403.8157979183917
 21
133.392946111279
 31
0.0
  0
LINE
  5
A56
330
2
100
AcDbEntity
  8
HIDS
100
AcDbLine
 10
396.2156089183918
 20
202.9086091112789
 30
0.0
 11
396.2156089183918
 21
212.9086091112789
 31
0.0
  0
LINE
  5
A57
330
2
100
AcDbEntity
  8
HIDS
100
AcDbLine
 10
404.2156089183918
 20
202.9086241112789
 30
0.0
 11
404.2156089183918
 21
212.9086241112789
 31
0.0
  0
ARC
  5
A58
330
2
100
AcDbEntity
  8
HIDS
100
AcDbCircle
 10
385.2156089183918
 20
207.9085631112789
 30
0.0
 40
16.0
100
AcDbArc
 50
18.20990000000007
 51
341.7900999999999
  0
LINE
  5
A59
330
2
100
AcDbEntity
  8
HIDS
100
AcDbLine
 10
404.2156089183918
 20
202.9086241112789
 30
0.0
 11
396.2156089183918
 21
202.9086091112789
 31
0.0
  0
LINE
  5
A5A
330
2
100
AcDbEntity
  8
HIDS
100
AcDbLine
 10
404.2156089183918
 20
212.9086241112789
 30
0.0
 11
396.2156089183918
 21
212.9086091112789
 31
0.0
  0
ARC
  5
A5B
330
2
100
AcDbEntity
  8
0
100
AcDbCircle
 10
453.2156089183918
 20
236.214090111279
 30
0.0
 40
8.0
100
AcDbArc
 50
0.0
 51
55.33673900000156
  0
ARC
  5
A5C
330
2
100
AcDbEntity
  8
0
100
AcDbCircle
 10
411.7189959183918
 20
264.9085631112789
 30
0.0
 40
8.0
100
AcDbArc
 50
55.33668899999984
 51
90.0
  0
ARC
  5
15A7
330
2
100
AcDbEntity
  8
0
100
AcDbCircle
 10
595.8034981110637
 20
162.9085561112789
 30
0.0
 40
63.5
100
AcDbArc
 50
330.0133473936955
 51
12.47825543178415
  0
ARC
  5
15A8
330
2
100
AcDbEntity
  8
0
100
AcDbCircle
 10
595.8034981110637
 20
162.9085561112789
 30
0.0
 40
63.5
100
AcDbArc
 50
167.5216944567999
 51
209.9866742701368
  0
LINE
  5
1F1C
330
2
100
AcDbEntity
  8
0
100
AcDbLine
 10
162.7154069183918
 20
483.466486111279
 30
0.0
 11
162.7154069183918
 21
448.4664861112789
 31
0.0
  0
LINE
  5
1F1D
330
2
100
AcDbEntity
  8
0
100
AcDbLine
 10
116.7154979183918
 20
483.466486111279
 30
0.0
 11
116.7154979183918
 21
448.4664861112789
 31
0.0
  0
LINE
  5
1F1E
330
2
100
AcDbEntity
  8
0
100
AcDbLine
 10
114.7154979183918
 20
442.9664861112789
 30
0.0
 11
114.7154979183918
 21
488.9664861112789
 31
0.0
  0
LINE
  5
1F1F
330
2
100
AcDbEntity
  8
0
100
AcDbLine
 10
164.7156049183918
 20
488.9664861112789
 30
0.0
 11
164.7154069183918
 21
442.9664861112789
 31
0.0
  0
LINE
  5
1F20
330
2
100
AcDbEntity
  8
CENTER
100
AcDbLine
 10
139.7156049183918
 20
430.9228791300705
 30
0.0
 11
139.7156049183918
 21
501.0100930924875
 31
0.0
  0
LINE
  5
1F21
330
2
100
AcDbEntity
  8
0
100
AcDbLine
 10
157.2154069183918
 20
442.9664861112789
 30
0.0
 11
122.2154979183918
 21
442.9664861112789
 31
0.0
  0
LINE
  5
1F22
330
2
100
AcDbEntity
  8
0
100
AcDbLine
 10
116.7154979183918
 20
440.966486111279
 30
0.0
 11
162.7154069183918
 21
440.966486111279
 31
0.0
  0
ARC
  5
1F23
330
2
100
AcDbEntity
  8
0
100
AcDbCircle
 10
118.2154979183918
 20
444.4663941112789
 30
0.0
 40
4.0
100
AcDbArc
 50
0.0
 51
90.0
  0
LINE
  5
1F24
330
2
100
AcDbEntity
  8
0
100
AcDbLine
 10
118.2154979183918
 20
448.4664861112789
 30
0.0
 11
114.7154979183918
 21
448.4664861112789
 31
0.0
  0
LINE
  5
1F25
330
2
100
AcDbEntity
  8
0
100
AcDbLine
 10
114.7154979183918
 20
442.9664861112789
 30
0.0
 11
116.7154979183918
 21
440.966486111279
 31
0.0
  0
CIRCLE
  5
1F26
330
2
100
AcDbEntity
  8
0
100
AcDbCircle
 10
118.2154979183918
 20
444.4663941112789
 30
0.0
 40
3.500000000000028
  0
ARC
  5
1F27
330
2
100
AcDbEntity
  8
0
100
AcDbCircle
 10
118.2154979183918
 20
444.4663941112789
 30
0.0
 40
2.049999999999998
100
AcDbArc
 50
0.0
 51
8.061960083981649
  0
ARC
  5
1F28
330
2
100
AcDbEntity
  8
0
100
AcDbCircle
 10
116.1857979183916
 20
446.4960941112789
 30
0.0
 40
1.742199999999999
100
AcDbArc
 50
269.9986903345067
 51
0.0013096654997424
  0
ARC
  5
1F29
330
2
100
AcDbEntity
  8
0
100
AcDbCircle
 10
118.2154979183918
 20
444.4663941112789
 30
0.0
 40
2.049999999999998
100
AcDbArc
 50
171.9380399160183
 51
180.0
  0
ARC
  5
1F2A
330
2
100
AcDbEntity
  8
0
100
AcDbCircle
 10
120.2451979183917
 20
446.4960941112789
 30
0.0
 40
1.742199999999999
100
AcDbArc
 50
179.9986903345002
 51
270.0013096654997
  0
ARC
  5
1F2B
330
2
100
AcDbEntity
  8
0
100
AcDbCircle
 10
116.1857979183916
 20
442.436694111279
 30
0.0
 40
1.742199999999999
100
AcDbArc
 50
359.9986903345002
 51
90.00130966549322
  0
ARC
  5
1F2C
330
2
100
AcDbEntity
  8
0
100
AcDbCircle
 10
120.2451979183917
 20
442.436694111279
 30
0.0
 40
1.742199999999999
100
AcDbArc
 50
89.99869033450025
 51
180.0013096654997
  0
ARC
  5
1F2D
330
2
100
AcDbEntity
  8
0
100
AcDbCircle
 10
118.2154979183918
 20
444.4663941112789
 30
0.0
 40
2.049999999999998
100
AcDbArc
 50
261.9380399160178
 51
270.0
  0
ARC
  5
1F2E
330
2
100
AcDbEntity
  8
0
100
AcDbCircle
 10
118.2154979183918
 20
444.4663941112789
 30
0.0
 40
2.049999999999998
100
AcDbArc
 50
270.0
 51
278.061960083982
  0
ARC
  5
1F2F
330
2
100
AcDbEntity
  8
0
100
AcDbCircle
 10
118.2154979183918
 20
444.4663941112789
 30
0.0
 40
2.049999999999998
100
AcDbArc
 50
351.9380399160183
 51
0.0
  0
ARC
  5
1F30
330
2
100
AcDbEntity
  8
0
100
AcDbCircle
 10
118.2154979183918
 20
444.4663941112789
 30
0.0
 40
2.049999999999998
100
AcDbArc
 50
180.0
 51
188.0619600839816
  0
LINE
  5
1F31
330
2
100
AcDbEntity
  8
0
100
AcDbLine
 10
122.2154979183918
 20
444.4663941112789
 30
0.0
 11
122.2154979183918
 21
440.966486111279
 31
0.0
  0
ARC
  5
1F32
330
2
100
AcDbEntity
  8
0
100
AcDbCircle
 10
118.2154979183918
 20
444.4663941112789
 30
0.0
 40
2.049999999999998
100
AcDbArc
 50
90.0
 51
98.06196008398211
  0
ARC
  5
1F33
330
2
100
AcDbEntity
  8
0
100
AcDbCircle
 10
118.2154979183918
 20
444.4663941112789
 30
0.0
 40
2.049999999999998
100
AcDbArc
 50
81.93803991601789
 51
90.0
  0
ARC
  5
1F34
330
2
100
AcDbEntity
  8
0
100
AcDbCircle
 10
161.2156049183918
 20
444.4663941112789
 30
0.0
 40
4.0
100
AcDbArc
 50
90.0
 51
180.0
  0
ARC
  5
1F35
330
2
100
AcDbEntity
  8
0
100
AcDbCircle
 10
159.1859049183917
 20
446.4960941112789
 30
0.0
 40
1.742199999999999
100
AcDbArc
 50
269.9986903345067
 51
0.0013096654997424
  0
ARC
  5
1F36
330
2
100
AcDbEntity
  8
0
100
AcDbCircle
 10
159.1859049183917
 20
442.436694111279
 30
0.0
 40
1.742199999999999
100
AcDbArc
 50
359.9986903345002
 51
90.00130966549322
  0
CIRCLE
  5
1F37
330
2
100
AcDbEntity
  8
0
100
AcDbCircle
 10
161.2156049183918
 20
444.4663941112789
 30
0.0
 40
3.500000000000028
  0
ARC
  5
1F38
330
2
100
AcDbEntity
  8
0
100
AcDbCircle
 10
161.2156049183918
 20
444.4663941112789
 30
0.0
 40
2.049999999999998
100
AcDbArc
 50
171.9380399160183
 51
180.0
  0
LINE
  5
1F39
330
2
100
AcDbEntity
  8
0
100
AcDbLine
 10
157.2154069183918
 20
444.4663941112789
 30
0.0
 11
157.2154069183918
 21
440.966486111279
 31
0.0
  0
ARC
  5
1F3A
330
2
100
AcDbEntity
  8
0
100
AcDbCircle
 10
161.2156049183918
 20
444.4663941112789
 30
0.0
 40
2.049999999999998
100
AcDbArc
 50
180.0
 51
188.0619600839816
  0
LINE
  5
1F3B
330
2
100
AcDbEntity
  8
0
100
AcDbLine
 10
161.2154069183918
 20
448.4664861112789
 30
0.0
 11
164.7154069183918
 21
448.4664861112789
 31
0.0
  0
ARC
  5
1F3C
330
2
100
AcDbEntity
  8
0
100
AcDbCircle
 10
161.2156049183918
 20
444.4663941112789
 30
0.0
 40
2.049999999999998
100
AcDbArc
 50
0.0
 51
8.061960083981649
  0
ARC
  5
1F3D
330
2
100
AcDbEntity
  8
0
100
AcDbCircle
 10
163.2453049183918
 20
446.4960941112789
 30
0.0
 40
1.742199999999999
100
AcDbArc
 50
179.9986903345002
 51
270.0013096654997
  0
ARC
  5
1F3E
330
2
100
AcDbEntity
  8
0
100
AcDbCircle
 10
163.2453049183918
 20
442.436694111279
 30
0.0
 40
1.742199999999999
100
AcDbArc
 50
89.99869033450025
 51
180.0013096654997
  0
ARC
  5
1F3F
330
2
100
AcDbEntity
  8
0
100
AcDbCircle
 10
161.2156049183918
 20
444.4663941112789
 30
0.0
 40
2.049999999999998
100
AcDbArc
 50
270.0
 51
278.061960083982
  0
ARC
  5
1F40
330
2
100
AcDbEntity
  8
0
100
AcDbCircle
 10
161.2156049183918
 20
444.4663941112789
 30
0.0
 40
2.049999999999998
100
AcDbArc
 50
261.9380399160178
 51
270.0
  0
ARC
  5
1F41
330
2
100
AcDbEntity
  8
0
100
AcDbCircle
 10
161.2156049183918
 20
444.4663941112789
 30
0.0
 40
2.049999999999998
100
AcDbArc
 50
351.9380399160183
 51
0.0
  0
LINE
  5
1F42
330
2
100
AcDbEntity
  8
0
100
AcDbLine
 10
164.7154069183918
 20
442.9664861112789
 30
0.0
 11
162.7154069183918
 21
440.966486111279
 31
0.0
  0
LINE
  5
1F43
330
2
100
AcDbEntity
  8
0
100
AcDbLine
 10
162.7154069183918
 20
440.966486111279
 30
0.0
 11
164.7154069183918
 21
442.9664861112789
 31
0.0
  0
ARC
  5
1F44
330
2
100
AcDbEntity
  8
0
100
AcDbCircle
 10
161.2156049183918
 20
444.4663941112789
 30
0.0
 40
2.049999999999998
100
AcDbArc
 50
81.93803991601789
 51
90.0
  0
ARC
  5
1F45
330
2
100
AcDbEntity
  8
0
100
AcDbCircle
 10
161.2156049183918
 20
444.4663941112789
 30
0.0
 40
2.049999999999998
100
AcDbArc
 50
90.0
 51
98.06196008398211
  0
LINE
  5
1F46
330
2
100
AcDbEntity
  8
0
100
AcDbLine
 10
116.7154979183918
 20
490.966486111279
 30
0.0
 11
162.7154069183918
 21
490.966486111279
 31
0.0
  0
LINE
  5
1F47
330
2
100
AcDbEntity
  8
0
100
AcDbLine
 10
157.2154069183918
 20
488.9664861112789
 30
0.0
 11
122.2154979183918
 21
488.9664861112789
 31
0.0
  0
LINE
  5
1F48
330
2
100
AcDbEntity
  8
0
100
AcDbLine
 10
118.2154979183918
 20
483.466486111279
 30
0.0
 11
114.7154979183918
 21
483.466486111279
 31
0.0
  0
CIRCLE
  5
1F49
330
2
100
AcDbEntity
  8
0
100
AcDbCircle
 10
118.2154979183918
 20
487.466486111279
 30
0.0
 40
3.500000000000028
  0
LINE
  5
1F4A
330
2
100
AcDbEntity
  8
0
100
AcDbLine
 10
114.7154979183918
 20
488.9664861112789
 30
0.0
 11
116.7154979183918
 21
490.966486111279
 31
0.0
  0
LINE
  5
1F4B
330
2
100
AcDbEntity
  8
0
100
AcDbLine
 10
114.7154979183918
 20
488.9664861112789
 30
0.0
 11
116.7154979183918
 21
490.966486111279
 31
0.0
  0
ARC
  5
1F4C
330
2
100
AcDbEntity
  8
0
100
AcDbCircle
 10
118.2154979183918
 20
487.466486111279
 30
0.0
 40
2.049999999999998
100
AcDbArc
 50
90.0
 51
98.06196008398211
  0
ARC
  5
1F4D
330
2
100
AcDbEntity
  8
0
100
AcDbCircle
 10
118.2154979183918
 20
487.466486111279
 30
0.0
 40
2.049999999999998
100
AcDbArc
 50
81.93803991601789
 51
90.0
  0
ARC
  5
1F4E
330
2
100
AcDbEntity
  8
0
100
AcDbCircle
 10
118.2154979183918
 20
487.466486111279
 30
0.0
 40
4.0
100
AcDbArc
 50
270.0
 51
0.0
  0
ARC
  5
1F4F
330
2
100
AcDbEntity
  8
0
100
AcDbCircle
 10
118.2154979183918
 20
487.466486111279
 30
0.0
 40
2.049999999999998
100
AcDbArc
 50
0.0
 51
8.061960083981649
  0
ARC
  5
1F50
330
2
100
AcDbEntity
  8
0
100
AcDbCircle
 10
118.2154979183918
 20
487.466486111279
 30
0.0
 40
2.049999999999998
100
AcDbArc
 50
351.9380399160183
 51
0.0
  0
ARC
  5
1F51
330
2
100
AcDbEntity
  8
0
100
AcDbCircle
 10
118.2154979183918
 20
487.466486111279
 30
0.0
 40
2.049999999999998
100
AcDbArc
 50
171.9380399160183
 51
180.0
  0
ARC
  5
1F52
330
2
100
AcDbEntity
  8
0
100
AcDbCircle
 10
118.2154979183918
 20
487.466486111279
 30
0.0
 40
2.049999999999998
100
AcDbArc
 50
180.0
 51
188.0619600839816
  0
ARC
  5
1F53
330
2
100
AcDbEntity
  8
0
100
AcDbCircle
 10
118.2154979183918
 20
487.466486111279
 30
0.0
 40
2.049999999999998
100
AcDbArc
 50
261.9380399160178
 51
270.0
  0
ARC
  5
1F54
330
2
100
AcDbEntity
  8
0
100
AcDbCircle
 10
116.1857979183916
 20
485.4367861112789
 30
0.0
 40
1.742199999999999
100
AcDbArc
 50
359.9986903345002
 51
90.00130966549322
  0
ARC
  5
1F55
330
2
100
AcDbEntity
  8
0
100
AcDbCircle
 10
118.2154979183918
 20
487.466486111279
 30
0.0
 40
2.049999999999998
100
AcDbArc
 50
270.0
 51
278.061960083982
  0
ARC
  5
1F56
330
2
100
AcDbEntity
  8
0
100
AcDbCircle
 10
120.2451979183917
 20
485.4367861112789
 30
0.0
 40
1.742199999999999
100
AcDbArc
 50
89.99869033450025
 51
180.0013096654997
  0
LINE
  5
1F57
330
2
100
AcDbEntity
  8
0
100
AcDbLine
 10
122.2154979183918
 20
487.466486111279
 30
0.0
 11
122.2154979183918
 21
490.9663021112789
 31
0.0
  0
ARC
  5
1F58
330
2
100
AcDbEntity
  8
0
100
AcDbCircle
 10
116.1857979183916
 20
489.4961861112789
 30
0.0
 40
1.742199999999999
100
AcDbArc
 50
269.9986903345067
 51
0.0013096654997424
  0
ARC
  5
1F59
330
2
100
AcDbEntity
  8
0
100
AcDbCircle
 10
120.2451979183917
 20
489.4961861112789
 30
0.0
 40
1.742199999999999
100
AcDbArc
 50
179.9986903345002
 51
270.0013096654997
  0
ARC
  5
1F5A
330
2
100
AcDbEntity
  8
0
100
AcDbCircle
 10
161.2156049183918
 20
487.466486111279
 30
0.0
 40
4.0
100
AcDbArc
 50
180.0
 51
270.0
  0
ARC
  5
1F5B
330
2
100
AcDbEntity
  8
0
100
AcDbCircle
 10
159.1859049183917
 20
485.4367861112789
 30
0.0
 40
1.742199999999999
100
AcDbArc
 50
359.9986903345002
 51
90.00130966549322
  0
CIRCLE
  5
1F5C
330
2
100
AcDbEntity
  8
0
100
AcDbCircle
 10
161.2156049183918
 20
487.466486111279
 30
0.0
 40
3.500000000000028
  0
ARC
  5
1F5D
330
2
100
AcDbEntity
  8
0
100
AcDbCircle
 10
159.1859049183917
 20
489.4961861112789
 30
0.0
 40
1.742199999999999
100
AcDbArc
 50
269.9986903345067
 51
0.0013096654997424
  0
ARC
  5
1F5E
330
2
100
AcDbEntity
  8
0
100
AcDbCircle
 10
161.2156049183918
 20
487.466486111279
 30
0.0
 40
2.049999999999998
100
AcDbArc
 50
171.9380399160183
 51
180.0
  0
ARC
  5
1F5F
330
2
100
AcDbEntity
  8
0
100
AcDbCircle
 10
161.2156049183918
 20
487.466486111279
 30
0.0
 40
2.049999999999998
100
AcDbArc
 50
180.0
 51
188.0619600839816
  0
LINE
  5
1F60
330
2
100
AcDbEntity
  8
0
100
AcDbLine
 10
157.2154069183918
 20
487.466486111279
 30
0.0
 11
157.2154069183918
 21
490.9663021112789
 31
0.0
  0
ARC
  5
1F61
330
2
100
AcDbEntity
  8
0
100
AcDbCircle
 10
161.2156049183918
 20
487.466486111279
 30
0.0
 40
2.049999999999998
100
AcDbArc
 50
81.93803991601789
 51
90.0
  0
ARC
  5
1F62
330
2
100
AcDbEntity
  8
0
100
AcDbCircle
 10
161.2156049183918
 20
487.466486111279
 30
0.0
 40
2.049999999999998
100
AcDbArc
 50
90.0
 51
98.06196008398211
  0
ARC
  5
1F63
330
2
100
AcDbEntity
  8
0
100
AcDbCircle
 10
161.2156049183918
 20
487.466486111279
 30
0.0
 40
2.049999999999998
100
AcDbArc
 50
0.0
 51
8.061960083981649
  0
ARC
  5
1F64
330
2
100
AcDbEntity
  8
0
100
AcDbCircle
 10
161.2156049183918
 20
487.466486111279
 30
0.0
 40
2.049999999999998
100
AcDbArc
 50
351.9380399160183
 51
0.0
  0
ARC
  5
1F65
330
2
100
AcDbEntity
  8
0
100
AcDbCircle
 10
161.2156049183918
 20
487.466486111279
 30
0.0
 40
2.049999999999998
100
AcDbArc
 50
270.0
 51
278.061960083982
  0
ARC
  5
1F66
330
2
100
AcDbEntity
  8
0
100
AcDbCircle
 10
161.2156049183918
 20
487.466486111279
 30
0.0
 40
2.049999999999998
100
AcDbArc
 50
261.9380399160178
 51
270.0
  0
LINE
  5
1F67
330
2
100
AcDbEntity
  8
0
100
AcDbLine
 10
161.2154069183918
 20
483.466486111279
 30
0.0
 11
164.7154069183918
 21
483.466486111279
 31
0.0
  0
ARC
  5
1F68
330
2
100
AcDbEntity
  8
0
100
AcDbCircle
 10
163.2453049183918
 20
485.4367861112789
 30
0.0
 40
1.742199999999999
100
AcDbArc
 50
89.99869033450025
 51
180.0013096654997
  0
ARC
  5
1F69
330
2
100
AcDbEntity
  8
0
100
AcDbCircle
 10
163.2453049183918
 20
489.4961861112789
 30
0.0
 40
1.742199999999999
100
AcDbArc
 50
179.9986903345002
 51
270.0013096654997
  0
LINE
  5
1F6A
330
2
100
AcDbEntity
  8
0
100
AcDbLine
 10
164.7154069183918
 20
488.9664861112789
 30
0.0
 11
162.7154069183918
 21
490.966486111279
 31
0.0
  0
LINE
  5
1F6B
330
2
100
AcDbEntity
  8
0
100
AcDbLine
 10
164.7154069183918
 20
488.9664861112789
 30
0.0
 11
162.7154069183918
 21
490.966486111279
 31
0.0
  0
LINE
  5
1F6C
330
2
100
AcDbEntity
  8
0
100
AcDbLine
 10
164.7156049183918
 20
488.9664861112789
 30
0.0
 11
162.7154069183918
 21
490.966486111279
 31
0.0
  0
LINE
  5
1FE7
330
2
100
AcDbEntity
  8
0
100
AcDbLine
 10
114.7155979183918
 20
240.4085781112789
 30
0.0
 11
114.7155979183918
 21
198.4085631112789
 31
0.0
  0
LINE
  5
1FE9
330
2
100
AcDbEntity
  8
CENTER
100
AcDbLine
 10
139.7156049183918
 20
185.019067111279
 30
0.0
 11
139.7156049183918
 21
251.7960781112789
 31
0.0
  0
LINE
  5
1FEA
330
2
100
AcDbEntity
  8
0
100
AcDbLine
 10
164.7156049183918
 20
240.4085781112789
 30
0.0
 11
164.7156049183918
 21
198.4085631112789
 31
0.0
  0
LINE
  5
1FEB
330
2
100
AcDbEntity
  8
0
100
AcDbLine
 10
114.7155979183918
 20
198.4085631112789
 30
0.0
 11
164.7156049183918
 21
198.4085631112789
 31
0.0
  0
LINE
  5
1FEC
330
2
100
AcDbEntity
  8
0
100
AcDbLine
 10
116.2155979183918
 20
196.4085631112789
 30
0.0
 11
162.7156049183918
 21
196.4085631112789
 31
0.0
  0
LINE
  5
1FED
330
2
100
AcDbEntity
  8
0
100
AcDbLine
 10
116.2155979183918
 20
196.4085631112789
 30
0.0
 11
116.2155979183918
 21
194.9085631112789
 31
0.0
  0
LINE
  5
1FEE
330
2
100
AcDbEntity
  8
0
100
AcDbLine
 10
114.7155979183918
 20
198.4085631112789
 30
0.0
 11
116.7155979183918
 21
196.4085631112789
 31
0.0
  0
LINE
  5
1FEF
330
2
100
AcDbEntity
  8
0
100
AcDbLine
 10
162.2156049183918
 20
196.4085631112789
 30
0.0
 11
162.2156049183918
 21
194.9085631112789
 31
0.0
  0
LINE
  5
1FF0
330
2
100
AcDbEntity
  8
0
100
AcDbLine
 10
162.7156049183918
 20
196.4085631112789
 30
0.0
 11
164.7156049183918
 21
198.4085631112789
 31
0.0
  0
LINE
  5
1FF2
330
2
100
AcDbEntity
  8
0
100
AcDbLine
 10
122.2156049183918
 20
240.4085781112789
 30
0.0
 11
157.2156049183918
 21
240.4085781112789
 31
0.0
  0
LINE
  5
1FF3
330
2
100
AcDbEntity
  8
0
100
AcDbLine
 10
119.5535137344184
 20
241.4085781112789
 30
0.0
 11
159.8776961023654
 21
241.408578111279
 31
0.0
  0
LINE
  5
1FF4
330
2
100
AcDbEntity
  8
CENTER
100
AcDbLine
 10
104.6719979371832
 20
224.4085631112789
 30
0.0
 11
174.7592118996003
 21
224.4085631112789
 31
0.0
  0
LINE
  5
1FF5
330
2
100
AcDbEntity
  8
0
100
AcDbLine
 10
114.7155979183918
 20
209.4085631112789
 30
0.0
 11
164.7156049183918
 21
209.4085631112789
 31
0.0
  0
LINE
  5
1FF6
330
2
100
AcDbEntity
  8
0
100
AcDbLine
 10
114.7155979183918
 20
208.4085631112789
 30
0.0
 11
164.7156049183918
 21
208.4085631112789
 31
0.0
  0
LINE
  5
1FF7
330
2
100
AcDbEntity
  8
0
100
AcDbLine
 10
113.8405979183918
 20
213.9085631112789
 30
0.0
 11
115.8405979183918
 21
213.9085631112789
 31
0.0
  0
ARC
  5
1FF8
330
2
100
AcDbEntity
  8
0
100
AcDbCircle
 10
120.3226156719847
 20
239.9146908355254
 30
0.0
 40
1.3
100
AcDbArc
 50
5.000000000000026
 51
74.1191499917157
  0
LINE
  5
1FF9
330
2
100
AcDbEntity
  8
0
100
AcDbLine
 10
122.2156049183918
 20
238.9085781112789
 30
0.0
 11
114.7156049183918
 21
238.908578111279
 31
0.0
  0
LINE
  5
1FFA
330
2
100
AcDbEntity
  8
0
100
AcDbLine
 10
113.8405979183918
 20
234.9085631112789
 30
0.0
 11
115.8405979183918
 21
234.9085631112789
 31
0.0
  0
LINE
  5
1FFB
330
2
100
AcDbEntity
  8
0
100
AcDbLine
 10
117.9281049179367
 20
239.991578111279
 30
0.0
 11
118.5031049188468
 21
239.991578111279
 31
0.0
  0
ARC
  5
1FFC
330
2
100
AcDbEntity
  8
0
100
AcDbCircle
 10
118.2156049183918
 20
232.508578111279
 30
0.0
 40
9.0
100
AcDbArc
 50
74.1191499917157
 51
105.880850008278
  0
LINE
  5
1FFD
330
2
100
AcDbEntity
  8
0
100
AcDbLine
 10
116.8776961023653
 20
241.408578111279
 30
0.0
 11
115.7156049183918
 21
241.408578111279
 31
0.0
  0
LINE
  5
1FFE
330
2
100
AcDbEntity
  8
0
100
AcDbLine
 10
116.1858650952276
 20
241.0610196486566
 30
0.0
 11
116.1656049183917
 21
241.2719963941182
 31
0.0
  0
SPLINE
  5
1FFF
330
2
100
AcDbEntity
  8
0
100
AcDbSpline
210
0.0
220
0.0
230
1.0
 70
     8
 71
     3
 72
    11
 73
     7
 74
     0
 42
0.0000000001
 43
0.0000000001
 40
0.0
 40
0.0
 40
0.0
 40
0.0
 40
0.4601364636755307
 40
1.04988694485363
 40
1.713742833862792
 40
2.320347933405154
 40
2.320347933405154
 40
2.320347933405154
 40
2.320347933405179
 10
117.9281049179367
 20
239.991578111279
 30
0.0
 10
117.9056872608289
 20
240.1466015509589
 30
0.0
 10
117.8545372055955
 20
240.5003163688764
 30
0.0
 10
117.418652044062
 20
240.9250440404781
 30
0.0
 10
116.8136013290545
 20
241.1442312204439
 30
0.0
 10
116.3884167048787
 20
241.0752399208333
 30
0.0
 10
116.1858650952276
 20
241.0610196486566
 30
0.0
  0
SPLINE
  5
2000
330
2
100
AcDbEntity
  8
0
100
AcDbSpline
210
0.0
220
0.0
230
1.0
 70
     8
 71
     3
 72
    11
 73
     7
 74
     0
 42
0.0000000001
 43
0.0000000001
 40
0.0
 40
0.0
 40
0.0
 40
0.0
 40
0.4601364636755307
 40
1.04988694485363
 40
1.713742833862792
 40
2.320347933405154
 40
2.320347933405154
 40
2.320347933405154
 40
2.320347933405179
 10
118.5031049188468
 20
239.991578111279
 30
0.0
 10
118.5255225759547
 20
240.1466015509589
 30
0.0
 10
118.5766726311878
 20
240.5003163688764
 30
0.0
 10
119.0125577927215
 20
240.9250440404781
 30
0.0
 10
119.6176085077289
 20
241.1442312204439
 30
0.0
 10
120.0427931319047
 20
241.0752399208333
 30
0.0
 10
120.2453447415558
 20
241.0610196486566
 30
0.0
  0
LINE
  5
2001
330
2
100
AcDbEntity
  8
0
100
AcDbLine
 10
120.2453447415558
 20
241.0610196486566
 30
0.0
 11
120.2656049183917
 21
241.2719963941182
 31
0.0
  0
ARC
  5
2002
330
2
100
AcDbEntity
  8
0
100
AcDbCircle
 10
116.1085941647988
 20
239.9146908355254
 30
0.0
 40
1.3
100
AcDbArc
 50
105.880850008278
 51
174.9999999999999
  0
LINE
  5
2003
330
2
100
AcDbEntity
  8
0
100
AcDbLine
 10
115.7156049183918
 20
241.408578111279
 30
0.0
 11
114.7156049183918
 21
240.4085781112789
 31
0.0
  0
LINE
  5
2004
330
2
100
AcDbEntity
  8
0
100
AcDbLine
 10
114.7156049183918
 20
238.908578111279
 30
0.0
 11
114.8135410572797
 21
240.0279933010973
 31
0.0
  0
LINE
  5
2005
330
2
100
AcDbEntity
  8
0
100
AcDbLine
 10
122.7156049183918
 20
241.408578111279
 30
0.0
 11
122.2156049183918
 21
240.9085781112789
 31
0.0
  0
LINE
  5
2006
330
2
100
AcDbEntity
  8
0
100
AcDbLine
 10
122.2156049183918
 20
240.9085781112789
 30
0.0
 11
121.1605823080121
 21
240.9085781112789
 31
0.0
  0
LINE
  5
2007
330
2
100
AcDbEntity
  8
0
100
AcDbLine
 10
122.2156049183918
 20
238.9085781112789
 30
0.0
 11
122.2156049183918
 21
240.908578111279
 31
0.0
  0
LINE
  5
2008
330
2
100
AcDbEntity
  8
0
100
AcDbLine
 10
121.7156049183918
 20
238.908578111279
 30
0.0
 11
121.6176687795039
 21
240.0279933010973
 31
0.0
  0
LINE
  5
2009
330
2
100
AcDbEntity
  8
0
100
AcDbLine
 10
162.5535137344184
 20
241.408578111279
 30
0.0
 11
163.7156049183918
 21
241.408578111279
 31
0.0
  0
SPLINE
  5
200A
330
2
100
AcDbEntity
  8
0
100
AcDbSpline
210
0.0
220
0.0
230
1.0
 70
     8
 71
     3
 72
    11
 73
     7
 74
     0
 42
0.0000000001
 43
0.0000000001
 40
0.0
 40
0.0
 40
0.0
 40
0.0
 40
0.4601364636755307
 40
1.04988694485363
 40
1.713742833862792
 40
2.320347933405154
 40
2.320347933405154
 40
2.320347933405154
 40
2.320347933405179
 10
161.5031049188469
 20
239.991578111279
 30
0.0
 10
161.5255225759547
 20
240.1466015509589
 30
0.0
 10
161.5766726311881
 20
240.5003163688764
 30
0.0
 10
162.0125577927217
 20
240.9250440404781
 30
0.0
 10
162.617608507729
 20
241.1442312204439
 30
0.0
 10
163.0427931319049
 20
241.0752399208333
 30
0.0
 10
163.2453447415559
 20
241.0610196486566
 30
0.0
  0
LINE
  5
200B
330
2
100
AcDbEntity
  8
0
100
AcDbLine
 10
161.5031049188469
 20
239.991578111279
 30
0.0
 11
160.9281049179369
 21
239.991578111279
 31
0.0
  0
LINE
  5
200C
330
2
100
AcDbEntity
  8
0
100
AcDbLine
 10
163.2453447415559
 20
241.0610196486566
 30
0.0
 11
163.2656049183919
 21
241.2719963941182
 31
0.0
  0
LINE
  5
200D
330
2
100
AcDbEntity
  8
0
100
AcDbLine
 10
163.7156049183918
 20
241.408578111279
 30
0.0
 11
164.7156049183918
 21
240.4085781112789
 31
0.0
  0
ARC
  5
200E
330
2
100
AcDbEntity
  8
0
100
AcDbCircle
 10
163.3226156719847
 20
239.9146908355254
 30
0.0
 40
1.3
100
AcDbArc
 50
5.000000000000026
 51
74.1191499917157
  0
LINE
  5
200F
330
2
100
AcDbEntity
  8
0
100
AcDbLine
 10
157.2156049183918
 20
240.9085781112789
 30
0.0
 11
158.2706275287714
 21
240.9085781112789
 31
0.0
  0
ARC
  5
2010
330
2
100
AcDbEntity
  8
0
100
AcDbCircle
 10
159.1085941647988
 20
239.9146908355254
 30
0.0
 40
1.3
100
AcDbArc
 50
105.880850008278
 51
174.9999999999999
  0
LINE
  5
2011
330
2
100
AcDbEntity
  8
0
100
AcDbLine
 10
156.7156049183918
 20
241.408578111279
 30
0.0
 11
157.2156049183918
 21
240.9085781112789
 31
0.0
  0
LINE
  5
2012
330
2
100
AcDbEntity
  8
0
100
AcDbLine
 10
159.1858650952278
 20
241.0610196486566
 30
0.0
 11
159.1656049183918
 21
241.2719963941182
 31
0.0
  0
ARC
  5
2013
330
2
100
AcDbEntity
  8
0
100
AcDbCircle
 10
161.2156049183918
 20
232.508578111279
 30
0.0
 40
9.0
100
AcDbArc
 50
74.1191499917157
 51
105.880850008278
  0
SPLINE
  5
2014
330
2
100
AcDbEntity
  8
0
100
AcDbSpline
210
0.0
220
0.0
230
1.0
 70
     8
 71
     3
 72
    11
 73
     7
 74
     0
 42
0.0000000001
 43
0.0000000001
 40
0.0
 40
0.0
 40
0.0
 40
0.0
 40
0.4601364636755307
 40
1.04988694485363
 40
1.713742833862792
 40
2.320347933405154
 40
2.320347933405154
 40
2.320347933405154
 40
2.320347933405179
 10
160.9281049179369
 20
239.991578111279
 30
0.0
 10
160.9056872608289
 20
240.1466015509589
 30
0.0
 10
160.8545372055957
 20
240.5003163688764
 30
0.0
 10
160.4186520440621
 20
240.9250440404781
 30
0.0
 10
159.8136013290547
 20
241.1442312204439
 30
0.0
 10
159.3884167048788
 20
241.0752399208333
 30
0.0
 10
159.1858650952278
 20
241.0610196486566
 30
0.0
  0
LINE
  5
2015
330
2
100
AcDbEntity
  8
0
100
AcDbLine
 10
157.2156049183918
 20
238.9085781112789
 30
0.0
 11
164.7156049183918
 21
238.908578111279
 31
0.0
  0
LINE
  5
2016
330
2
100
AcDbEntity
  8
0
100
AcDbLine
 10
157.2156049183918
 20
238.9085781112789
 30
0.0
 11
157.2156049183918
 21
240.908578111279
 31
0.0
  0
LINE
  5
2017
330
2
100
AcDbEntity
  8
0
100
AcDbLine
 10
157.7156049183918
 20
238.908578111279
 30
0.0
 11
157.8135410572797
 21
240.0279933010973
 31
0.0
  0
LINE
  5
2018
330
2
100
AcDbEntity
  8
0
100
AcDbLine
 10
164.7156049183918
 20
238.908578111279
 30
0.0
 11
164.6176687795041
 21
240.0279933010973
 31
0.0
  0
LINE
  5
20AB
330
2
100
AcDbEntity
  8
CENTER
100
AcDbLine
 10
1121.456787812055
 20
185.0190671112789
 30
0.0
 11
1121.456787812055
 21
251.7960781112789
 31
0.0
  0
LINE
  5
20AC
330
2
100
AcDbEntity
  8
0
100
AcDbLine
 10
1146.456794812055
 20
240.4085781112789
 30
0.0
 11
1146.456794812055
 21
198.4085631112789
 31
0.0
  0
LINE
  5
20AD
330
2
100
AcDbEntity
  8
0
100
AcDbLine
 10
1096.456787812055
 20
240.4085781112789
 30
0.0
 11
1096.456787812055
 21
198.4085631112789
 31
0.0
  0
LINE
  5
20AE
330
2
100
AcDbEntity
  8
0
100
AcDbLine
 10
1144.956794812056
 20
196.4085631112789
 30
0.0
 11
1098.456787812055
 21
196.4085631112789
 31
0.0
  0
LINE
  5
20AF
330
2
100
AcDbEntity
  8
0
100
AcDbLine
 10
1146.456794812055
 20
198.4085631112789
 30
0.0
 11
1096.456787812055
 21
198.4085631112789
 31
0.0
  0
LINE
  5
20B0
330
2
100
AcDbEntity
  8
0
100
AcDbLine
 10
1098.956787812055
 20
196.4085631112789
 30
0.0
 11
1098.956787812055
 21
194.9085631112789
 31
0.0
  0
LINE
  5
20B1
330
2
100
AcDbEntity
  8
0
100
AcDbLine
 10
1098.456787812055
 20
196.4085631112789
 30
0.0
 11
1096.456787812055
 21
198.4085631112789
 31
0.0
  0
LINE
  5
20B2
330
2
100
AcDbEntity
  8
0
100
AcDbLine
 10
1144.956794812056
 20
196.4085631112789
 30
0.0
 11
1144.956794812056
 21
194.9085631112789
 31
0.0
  0
LINE
  5
20B3
330
2
100
AcDbEntity
  8
0
100
AcDbLine
 10
1146.456794812055
 20
198.4085631112789
 30
0.0
 11
1144.456794812055
 21
196.4085631112789
 31
0.0
  0
LINE
  5
20B4
330
2
100
AcDbEntity
  8
CENTER
100
AcDbLine
 10
1156.500394793264
 20
224.4085631112789
 30
0.0
 11
1086.413180830847
 21
224.4085631112789
 31
0.0
  0
LINE
  5
20B5
330
2
100
AcDbEntity
  8
0
100
AcDbLine
 10
1141.618878996029
 20
241.4085781112788
 30
0.0
 11
1101.294696628082
 21
241.4085781112789
 31
0.0
  0
LINE
  5
20B6
330
2
100
AcDbEntity
  8
0
100
AcDbLine
 10
1138.956787812055
 20
240.4085781112789
 30
0.0
 11
1103.956787812055
 21
240.4085781112789
 31
0.0
  0
LINE
  5
20B7
330
2
100
AcDbEntity
  8
0
100
AcDbLine
 10
1146.456794812055
 20
208.4085631112789
 30
0.0
 11
1096.456787812055
 21
208.4085631112789
 31
0.0
  0
LINE
  5
20B8
330
2
100
AcDbEntity
  8
0
100
AcDbLine
 10
1146.456794812055
 20
209.4085631112789
 30
0.0
 11
1096.456787812055
 21
209.4085631112789
 31
0.0
  0
ARC
  5
20B9
330
2
100
AcDbEntity
  8
0
100
AcDbCircle
 10
1102.063798565648
 20
239.9146908355253
 30
0.0
 40
1.3
100
AcDbArc
 50
5.000000000000026
 51
74.1191499917157
  0
LINE
  5
20BA
330
2
100
AcDbEntity
  8
0
100
AcDbLine
 10
1103.956787812055
 20
238.9085781112789
 30
0.0
 11
1096.456787812055
 21
238.9085781112789
 31
0.0
  0
LINE
  5
20BB
330
2
100
AcDbEntity
  8
0
100
AcDbLine
 10
1101.986527635219
 20
241.0610196486566
 30
0.0
 11
1102.006787812055
 21
241.2719963941181
 31
0.0
  0
SPLINE
  5
20BC
330
2
100
AcDbEntity
  8
0
100
AcDbSpline
210
0.0
220
0.0
230
1.0
 70
     8
 71
     3
 72
    11
 73
     7
 74
     0
 42
0.0000000001
 43
0.0000000001
 40
0.0
 40
0.0
 40
0.0
 40
0.0
 40
0.4601364636755307
 40
1.04988694485363
 40
1.713742833862792
 40
2.320347933405154
 40
2.320347933405154
 40
2.320347933405154
 40
2.320347933405179
 10
1099.6692878116
 20
239.9915781112789
 30
0.0
 10
1099.646870154493
 20
240.1466015509588
 30
0.0
 10
1099.595720099259
 20
240.5003163688764
 30
0.0
 10
1099.159834937726
 20
240.925044040478
 30
0.0
 10
1098.554784222718
 20
241.1442312204438
 30
0.0
 10
1098.129599598542
 20
241.0752399208332
 30
0.0
 10
1097.927047988891
 20
241.0610196486566
 30
0.0
  0
LINE
  5
20BD
330
2
100
AcDbEntity
  8
0
100
AcDbLine
 10
1098.618878996029
 20
241.4085781112789
 30
0.0
 11
1097.456787812055
 21
241.4085781112789
 31
0.0
  0
LINE
  5
20BE
330
2
100
AcDbEntity
  8
0
100
AcDbLine
 10
1097.927047988891
 20
241.0610196486566
 30
0.0
 11
1097.906787812055
 21
241.2719963941181
 31
0.0
  0
LINE
  5
20BF
330
2
100
AcDbEntity
  8
0
100
AcDbLine
 10
1099.6692878116
 20
239.9915781112789
 30
0.0
 11
1100.24428781251
 21
239.9915781112789
 31
0.0
  0
ARC
  5
20C0
330
2
100
AcDbEntity
  8
0
100
AcDbCircle
 10
1097.849777058462
 20
239.9146908355253
 30
0.0
 40
1.3
100
AcDbArc
 50
105.880850008278
 51
174.9999999999999
  0
LINE
  5
20C1
330
2
100
AcDbEntity
  8
0
100
AcDbLine
 10
1097.456787812055
 20
241.4085781112789
 30
0.0
 11
1096.456787812055
 21
240.4085781112789
 31
0.0
  0
ARC
  5
20C2
330
2
100
AcDbEntity
  8
0
100
AcDbCircle
 10
1099.956787812055
 20
232.508578111279
 30
0.0
 40
9.0
100
AcDbArc
 50
74.1191499917157
 51
105.880850008278
  0
SPLINE
  5
20C3
330
2
100
AcDbEntity
  8
0
100
AcDbSpline
210
0.0
220
0.0
230
1.0
 70
     8
 71
     3
 72
    11
 73
     7
 74
     0
 42
0.0000000001
 43
0.0000000001
 40
0.0
 40
0.0
 40
0.0
 40
0.0
 40
0.4601364636755307
 40
1.04988694485363
 40
1.713742833862792
 40
2.320347933405154
 40
2.320347933405154
 40
2.320347933405154
 40
2.320347933405179
 10
1100.24428781251
 20
239.9915781112789
 30
0.0
 10
1100.266705469618
 20
240.1466015509588
 30
0.0
 10
1100.317855524852
 20
240.5003163688764
 30
0.0
 10
1100.753740686385
 20
240.925044040478
 30
0.0
 10
1101.358791401392
 20
241.1442312204438
 30
0.0
 10
1101.783976025568
 20
241.0752399208332
 30
0.0
 10
1101.986527635219
 20
241.0610196486566
 30
0.0
  0
LINE
  5
20C4
330
2
100
AcDbEntity
  8
0
100
AcDbLine
 10
1096.456787812055
 20
238.9085781112789
 30
0.0
 11
1096.554723950943
 21
240.0279933010972
 31
0.0
  0
LINE
  5
20C5
330
2
100
AcDbEntity
  8
0
100
AcDbLine
 10
1104.456787812055
 20
241.4085781112789
 30
0.0
 11
1103.956787812055
 21
240.9085781112789
 31
0.0
  0
LINE
  5
20C6
330
2
100
AcDbEntity
  8
0
100
AcDbLine
 10
1103.956787812055
 20
240.9085781112789
 30
0.0
 11
1102.901765201676
 21
240.9085781112789
 31
0.0
  0
LINE
  5
20C7
330
2
100
AcDbEntity
  8
0
100
AcDbLine
 10
1103.956787812055
 20
238.9085781112789
 30
0.0
 11
1103.956787812055
 21
240.9085781112789
 31
0.0
  0
LINE
  5
20C8
330
2
100
AcDbEntity
  8
0
100
AcDbLine
 10
1103.456787812055
 20
238.9085781112789
 30
0.0
 11
1103.358851673168
 21
240.0279933010972
 31
0.0
  0
LINE
  5
20C9
330
2
100
AcDbEntity
  8
0
100
AcDbLine
 10
1147.331794812056
 20
213.9085631112789
 30
0.0
 11
1145.331794812056
 21
213.9085631112789
 31
0.0
  0
LINE
  5
20CA
330
2
100
AcDbEntity
  8
0
100
AcDbLine
 10
1147.331794812056
 20
234.9085631112789
 30
0.0
 11
1145.331794812056
 21
234.9085631112789
 31
0.0
  0
SPLINE
  5
20CB
330
2
100
AcDbEntity
  8
0
100
AcDbSpline
210
0.0
220
0.0
230
1.0
 70
     8
 71
     3
 72
    11
 73
     7
 74
     0
 42
0.0000000001
 43
0.0000000001
 40
0.0
 40
0.0
 40
0.0
 40
0.0
 40
0.4601364636755307
 40
1.04988694485363
 40
1.713742833862792
 40
2.320347933405154
 40
2.320347933405154
 40
2.320347933405154
 40
2.320347933405179
 10
1143.244287812511
 20
239.9915781112789
 30
0.0
 10
1143.266705469618
 20
240.1466015509588
 30
0.0
 10
1143.317855524852
 20
240.5003163688764
 30
0.0
 10
1143.753740686385
 20
240.925044040478
 30
0.0
 10
1144.358791401393
 20
241.1442312204438
 30
0.0
 10
1144.783976025568
 20
241.0752399208332
 30
0.0
 10
1144.98652763522
 20
241.0610196486566
 30
0.0
  0
LINE
  5
20CC
330
2
100
AcDbEntity
  8
0
100
AcDbLine
 10
1143.244287812511
 20
239.9915781112789
 30
0.0
 11
1142.6692878116
 21
239.9915781112789
 31
0.0
  0
LINE
  5
20CD
330
2
100
AcDbEntity
  8
0
100
AcDbLine
 10
1144.294696628082
 20
241.4085781112789
 30
0.0
 11
1145.456787812055
 21
241.4085781112789
 31
0.0
  0
LINE
  5
20CE
330
2
100
AcDbEntity
  8
0
100
AcDbLine
 10
1144.98652763522
 20
241.0610196486566
 30
0.0
 11
1145.006787812056
 21
241.2719963941181
 31
0.0
  0
ARC
  5
20CF
330
2
100
AcDbEntity
  8
0
100
AcDbCircle
 10
1140.849777058462
 20
239.9146908355253
 30
0.0
 40
1.3
100
AcDbArc
 50
105.880850008278
 51
174.9999999999999
  0
LINE
  5
20D0
330
2
100
AcDbEntity
  8
0
100
AcDbLine
 10
1138.956787812055
 20
240.9085781112789
 30
0.0
 11
1140.011810422435
 21
240.9085781112789
 31
0.0
  0
LINE
  5
20D1
330
2
100
AcDbEntity
  8
0
100
AcDbLine
 10
1140.927047988891
 20
241.0610196486566
 30
0.0
 11
1140.906787812056
 21
241.2719963941181
 31
0.0
  0
LINE
  5
20D2
330
2
100
AcDbEntity
  8
0
100
AcDbLine
 10
1138.456787812055
 20
241.4085781112789
 30
0.0
 11
1138.956787812055
 21
240.9085781112789
 31
0.0
  0
ARC
  5
20D3
330
2
100
AcDbEntity
  8
0
100
AcDbCircle
 10
1142.956787812055
 20
232.508578111279
 30
0.0
 40
9.0
100
AcDbArc
 50
74.1191499917157
 51
105.880850008278
  0
SPLINE
  5
20D4
330
2
100
AcDbEntity
  8
0
100
AcDbSpline
210
0.0
220
0.0
230
1.0
 70
     8
 71
     3
 72
    11
 73
     7
 74
     0
 42
0.0000000001
 43
0.0000000001
 40
0.0
 40
0.0
 40
0.0
 40
0.0
 40
0.4601364636755307
 40
1.04988694485363
 40
1.713742833862792
 40
2.320347933405154
 40
2.320347933405154
 40
2.320347933405154
 40
2.320347933405179
 10
1142.6692878116
 20
239.9915781112789
 30
0.0
 10
1142.646870154493
 20
240.1466015509588
 30
0.0
 10
1142.595720099259
 20
240.5003163688764
 30
0.0
 10
1142.159834937726
 20
240.925044040478
 30
0.0
 10
1141.554784222718
 20
241.1442312204438
 30
0.0
 10
1141.129599598542
 20
241.0752399208332
 30
0.0
 10
1140.927047988891
 20
241.0610196486566
 30
0.0
  0
LINE
  5
20D5
330
2
100
AcDbEntity
  8
0
100
AcDbLine
 10
1145.456787812055
 20
241.4085781112789
 30
0.0
 11
1146.456787812055
 21
240.4085781112789
 31
0.0
  0
ARC
  5
20D6
330
2
100
AcDbEntity
  8
0
100
AcDbCircle
 10
1145.063798565648
 20
239.9146908355253
 30
0.0
 40
1.3
100
AcDbArc
 50
5.000000000000026
 51
74.1191499917157
  0
LINE
  5
20D7
330
2
100
AcDbEntity
  8
0
100
AcDbLine
 10
1138.956787812055
 20
238.9085781112789
 30
0.0
 11
1146.456787812055
 21
238.9085781112789
 31
0.0
  0
LINE
  5
20D8
330
2
100
AcDbEntity
  8
0
100
AcDbLine
 10
1146.456787812055
 20
238.9085781112789
 30
0.0
 11
1146.358851673167
 21
240.0279933010972
 31
0.0
  0
LINE
  5
20D9
330
2
100
AcDbEntity
  8
0
100
AcDbLine
 10
1138.956787812055
 20
238.9085781112789
 30
0.0
 11
1138.956787812055
 21
240.9085781112789
 31
0.0
  0
LINE
  5
20DA
330
2
100
AcDbEntity
  8
0
100
AcDbLine
 10
1139.456787812055
 20
238.9085781112789
 30
0.0
 11
1139.554723950943
 21
240.0279933010972
 31
0.0
  0
ENDSEC
  0
SECTION
  2
OBJECTS
  0
DICTIONARY
  5
7
330
0
100
AcDbDictionary
  3
ACAD_GROUP
350
75
  3
ACAD_LAYOUT
350
61
  3
ACAD_MLINESTYLE
350
76
  3
ACAD_PLOTSETTINGS
350
77
  3
ACAD_PLOTSTYLENAME
350
6
  3
ACADDIM
350
480
  3
ACDBHEADERROUNDTRIPXREC
350
2131
  3
ACDBVARIABLEDICTIONARY
350
102
  3
DWGPROPS
350
3D2
  0
DICTIONARY
  5
2152
330
2
100
AcDbDictionary
280
     1
  3
ACAD_LAYOUTSELFREF
360
2153
  0
DICTIONARY
  5
2154
330
212B
100
AcDbDictionary
280
     1
  3
ACAD_LAYOUTSELFREF
360
2155
  0
DICTIONARY
  5
75
102
{ACAD_REACTORS
330
7
102
}
330
7
100
AcDbDictionary
  0
DICTIONARY
  5
61
102
{ACAD_REACTORS
330
7
102
}
330
7
100
AcDbDictionary
  0
DICTIONARY
  5
76
102
{ACAD_REACTORS
330
7
102
}
330
7
100
AcDbDictionary
  3
STANDARD
350
78
  0
DICTIONARY
  5
77
102
{ACAD_REACTORS
330
7
102
}
330
7
100
AcDbDictionary
  0
ACDBDICTIONARYWDFLT
  5
6
102
{ACAD_REACTORS
330
7
102
}
330
7
100
AcDbDictionary
281
     1
  3
Normal
350
5
100
AcDbDictionaryWithDefault
340
5
  0
XRECORD
  5
480
102
{ACAD_REACTORS
330
7
102
}
330
7
100
AcDbXrecord
 90
   990106
  3

 60
     0
 61
     0
 62
     1
 63
     3
 64
     1
 65
     0
 66
     0
 67
     3
 68
     1
 69
     0
 70
     0
 71
     0
 72
     0
 40
0.0
170
     2
340
0
  0
DICTIONARY
  5
2131
102
{ACAD_REACTORS
330
7
102
}
330
7
100
AcDbDictionary
  3
CEPSNTYPE
350
213B
  3
DIMSTYLEDATA
350
213F
  3
FINGERPRINTGUID
350
213C
  3
HYPERLINKBASE
350
2134
  3
INSUNITS
350
213A
  3
LAYOUTDICT
350
2136
  3
LWETCUNION
350
2139
  3
PLOTSETDICT
350
2137
  3
PLOTSTYLNAMDICT
350
2138
  3
PSVPSCALE
350
213E
  3
PUCSBASE
350
2142
  3
PUCSORGBACK
350
2148
  3
PUCSORGBOTTOM
350
2144
  3
PUCSORGFRONT
350
2147
  3
PUCSORGLEFT
350
2145
  3
PUCSORGRIGHT
350
2146
  3
PUCSORGTOP
350
2143
  3
PUCSORTHOREF
350
2140
  3
PUCSORTHOVIEW
350
2141
  3
STYLESHEET
350
2135
  3
TSTACKALIGN
350
2132
  3
TSTACKSIZE
350
2133
  3
UCSBASE
350
214B
  3
UCSORGBACK
350
2151
  3
UCSORGBOTTOM
350
214D
  3
UCSORGFRONT
350
2150
  3
UCSORGLEFT
350
214E
  3
UCSORGRIGHT
350
214F
  3
UCSORGTOP
350
214C
  3
UCSORTHOREF
350
2149
  3
UCSORTHOVIEW
350
214A
  3
VERSIONGUID
350
213D
  0
DICTIONARY
  5
102
102
{ACAD_REACTORS
330
7
102
}
330
7
100
AcDbDictionary
  3
DIMASSOC
350
103
  0
XRECORD
  5
3D2
102
{ACAD_REACTORS
330
7
102
}
330
7
100
AcDbXrecord
  1
DWGPROPS COOKIE
  2

  3

  4

  6

  7

  8

  9

300
=
301
=
302
=
303
=
304
=
305
=
306
=
307
=
308
=
309
=
 40
0.5353330671296296
 41
2452052.431989363
 42
2453406.550756377
  1

 90
        0
  0
XRECORD
  5
2153
102
{ACAD_REACTORS
330
2152
102
}
330
2152
100
AcDbXrecord
340
2
  0
XRECORD
  5
2155
102
{ACAD_REACTORS
330
2154
102
}
330
2154
100
AcDbXrecord
340
212B
  0
MLINESTYLE
  5
78
102
{ACAD_REACTORS
330
76
102
}
330
76
100
AcDbMlineStyle
  2
STANDARD
 70
     0
  3

 62
     0
 51
90.0
 52
90.0
 71
     2
 49
0.5
 62
   256
  6
BYLAYER
 49
-0.5
 62
   256
  6
BYLAYER
  0
ACDBPLACEHOLDER
  5
5
102
{ACAD_REACTORS
330
6
102
}
330
6
100
AcDbPlaceHolder
280
     0
  0
XRECORD
  5
213B
102
{ACAD_REACTORS
330
2131
102
}
330
2131
100
AcDbXrecord
 90
        0
  0
XRECORD
  5
213F
102
{ACAD_REACTORS
330
2131
102
}
330
2131
100
AcDbXrecord
1000
DSTYLE
1002
{
1070
   179
 70
     2
1070
   277
 70
     6
1002
}
  0
XRECORD
  5
213C
102
{ACAD_REACTORS
330
2131
102
}
330
2131
100
AcDbXrecord
  1
{6385560B-F4B1-4644-A7C2-A3E32AC3D232}
  0
XRECORD
  5
2134
102
{ACAD_REACTORS
330
2131
102
}
330
2131
100
AcDbXrecord
  1

  0
XRECORD
  5
213A
102
{ACAD_REACTORS
330
2131
102
}
330
2131
100
AcDbXrecord
 90
        0
  0
XRECORD
  5
2136
102
{ACAD_REACTORS
330
2131
102
}
330
2131
100
AcDbXrecord
340
61
  0
XRECORD
  5
2139
102
{ACAD_REACTORS
330
2131
102
}
330
2131
100
AcDbXrecord
 90
    10781
  0
XRECORD
  5
2137
102
{ACAD_REACTORS
330
2131
102
}
330
2131
100
AcDbXrecord
340
77
  0
XRECORD
  5
2138
102
{ACAD_REACTORS
330
2131
102
}
330
2131
100
AcDbXrecord
340
6
  0
XRECORD
  5
213E
102
{ACAD_REACTORS
330
2131
102
}
330
2131
100
AcDbXrecord
 40
0.0
  0
XRECORD
  5
2142
102
{ACAD_REACTORS
330
2131
102
}
330
2131
100
AcDbXrecord
340
0
  0
XRECORD
  5
2148
102
{ACAD_REACTORS
330
2131
102
}
330
2131
100
AcDbXrecord
 10
0.0
 20
0.0
 30
0.0
  0
XRECORD
  5
2144
102
{ACAD_REACTORS
330
2131
102
}
330
2131
100
AcDbXrecord
 10
0.0
 20
0.0
 30
0.0
  0
XRECORD
  5
2147
102
{ACAD_REACTORS
330
2131
102
}
330
2131
100
AcDbXrecord
 10
0.0
 20
0.0
 30
0.0
  0
XRECORD
  5
2145
102
{ACAD_REACTORS
330
2131
102
}
330
2131
100
AcDbXrecord
 10
0.0
 20
0.0
 30
0.0
  0
XRECORD
  5
2146
102
{ACAD_REACTORS
330
2131
102
}
330
2131
100
AcDbXrecord
 10
0.0
 20
0.0
 30
0.0
  0
XRECORD
  5
2143
102
{ACAD_REACTORS
330
2131
102
}
330
2131
100
AcDbXrecord
 10
0.0
 20
0.0
 30
0.0
  0
XRECORD
  5
2140
102
{ACAD_REACTORS
330
2131
102
}
330
2131
100
AcDbXrecord
340
0
  0
XRECORD
  5
2141
102
{ACAD_REACTORS
330
2131
102
}
330
2131
100
AcDbXrecord
 70
     0
  0
XRECORD
  5
2135
102
{ACAD_REACTORS
330
2131
102
}
330
2131
100
AcDbXrecord
  1
Sekkei.ctb
  0
XRECORD
  5
2132
102
{ACAD_REACTORS
330
2131
102
}
330
2131
100
AcDbXrecord
 90
        1
  0
XRECORD
  5
2133
102
{ACAD_REACTORS
330
2131
102
}
330
2131
100
AcDbXrecord
 90
       70
  0
XRECORD
  5
214B
102
{ACAD_REACTORS
330
2131
102
}
330
2131
100
AcDbXrecord
340
0
  0
XRECORD
  5
2151
102
{ACAD_REACTORS
330
2131
102
}
330
2131
100
AcDbXrecord
 10
0.0
 20
0.0
 30
0.0
  0
XRECORD
  5
214D
102
{ACAD_REACTORS
330
2131
102
}
330
2131
100
AcDbXrecord
 10
0.0
 20
0.0
 30
0.0
  0
XRECORD
  5
2150
102
{ACAD_REACTORS
330
2131
102
}
330
2131
100
AcDbXrecord
 10
0.0
 20
0.0
 30
0.0
  0
XRECORD
  5
214E
102
{ACAD_REACTORS
330
2131
102
}
330
2131
100
AcDbXrecord
 10
0.0
 20
0.0
 30
0.0
  0
XRECORD
  5
214F
102
{ACAD_REACTORS
330
2131
102
}
330
2131
100
AcDbXrecord
 10
0.0
 20
0.0
 30
0.0
  0
XRECORD
  5
214C
102
{ACAD_REACTORS
330
2131
102
}
330
2131
100
AcDbXrecord
 10
0.0
 20
0.0
 30
0.0
  0
XRECORD
  5
2149
102
{ACAD_REACTORS
330
2131
102
}
330
2131
100
AcDbXrecord
340
0
  0
XRECORD
  5
214A
102
{ACAD_REACTORS
330
2131
102
}
330
2131
100
AcDbXrecord
 70
     0
  0
XRECORD
  5
213D
102
{ACAD_REACTORS
330
2131
102
}
330
2131
100
AcDbXrecord
  1
{3DB1C8E5-9E1B-4DE6-8607-4C5D5B8C7239}
  0
DICTIONARYVAR
  5
103
102
{ACAD_REACTORS
330
102
102
}
330
102
100
DictionaryVariables
280
     0
  1
1
  0
ENDSEC
  0
EOF
