  0
SECTION
  2
HEADER
  9
$CLAYER
  8
1
  9
$LTSCALE
 40
3.0
  0
ENDSEC
  0
SECTION
  2
TABLES
  0
TABLE
  2
LTYPE
 70
     4
  0
LTYPE
  2
CONTINUOUS
  3
solid line
 70
    64
 72
    65
 73
     0
 40
0.0
  0
LTYPE
  2
DASHED
  3
__ __ __ __ __ __ __ __ __ __ __ __ __ __ __
 70
    64
 72
    65
 73
     2
 40
0.75
 49
0.5
 49
-0.25
  0
LTYPE
  2
CENTER
  3
____ _ ____ _ ____ _ ____ _ ____ _ ____ _ ____
 70
    64
 72
    65
 73
     4
 40
2.0
 49
1.25
 49
-0.25
 49
0.25
 49
-0.25
  0
LTYPE
  2
PHANTOM
  3
_____ _ _ _____ _ _ _____ _ _ _____ _ _ ____
 70
    64
 72
    65
 73
     6
 40
2.5
 49
1.25
 49
-0.25
 49
0.25
 49
-0.25
 49
0.25
 49
-0.25
  0
ENDTAB
  0
TABLE
  2
LAYER
 70
     1
  0
LAYER
  2
0
 70
    64
 62
     7
  6
CONTINUOUS
  0
ENDTAB
  0
TABLE
  2
STYLE
 70
     1
  0
STYLE
  2
STANDARD
 70
     0
 40
0.000000
 41
1.000000
 50
0.000000
 71
     0
 42
3.000000
  3
txt
  4
BIGFONT
  0
ENDTAB
  0
ENDSEC
  0
SECTION
  2
BLOCKS
  0
ENDSEC
  0
SECTION
  2
ENTITIES
  0
LINE
  8
0
  6
CENTER
 10
373.753632
 20
288.784180
 11
373.753632
 21
510.012512
  0
LINE
  8
0
  6
CONTINUOUS
 10
297.753418
 20
416.846680
 11
298.538910
 21
371.846680
  0
LINE
  8
0
  6
CONTINUOUS
 10
432.203674
 20
341.846680
 11
389.753632
 21
341.846680
  0
LINE
  8
0
  6
CONTINUOUS
 10
307.810028
 20
347.045471
 11
298.538910
 21
371.846680
  0
ARC
  8
0
  6
CONTINUOUS
 10
315.303589
 20
349.846680
 40
8.000000
 50
200.496613
 51
270.000000
  0
LINE
  8
0
  6
CONTINUOUS
 10
297.753418
 20
416.846680
 11
298.538910
 21
461.846680
  0
LINE
  8
0
  6
CONTINUOUS
 10
432.203674
 20
491.846680
 11
373.753632
 21
491.846680
  0
LINE
  8
0
  6
CONTINUOUS
 10
307.810028
 20
486.647888
 11
298.538910
 21
461.846680
  0
ARC
  8
0
  6
CONTINUOUS
 10
315.303589
 20
483.846680
 40
8.000000
 50
90.000000
 51
159.503387
  0
LINE
  8
0
  6
CONTINUOUS
 10
439.697235
 20
347.045471
 11
448.752014
 21
371.267944
  0
ARC
  8
0
  6
CONTINUOUS
 10
432.203674
 20
349.846680
 40
8.000000
 50
270.000000
 51
339.503387
  0
LINE
  8
0
  6
CONTINUOUS
 10
439.697235
 20
486.647888
 11
448.752014
 21
462.425415
  0
ARC
  8
0
  6
CONTINUOUS
 10
432.203674
 20
483.846680
 40
8.000000
 50
20.496618
 51
90.000000
  0
LINE
  8
0
  6
CONTINUOUS
 10
446.416992
 20
371.846680
 11
301.487000
 21
371.846680
  0
LINE
  8
0
  6
CONTINUOUS
 10
301.487000
 20
461.846680
 11
446.416992
 21
461.846680
  0
LINE
  8
0
  6
CONTINUOUS
 10
373.753632
 20
354.846680
 11
338.494812
 21
354.846680
  0
ARC
  8
0
  6
CONTINUOUS
 10
301.487000
 20
374.846680
 40
3.000000
 50
181.000000
 51
270.000000
  0
ARC
  8
0
  6
CONTINUOUS
 10
301.487000
 20
458.846680
 40
3.000000
 50
90.000000
 51
179.000000
  0
LINE
  8
0
  6
CONTINUOUS
 10
344.753632
 20
374.846680
 11
344.753632
 21
458.846680
  0
LINE
  8
0
  6
CONTINUOUS
 10
402.753632
 20
374.846680
 11
402.753632
 21
458.846680
  0
LINE
  8
0
  6
CONTINUOUS
 10
461.753632
 20
352.846680
 11
461.753632
 21
480.846680
  0
LINE
  8
0
  6
CONTINUOUS
 10
459.181305
 20
352.846680
 11
461.753632
 21
352.846680
  0
LINE
  8
0
  6
CONTINUOUS
 10
333.697998
 20
358.435852
 11
332.694824
 21
361.846680
  0
ARC
  8
0
  6
CONTINUOUS
 10
338.494812
 20
359.846680
 40
5.000000
 50
196.389542
 51
270.000000
  0
LINE
  8
0
  6
CONTINUOUS
 10
318.207489
 20
365.454071
 11
317.399780
 21
368.239288
  0
LINE
  8
0
  6
CONTINUOUS
 10
323.009644
 20
361.846680
 11
332.694824
 21
361.846680
  0
LINE
  8
0
  6
CONTINUOUS
 10
373.753632
 20
354.846680
 11
409.012451
 21
354.846680
  0
LINE
  8
0
  6
CONTINUOUS
 10
373.753632
 20
478.846680
 11
338.494812
 21
478.846680
  0
LINE
  8
0
  6
CONTINUOUS
 10
373.753632
 20
478.846680
 11
409.012451
 21
478.846680
  0
LINE
  8
0
  6
CONTINUOUS
 10
354.753632
 20
296.846680
 11
389.753632
 21
296.846680
  0
LINE
  8
0
  6
CONTINUOUS
 10
389.753632
 20
351.846680
 11
389.753632
 21
296.846680
  0
LINE
  8
0
  6
CONTINUOUS
 10
357.753632
 20
351.846680
 11
357.753632
 21
346.846680
  0
LINE
  8
0
  6
CONTINUOUS
 10
391.253632
 20
351.846680
 11
356.253632
 21
351.846680
  0
LINE
  8
0
  6
CONTINUOUS
 10
391.253632
 20
354.846680
 11
391.253632
 21
351.846680
  0
LINE
  8
0
  6
CONTINUOUS
 10
356.253632
 20
354.846680
 11
356.253632
 21
351.846680
  0
LINE
  8
0
  6
CONTINUOUS
 10
354.753632
 20
341.846680
 11
315.303589
 21
341.846680
  0
LINE
  8
0
  6
CONTINUOUS
 10
354.753632
 20
296.846680
 11
354.753632
 21
346.846680
  0
LINE
  8
0
  6
CONTINUOUS
 10
358.554932
 20
346.846680
 11
354.753632
 21
346.846680
  0
LINE
  8
0
  6
CONTINUOUS
 10
358.554932
 20
346.846680
 11
358.554932
 21
296.846680
  0
LINE
  8
0
  6
CONTINUOUS
 10
373.753632
 20
491.846680
 11
315.303589
 21
491.846680
  0
LINE
  8
0
  6
CENTER
 10
336.129944
 20
356.846680
 11
317.192444
 21
356.846680
  0
LINE
  8
0
  6
CENTER
 10
326.253632
 20
365.999023
 11
326.253632
 21
346.499023
  0
ARC
  8
0
  6
CONTINUOUS
 10
326.253632
 20
356.846680
 40
6.500000
 50
-231.240692
 51
50.284863
  0
ARC
  8
0
  6
CONTINUOUS
 10
421.253632
 20
356.846680
 40
6.500000
 50
-230.284866
 51
51.240688
  0
LINE
  8
0
  6
CENTER
 10
421.253632
 20
365.999023
 11
421.253632
 21
346.499023
  0
LINE
  8
0
  6
CENTER
 10
411.377319
 20
356.846680
 11
430.314819
 21
356.846680
  0
LINE
  8
0
  6
CENTER
 10
717.674988
 20
416.846680
 11
286.332611
 21
416.846680
  0
LINE
  8
0
  6
CONTINUOUS
 10
454.351685
 20
356.552582
 11
451.246613
 21
368.140778
  0
ARC
  8
0
  6
CONTINUOUS
 10
446.416992
 20
366.846680
 40
5.000000
 50
15.000000
 51
90.000000
  0
ARC
  8
0
  6
CONTINUOUS
 10
459.181305
 20
357.846680
 40
5.000000
 50
195.000000
 51
270.000000
  0
LINE
  8
0
  6
CONTINUOUS
 10
459.181305
 20
480.846680
 11
461.753632
 21
480.846680
  0
LINE
  8
0
  6
CONTINUOUS
 10
454.351685
 20
477.140778
 11
451.246613
 21
465.552582
  0
ARC
  8
0
  6
CONTINUOUS
 10
459.181305
 20
475.846680
 40
5.000000
 50
90.000000
 51
165.000000
  0
ARC
  8
0
  6
CONTINUOUS
 10
446.416992
 20
466.846680
 40
5.000000
 50
-90.000000
 51
-15.000000
  0
LINE
  8
0
  6
CONTINUOUS
 10
449.753845
 20
416.846680
 11
449.019806
 21
374.794312
  0
LINE
  8
0
  6
CONTINUOUS
 10
449.753845
 20
416.846680
 11
449.019806
 21
458.899048
  0
ARC
  8
0
  6
CONTINUOUS
 10
446.020264
 20
374.846680
 40
3.000000
 50
270.000000
 51
359.000000
  0
ARC
  8
0
  6
CONTINUOUS
 10
446.020264
 20
458.846680
 40
3.000000
 50
1.000000
 51
90.000000
  0
ARC
  8
0
  6
CONTINUOUS
 10
323.009644
 20
366.846680
 40
5.000000
 50
196.172165
 51
270.000000
  0
ARC
  8
0
  6
CONTINUOUS
 10
312.597626
 20
366.846680
 40
5.000000
 50
16.172159
 51
90.000000
  0
LINE
  8
0
  6
CONTINUOUS
 10
316.353638
 20
371.846680
 11
316.350403
 21
371.857758
  0
ARC
  8
0
  6
CONTINUOUS
 10
409.012451
 20
359.846680
 40
5.000000
 50
270.000000
 51
343.610474
  0
LINE
  8
0
  6
CONTINUOUS
 10
413.809265
 20
358.435852
 11
414.812439
 21
361.846680
  0
LINE
  8
0
  6
CONTINUOUS
 10
429.299774
 20
365.454071
 11
430.107483
 21
368.239288
  0
LINE
  8
0
  6
CONTINUOUS
 10
424.497620
 20
361.846680
 11
414.812439
 21
361.846680
  0
ARC
  8
0
  6
CONTINUOUS
 10
424.497620
 20
366.846680
 40
5.000000
 50
270.000000
 51
343.827850
  0
ARC
  8
0
  6
CONTINUOUS
 10
434.909637
 20
366.846680
 40
5.000000
 50
90.000000
 51
163.827835
  0
LINE
  8
0
  6
CONTINUOUS
 10
431.153625
 20
371.846680
 11
431.156860
 21
371.857758
  0
ARC
  8
0
  6
CONTINUOUS
 10
421.253632
 20
476.846680
 40
6.500000
 50
-51.240688
 51
230.284866
  0
LINE
  8
0
  6
CENTER
 10
411.377319
 20
476.846680
 11
430.314819
 21
476.846680
  0
ARC
  8
0
  6
CONTINUOUS
 10
409.012451
 20
473.846680
 40
5.000000
 50
16.389540
 51
90.000000
  0
LINE
  8
0
  6
CONTINUOUS
 10
413.809265
 20
475.257507
 11
414.812439
 21
471.846680
  0
LINE
  8
0
  6
CONTINUOUS
 10
429.299774
 20
468.239288
 11
430.107483
 21
465.454071
  0
LINE
  8
0
  6
CONTINUOUS
 10
424.497620
 20
471.846680
 11
414.812439
 21
471.846680
  0
ARC
  8
0
  6
CONTINUOUS
 10
424.497620
 20
466.846680
 40
5.000000
 50
16.172159
 51
90.000000
  0
ARC
  8
0
  6
CONTINUOUS
 10
434.909637
 20
466.846680
 40
5.000000
 50
196.172165
 51
270.000000
  0
LINE
  8
0
  6
CONTINUOUS
 10
431.153625
 20
461.846680
 11
431.156860
 21
461.835602
  0
LINE
  8
0
  6
CENTER
 10
421.253632
 20
467.694336
 11
421.253632
 21
487.194336
  0
LINE
  8
0
  6
CONTINUOUS
 10
333.697998
 20
475.257507
 11
332.694824
 21
471.846680
  0
ARC
  8
0
  6
CONTINUOUS
 10
338.494812
 20
473.846680
 40
5.000000
 50
90.000000
 51
163.610458
  0
LINE
  8
0
  6
CONTINUOUS
 10
318.207489
 20
468.239288
 11
317.399780
 21
465.454071
  0
LINE
  8
0
  6
CONTINUOUS
 10
323.009644
 20
471.846680
 11
332.694824
 21
471.846680
  0
LINE
  8
0
  6
CENTER
 10
336.129944
 20
476.846680
 11
317.192444
 21
476.846680
  0
LINE
  8
0
  6
CENTER
 10
326.253632
 20
467.694336
 11
326.253632
 21
487.194336
  0
ARC
  8
0
  6
CONTINUOUS
 10
326.253632
 20
476.846680
 40
6.500000
 50
-50.284863
 51
231.240692
  0
ARC
  8
0
  6
CONTINUOUS
 10
323.009644
 20
466.846680
 40
5.000000
 50
90.000000
 51
163.827835
  0
ARC
  8
0
  6
CONTINUOUS
 10
312.597626
 20
466.846680
 40
5.000000
 50
-90.000000
 51
-16.172159
  0
LINE
  8
0
  6
CONTINUOUS
 10
316.353638
 20
461.846680
 11
316.350403
 21
461.835602
  0
LINE
  8
0
  6
CENTER
 10
86.251747
 20
3.668750
 11
86.251747
 21
255.514328
  0
LINE
  8
0
  6
CENTER
 10
6.454368
 20
113.788750
 11
162.084366
 21
113.788750
  0
LINE
  8
0
  6
CENTER
 10
9.219368
 20
158.788757
 11
220.428757
 21
158.788757
  0
LINE
  8
0
  6
CENTER
 10
146.251755
 20
45.387489
 11
146.251755
 21
7.488370
  0
LINE
  8
0
  6
CENTER
 10
26.251751
 20
45.387489
 11
26.251751
 21
7.488370
  0
LINE
  8
0
  6
CONTINUOUS
 10
11.251750
 20
18.788750
 11
56.251751
 21
18.788750
  0
LINE
  8
0
  6
CONTINUOUS
 10
116.251747
 20
18.788750
 11
161.251755
 21
18.788750
  0
LINE
  8
0
  6
CONTINUOUS
 10
158.751755
 20
36.788750
 11
135.251755
 21
36.788750
  0
LINE
  8
0
  6
CONTINUOUS
 10
13.751750
 20
36.788750
 11
37.251751
 21
36.788750
  0
LINE
  8
0
  6
CONTINUOUS
 10
131.251755
 20
220.055511
 11
131.251755
 21
18.788750
  0
LINE
  8
0
  6
CONTINUOUS
 10
41.251751
 20
206.529953
 11
41.251751
 21
220.055023
  0
LINE
  8
0
  6
CONTINUOUS
 10
161.251755
 20
34.670929
 11
161.251755
 21
18.788750
  0
LINE
  8
0
  6
CONTINUOUS
 10
11.251750
 20
34.670929
 11
11.251750
 21
18.788750
  0
LINE
  8
0
  6
CONTINUOUS
 10
57.751751
 20
20.288750
 11
114.751747
 21
20.288750
  0
LINE
  8
0
  6
CONTINUOUS
 10
128.304153
 20
223.055054
 11
86.251747
 21
223.788757
  0
LINE
  8
0
  6
CONTINUOUS
 10
44.199348
 20
223.054565
 11
86.251747
 21
223.788757
  0
LINE
  8
0
  6
CONTINUOUS
 10
24.251751
 20
123.529945
 11
24.251751
 21
194.047577
  0
LINE
  8
0
  6
CONTINUOUS
 10
148.251755
 20
123.529945
 11
148.251755
 21
194.047577
  0
LINE
  8
0
  6
CONTINUOUS
 10
31.251751
 20
74.544746
 11
31.251751
 21
162.699142
  0
LINE
  8
0
  6
CONTINUOUS
 10
141.251755
 20
74.544769
 11
141.251755
 21
162.699142
  0
LINE
  8
0
  6
DASHED
 10
152.751755
 20
36.788750
 11
152.751755
 21
18.788750
  0
LINE
  8
0
  6
DASHED
 10
139.751755
 20
36.788750
 11
139.751755
 21
18.788750
  0
LINE
  8
0
  6
DASHED
 10
32.751751
 20
36.788750
 11
32.751751
 21
18.788750
  0
LINE
  8
0
  6
DASHED
 10
19.751751
 20
36.788750
 11
19.751751
 21
18.788750
  0
ARC
  8
0
  6
CONTINUOUS
 10
44.251751
 20
220.055023
 40
3.000000
 50
91.000603
 51
180.000000
  0
ARC
  8
0
  6
CONTINUOUS
 10
128.251755
 20
220.055496
 40
3.000000
 50
0.000000
 51
89.000580
  0
LINE
  8
0
  6
CONTINUOUS
 10
37.662552
 20
201.733109
 11
27.840950
 21
198.844376
  0
LINE
  8
0
  6
CONTINUOUS
 10
27.840950
 20
118.733116
 11
28.380350
 21
118.574448
  0
LINE
  8
0
  6
CONTINUOUS
 10
34.859150
 20
69.742607
 11
37.644348
 21
68.934891
  0
LINE
  8
0
  6
CONTINUOUS
 10
13.340750
 20
37.136909
 11
38.744949
 21
41.370949
  0
LINE
  8
0
  6
CONTINUOUS
 10
159.162750
 20
37.136929
 11
133.758545
 21
41.370972
  0
LINE
  8
0
  6
CONTINUOUS
 10
137.644348
 20
69.742607
 11
134.859146
 21
68.934891
  0
LINE
  8
0
  6
CONTINUOUS
 10
144.662552
 20
118.733116
 11
144.123154
 21
118.574432
  0
LINE
  8
0
  6
CONTINUOUS
 10
144.662552
 20
198.844391
 11
134.840942
 21
201.733109
  0
LINE
  8
0
  6
CONTINUOUS
 10
43.826149
 20
191.288757
 11
128.504349
 21
191.288757
  0
ARC
  8
0
  6
CONTINUOUS
 10
29.251751
 20
194.047592
 40
5.000000
 50
106.389900
 51
180.000000
  0
ARC
  8
0
  6
CONTINUOUS
 10
143.251755
 20
194.047546
 40
5.000000
 50
0.000000
 51
73.610527
  0
ARC
  8
0
  6
CONTINUOUS
 10
29.251751
 20
123.529976
 40
5.000000
 50
180.000000
 51
253.610794
  0
ARC
  8
0
  6
CONTINUOUS
 10
143.251755
 20
123.529938
 40
5.000000
 50
-73.610321
 51
0.000000
  0
ARC
  8
0
  6
CONTINUOUS
 10
136.251755
 20
74.544746
 40
5.000000
 50
-73.827698
 51
0.000000
  0
ARC
  8
0
  6
CONTINUOUS
 10
36.251751
 20
74.544792
 40
5.000000
 50
180.000000
 51
253.828201
  0
LINE
  8
0
  6
CONTINUOUS
 10
41.251751
 20
206.529953
 11
41.251751
 21
18.788750
  0
ARC
  8
0
  6
CONTINUOUS
 10
36.251751
 20
206.529922
 40
5.000000
 50
-73.610229
 51
0.000000
  0
ARC
  8
0
  6
CONTINUOUS
 10
27.251751
 20
114.736969
 40
4.000000
 50
0.000000
 51
73.610649
  0
ARC
  8
0
  6
CONTINUOUS
 10
36.251751
 20
64.132729
 40
5.000000
 50
0.000000
 51
73.827919
  0
ARC
  8
0
  6
CONTINUOUS
 10
136.251755
 20
64.132767
 40
5.000000
 50
106.172501
 51
180.000000
  0
ARC
  8
0
  6
CONTINUOUS
 10
145.251755
 20
114.737000
 40
4.000000
 50
106.389999
 51
180.000000
  0
ARC
  8
0
  6
CONTINUOUS
 10
136.251755
 20
206.529968
 40
5.000000
 50
180.000000
 51
253.610794
  0
ARC
  8
0
  6
CONTINUOUS
 10
38.251751
 20
44.330132
 40
3.000000
 50
-80.537483
 51
0.000000
  0
ARC
  8
0
  6
CONTINUOUS
 10
37.251751
 20
40.788712
 40
4.000000
 50
-90.000000
 51
0.000000
  0
ARC
  8
0
  6
CONTINUOUS
 10
13.751750
 20
34.288769
 40
2.500000
 50
90.000000
 51
180.000000
  0
LINE
  8
0
  6
CONTINUOUS
 10
56.251751
 20
18.788750
 11
57.751751
 21
20.288750
  0
LINE
  8
0
  6
CONTINUOUS
 10
116.251747
 20
18.788750
 11
114.751747
 21
20.288750
  0
ARC
  8
0
  6
CONTINUOUS
 10
134.251755
 20
44.330170
 40
3.000000
 50
180.000000
 51
260.537903
  0
ARC
  8
0
  6
CONTINUOUS
 10
135.251755
 20
40.788750
 40
4.000000
 50
180.000000
 51
270.000000
  0
ARC
  8
0
  6
CONTINUOUS
 10
158.751755
 20
34.288750
 40
2.500000
 50
0.000000
 51
90.000000
  0
LINE
  8
0
  6
CONTINUOUS
 10
206.251755
 20
142.788757
 11
206.251755
 21
174.788757
  0
LINE
  8
0
  6
CONTINUOUS
 10
151.251755
 20
174.788757
 11
206.251755
 21
174.788757
  0
LINE
  8
0
  6
CONTINUOUS
 10
151.251755
 20
142.788757
 11
206.251755
 21
142.788757
  0
LINE
  8
0
  6
CONTINUOUS
 10
151.251755
 20
176.288757
 11
151.251755
 21
141.288757
  0
LINE
  8
0
  6
CONTINUOUS
 10
148.251755
 20
176.288757
 11
151.251755
 21
176.288757
  0
LINE
  8
0
  6
CONTINUOUS
 10
148.251755
 20
141.288757
 11
151.251755
 21
141.288757
  0
ARC
  8
0
  6
CONTINUOUS
 10
161.251755
 20
158.788757
 40
5.000000
 50
90.000000
 51
270.000000
  0
LINE
  8
0
  6
CONTINUOUS
 10
161.251755
 20
163.788757
 11
206.251755
 21
163.788757
  0
LINE
  8
0
  6
CONTINUOUS
 10
161.251755
 20
153.788757
 11
206.251755
 21
153.788757
  0
ARC
  8
0
  6
CONTINUOUS
 10
13.751750
 20
34.670952
 40
2.500000
 50
99.462753
 51
180.000000
  0
ARC
  8
0
  6
CONTINUOUS
 10
158.751755
 20
34.670929
 40
2.500000
 50
0.000000
 51
80.537682
  0
LINE
  8
0
  6
CONTINUOUS
 10
461.753632
 20
177.788757
 11
461.753632
 21
49.788750
  0
ARC
  8
0
  6
CONTINUOUS
 10
86.251747
 20
113.788750
 40
64.000000
 50
165.638489
 51
210.753525
  0
ARC
  8
0
  6
CONTINUOUS
 10
86.251747
 20
113.788750
 40
64.000000
 50
-30.753519
 51
14.361512
  0
ARC
  8
0
  6
CONTINUOUS
 10
45.239552
 20
72.776527
 40
8.000000
 50
211.001404
 51
233.216995
  0
ARC
  8
0
  6
CONTINUOUS
 10
39.251751
 20
64.767410
 40
2.000000
 50
30.947910
 51
53.217121
  0
ARC
  8
0
  6
CONTINUOUS
 10
127.263947
 20
72.776527
 40
8.000000
 50
-53.216999
 51
-31.001400
  0
ARC
  8
0
  6
CONTINUOUS
 10
133.251755
 20
64.767410
 40
2.000000
 50
126.782883
 51
149.052094
  0
LINE
  8
0
  6
CENTER
 10
708.878723
 20
100.788750
 11
416.867279
 21
100.788750
  0
LINE
  8
0
  6
CENTER
 10
549.790283
 20
113.788750
 11
416.867279
 21
113.788750
  0
LINE
  8
0
  6
CONTINUOUS
 10
470.253632
 20
478.846680
 11
470.253632
 21
354.846680
  0
LINE
  8
0
  6
CONTINUOUS
 10
516.253662
 20
371.846680
 11
472.690002
 21
370.325409
  0
LINE
  8
0
  6
CONTINUOUS
 10
516.253662
 20
461.846680
 11
472.690002
 21
463.367950
  0
LINE
  8
0
  6
CONTINUOUS
 10
516.253662
 20
367.834686
 11
516.253662
 21
465.858673
  0
LINE
  8
0
  6
CONTINUOUS
 10
468.253632
 20
352.846680
 11
461.753632
 21
352.846680
  0
LINE
  8
0
  6
CONTINUOUS
 10
468.253632
 20
480.846680
 11
461.753632
 21
480.846680
  0
LINE
  8
0
  6
CONTINUOUS
 10
477.396637
 20
392.846680
 11
470.281647
 21
392.846680
  0
LINE
  8
0
  6
CONTINUOUS
 10
476.791473
 20
440.846680
 11
470.281647
 21
440.846680
  0
LINE
  8
0
  6
CONTINUOUS
 10
477.396637
 20
395.051178
 11
477.396637
 21
438.763763
  0
LINE
  8
0
  6
CONTINUOUS
 10
525.253662
 20
373.846680
 11
525.253662
 21
387.846680
  0
LINE
  8
0
  6
CONTINUOUS
 10
635.253662
 20
371.846680
 11
516.253662
 21
371.846680
  0
LINE
  8
0
  6
CONTINUOUS
 10
635.253662
 20
461.846680
 11
516.253662
 21
461.846680
  0
LINE
  8
0
  6
CONTINUOUS
 10
635.253662
 20
387.846680
 11
525.253662
 21
387.846680
  0
LINE
  8
0
  6
CONTINUOUS
 10
635.253662
 20
445.846680
 11
525.253662
 21
445.846680
  0
ARC
  8
0
  6
CONTINUOUS
 10
523.253662
 20
373.846649
 40
2.000000
 50
-90.000000
 51
0.000000
  0
ARC
  8
0
  6
CONTINUOUS
 10
523.253662
 20
459.846680
 40
2.000000
 50
0.000000
 51
90.000000
  0
LINE
  8
0
  6
CONTINUOUS
 10
516.253662
 20
371.846680
 11
516.253662
 21
461.846680
  0
ARC
  8
0
  6
CONTINUOUS
 10
468.253632
 20
354.846680
 40
2.000000
 50
-90.000000
 51
0.000000
  0
ARC
  8
0
  6
CONTINUOUS
 10
468.253632
 20
478.846680
 40
2.000000
 50
0.000000
 51
90.000000
  0
ARC
  8
0
  6
CONTINUOUS
 10
472.777252
 20
367.826935
 40
2.500000
 50
92.000000
 51
179.895706
  0
ARC
  8
0
  6
CONTINUOUS
 10
472.777252
 20
465.866425
 40
2.500000
 50
180.104294
 51
268.000000
  0
LINE
  8
0
  6
CONTINUOUS
 10
470.253632
 20
370.240326
 11
470.281647
 21
370.241302
  0
LINE
  8
0
  6
CONTINUOUS
 10
515.753967
 20
367.317230
 11
470.253632
 21
365.728333
  0
LINE
  8
0
  6
CONTINUOUS
 10
516.253662
 20
367.834686
 11
515.753967
 21
367.317230
  0
LINE
  8
0
  6
CONTINUOUS
 10
515.753967
 20
466.376129
 11
470.253632
 21
467.965027
  0
LINE
  8
0
  6
CONTINUOUS
 10
516.253662
 20
465.858673
 11
515.753967
 21
466.376129
  0
LINE
  8
0
  6
CONTINUOUS
 10
525.253662
 20
143.788757
 11
525.253662
 21
57.788731
  0
LINE
  8
0
  6
CONTINUOUS
 10
635.253662
 20
145.788757
 11
516.253662
 21
145.788757
  0
LINE
  8
0
  6
CONTINUOUS
 10
635.253662
 20
55.788750
 11
516.253662
 21
55.788750
  0
LINE
  8
0
  6
CONTINUOUS
 10
635.253662
 20
135.198044
 11
526.291321
 21
135.198044
  0
LINE
  8
0
  6
CONTINUOUS
 10
635.253662
 20
66.379448
 11
526.291321
 21
66.379448
  0
ARC
  8
0
  6
CONTINUOUS
 10
523.253662
 20
143.788773
 40
2.000000
 50
0.000000
 51
90.000000
  0
ARC
  8
0
  6
CONTINUOUS
 10
523.253662
 20
57.788750
 40
2.000000
 50
-90.000000
 51
0.000000
  0
LINE
  8
0
  6
CONTINUOUS
 10
468.253632
 20
177.788849
 11
461.753632
 21
177.788849
  0
LINE
  8
0
  6
CONTINUOUS
 10
468.253632
 20
49.788651
 11
461.753632
 21
49.788651
  0
LINE
  8
0
  6
CONTINUOUS
 10
516.253662
 20
145.788757
 11
470.253632
 21
147.395111
  0
LINE
  8
0
  6
CONTINUOUS
 10
461.753632
 20
53.885567
 11
516.253662
 21
55.788750
  0
ARC
  8
0
  6
CONTINUOUS
 10
468.253601
 20
175.788879
 40
2.000000
 50
0.000000
 51
90.000000
  0
ARC
  8
0
  6
CONTINUOUS
 10
468.253632
 20
51.788651
 40
2.000000
 50
-90.000000
 51
-0.260773
  0
LINE
  8
0
  6
CONTINUOUS
 10
516.253662
 20
145.788757
 11
516.253662
 21
55.788750
  0
LINE
  8
0
  6
CONTINUOUS
 10
470.985870
 20
153.556519
 11
476.700378
 21
147.842010
  0
LINE
  8
0
  6
CONTINUOUS
 10
516.253662
 20
80.282753
 11
472.253632
 21
80.282753
  0
LINE
  8
0
  6
CONTINUOUS
 10
516.253662
 20
65.269753
 11
461.753632
 21
65.269753
  0
LINE
  8
0
  6
CONTINUOUS
 10
469.685669
 20
73.221748
 11
461.753632
 21
73.221748
  0
LINE
  8
0
  6
CONTINUOUS
 10
470.253632
 20
74.436485
 11
470.253632
 21
175.788879
  0
ARC
  8
0
  6
CONTINUOUS
 10
472.753601
 20
51.768169
 40
2.500000
 50
92.000000
 51
179.739227
  0
ARC
  8
0
  6
CONTINUOUS
 10
472.753632
 20
155.324280
 40
2.500000
 50
180.000000
 51
225.000000
  0
ARC
  8
0
  6
CONTINUOUS
 10
478.468140
 20
149.609772
 40
2.500000
 50
-135.000000
 51
-92.000000
  0
LINE
  8
0
  6
CENTER
 10
373.753632
 20
246.084930
 11
373.753632
 21
8.155870
  0
LINE
  8
0
  6
CENTER
 10
433.052368
 20
158.788757
 11
312.333740
 21
158.788757
  0
LINE
  8
0
  6
CENTER
 10
326.253632
 20
44.064190
 11
326.253632
 21
10.199450
  0
LINE
  8
0
  6
CENTER
 10
421.253632
 20
44.064190
 11
421.253632
 21
9.907510
  0
LINE
  8
0
  6
CONTINUOUS
 10
449.753632
 20
18.788750
 11
297.753632
 21
18.788750
  0
LINE
  8
0
  6
CONTINUOUS
 10
449.753632
 20
36.788750
 11
297.753632
 21
36.788750
  0
LINE
  8
0
  6
CONTINUOUS
 10
297.753632
 20
187.094315
 11
297.753632
 21
18.788750
  0
LINE
  8
0
  6
CONTINUOUS
 10
449.753632
 20
182.288757
 11
449.753632
 21
187.094315
  0
LINE
  8
0
  6
CONTINUOUS
 10
400.257019
 20
223.788757
 11
347.250244
 21
223.788757
  0
LINE
  8
0
  6
CONTINUOUS
 10
454.753632
 20
177.788757
 11
461.753632
 21
177.788757
  0
LINE
  8
0
  6
CONTINUOUS
 10
454.753632
 20
49.788750
 11
461.753632
 21
49.788750
  0
LINE
  8
0
  6
CONTINUOUS
 10
301.203644
 20
193.674377
 11
342.700226
 21
222.368805
  0
LINE
  8
0
  6
CONTINUOUS
 10
446.303619
 20
193.674377
 11
404.807037
 21
222.368805
  0
ARC
  8
0
  6
CONTINUOUS
 10
347.250244
 20
215.788757
 40
8.000000
 50
90.000000
 51
124.663300
  0
ARC
  8
0
  6
CONTINUOUS
 10
305.753632
 20
187.094269
 40
8.000000
 50
124.663300
 51
180.000000
  0
ARC
  8
0
  6
CONTINUOUS
 10
400.257019
 20
215.788757
 40
8.000000
 50
55.336300
 51
90.000000
  0
ARC
  8
0
  6
CONTINUOUS
 10
441.753632
 20
187.094345
 40
8.000000
 50
0.000000
 51
55.336201
  0
LINE
  8
0
  6
CONTINUOUS
 10
449.753632
 20
45.288750
 11
449.753632
 21
18.788750
  0
ARC
  8
0
  6
CONTINUOUS
 10
454.753632
 20
182.788757
 40
5.000000
 50
180.000000
 51
270.000000
  0
LINE
  8
0
  6
CONTINUOUS
 10
449.753632
 20
45.288750
 11
449.753632
 21
182.288757
  0
ARC
  8
0
  6
CONTINUOUS
 10
454.753632
 20
44.788731
 40
5.000000
 50
90.000000
 51
180.000000
  0
LINE
  8
0
  6
DASHED
 10
427.753632
 20
36.788750
 11
427.753632
 21
18.788750
  0
LINE
  8
0
  6
DASHED
 10
414.753632
 20
36.788750
 11
414.753632
 21
18.788750
  0
LINE
  8
0
  6
DASHED
 10
332.753632
 20
36.788750
 11
332.753632
 21
18.788750
  0
LINE
  8
0
  6
DASHED
 10
319.753632
 20
36.788750
 11
319.753632
 21
18.788750
  0
CIRCLE
  8
0
  6
CONTINUOUS
 10
373.753632
 20
158.788757
 40
39.000000
  0
ARC
  8
0
  6
CONTINUOUS
 10
373.753632
 20
158.788757
 40
44.000000
 50
12.523100
 51
167.476807
  0
ARC
  8
0
  6
CONTINUOUS
 10
399.253632
 20
99.788750
 40
29.000000
 50
-90.000000
 51
12.523100
  0
ARC
  8
0
  6
CONTINUOUS
 10
348.253632
 20
99.788750
 40
29.000000
 50
167.476807
 51
270.000000
  0
ARC
  8
0
  6
CONTINUOUS
 10
399.253632
 20
99.788750
 40
31.900000
 50
-90.000000
 51
12.523100
  0
ARC
  8
0
  6
CONTINUOUS
 10
348.253632
 20
99.788750
 40
31.900000
 50
167.476807
 51
270.000000
  0
ARC
  8
0
  6
CONTINUOUS
 10
373.753632
 20
158.788757
 40
41.099998
 50
-192.523193
 51
12.523100
  0
LINE
  8
0
  6
CONTINUOUS
 10
430.394623
 20
106.705757
 11
416.706818
 21
168.329453
  0
LINE
  8
0
  6
CONTINUOUS
 10
427.563629
 20
106.076935
 11
413.875824
 21
167.700623
  0
LINE
  8
0
  6
CONTINUOUS
 10
399.253632
 20
67.888748
 11
348.253632
 21
67.888748
  0
LINE
  8
0
  6
CONTINUOUS
 10
348.253632
 20
70.788750
 11
399.253632
 21
70.788750
  0
LINE
  8
0
  6
CONTINUOUS
 10
330.800446
 20
168.329529
 11
317.112640
 21
106.705811
  0
LINE
  8
0
  6
CONTINUOUS
 10
333.631439
 20
167.700714
 11
319.943634
 21
106.076988
  0
ARC
  8
0
  6
CONTINUOUS
 10
270.044830
 20
113.788750
 40
185.208893
 50
-13.998090
 51
13.998090
  0
LINE
  8
0
  6
CONTINUOUS
 10
435.753632
 20
34.722191
 11
435.753632
 21
18.788750
  0
LINE
  8
0
  6
CONTINUOUS
 10
311.753632
 20
34.722191
 11
311.753632
 21
18.788750
  0
LINE
  8
0
  6
CONTINUOUS
 10
349.996246
 20
41.788750
 11
397.511017
 21
41.788750
  0
LINE
  8
0
  6
CONTINUOUS
 10
398.753632
 20
40.852871
 11
398.753632
 21
37.788750
  0
LINE
  8
0
  6
CONTINUOUS
 10
347.875031
 20
40.910069
 11
345.218018
 21
38.253208
  0
LINE
  8
0
  6
CONTINUOUS
 10
399.632233
 20
40.910069
 11
402.289032
 21
38.253250
  0
LINE
  8
0
  6
CONTINUOUS
 10
348.753632
 20
40.852871
 11
348.753632
 21
37.788750
  0
ARC
  8
0
  6
CONTINUOUS
 10
405.824646
 20
41.788750
 40
5.000000
 50
-135.000107
 51
-90.000000
  0
ARC
  8
0
  6
CONTINUOUS
 10
397.511017
 20
38.788750
 40
3.000000
 50
44.999691
 51
90.000000
  0
ARC
  8
0
  6
CONTINUOUS
 10
399.753632
 20
37.788750
 40
1.000000
 50
180.000000
 51
270.000000
  0
ARC
  8
0
  6
CONTINUOUS
 10
341.682617
 20
41.788750
 40
5.000000
 50
-90.000000
 51
-45.000000
  0
ARC
  8
0
  6
CONTINUOUS
 10
349.996246
 20
38.788750
 40
3.000000
 50
90.000000
 51
134.999802
  0
ARC
  8
0
  6
CONTINUOUS
 10
347.753632
 20
37.788750
 40
1.000000
 50
-90.000000
 51
0.000000
  0
LINE
  8
0
  6
CONTINUOUS
 10
361.526642
 20
82.788750
 11
356.586243
 21
82.788750
  0
LINE
  8
0
  6
CONTINUOUS
 10
364.253632
 20
91.064148
 11
364.253632
 21
82.788750
  0
LINE
  8
0
  6
CONTINUOUS
 10
369.003632
 20
94.070000
 11
369.003632
 21
97.038750
  0
LINE
  8
0
  6
CONTINUOUS
 10
378.503632
 20
94.070000
 11
378.503632
 21
97.038750
  0
LINE
  8
0
  6
CONTINUOUS
 10
372.825836
 20
95.294609
 11
372.825836
 21
84.347351
  0
LINE
  8
0
  6
CONTINUOUS
 10
374.607025
 20
95.294609
 11
374.607025
 21
84.347351
  0
LINE
  8
0
  6
CONTINUOUS
 10
383.958618
 20
95.294609
 11
383.958618
 21
84.273132
  0
LINE
  8
0
  6
CONTINUOUS
 10
385.591431
 20
89.449890
 11
385.591431
 21
84.273132
  0
LINE
  8
0
  6
CONTINUOUS
 10
361.999634
 20
95.146172
 11
357.421844
 21
95.146172
  0
LINE
  8
0
  6
CONTINUOUS
 10
357.421844
 20
95.146172
 11
356.349243
 21
93.816170
  0
LINE
  8
0
  6
CONTINUOUS
 10
356.478241
 20
97.038750
 11
354.753632
 21
94.830284
  0
LINE
  8
0
  6
CONTINUOUS
 10
356.349243
 20
85.606590
 11
357.439026
 21
84.458672
  0
LINE
  8
0
  6
CONTINUOUS
 10
354.753632
 20
84.637871
 11
356.586243
 21
82.788750
  0
LINE
  8
0
  6
CONTINUOUS
 10
354.753632
 20
94.830284
 11
354.753632
 21
84.637871
  0
LINE
  8
0
  6
CONTINUOUS
 10
356.349243
 20
93.816170
 11
356.349243
 21
85.606590
  0
LINE
  8
0
  6
CONTINUOUS
 10
362.880646
 20
94.294609
 11
361.981628
 21
95.146172
  0
LINE
  8
0
  6
CONTINUOUS
 10
362.866241
 20
97.038750
 11
364.253632
 21
95.499168
  0
LINE
  8
0
  6
CONTINUOUS
 10
362.880646
 20
94.070000
 11
364.253632
 21
94.070000
  0
LINE
  8
0
  6
CONTINUOUS
 10
356.478241
 20
97.038750
 11
362.866241
 21
97.038750
  0
LINE
  8
0
  6
CONTINUOUS
 10
360.394226
 20
91.064148
 11
364.253632
 21
91.064148
  0
LINE
  8
0
  6
CONTINUOUS
 10
362.880646
 20
89.505547
 11
360.394226
 21
89.505547
  0
LINE
  8
0
  6
CONTINUOUS
 10
359.911835
 20
84.458672
 11
357.439026
 21
84.458672
  0
LINE
  8
0
  6
CONTINUOUS
 10
362.880646
 20
88.021172
 11
362.880646
 21
89.208672
  0
ARC
  8
0
  6
CONTINUOUS
 10
359.911835
 20
87.427406
 40
2.968750
 50
-89.999786
 51
0.000109
  0
LINE
  8
0
  6
CONTINUOUS
 10
362.880646
 20
83.924667
 11
362.880646
 21
82.788750
  0
LINE
  8
0
  6
CONTINUOUS
 10
364.253632
 20
95.499168
 11
364.253632
 21
94.070000
  0
LINE
  8
0
  6
CONTINUOUS
 10
362.880646
 20
89.505547
 11
362.880646
 21
87.427406
  0
LINE
  8
0
  6
CONTINUOUS
 10
360.394226
 20
91.064148
 11
360.394226
 21
89.505547
  0
LINE
  8
0
  6
CONTINUOUS
 10
362.880646
 20
82.788750
 11
364.253632
 21
82.788750
  0
LINE
  8
0
  6
CONTINUOUS
 10
362.880646
 20
83.924667
 11
361.526642
 21
82.788750
  0
LINE
  8
0
  6
CONTINUOUS
 10
374.607025
 20
84.347351
 11
375.200836
 21
84.347351
  0
LINE
  8
0
  6
CONTINUOUS
 10
372.120819
 20
84.347351
 11
372.120819
 21
82.788750
  0
LINE
  8
0
  6
CONTINUOUS
 10
375.200836
 20
84.347351
 11
375.200836
 21
82.788750
  0
LINE
  8
0
  6
CONTINUOUS
 10
377.512634
 20
94.070000
 11
378.503632
 21
94.070000
  0
LINE
  8
0
  6
CONTINUOUS
 10
369.003632
 20
94.070000
 11
370.058228
 21
94.070000
  0
LINE
  8
0
  6
CONTINUOUS
 10
369.003632
 20
97.038750
 11
378.503632
 21
97.038750
  0
LINE
  8
0
  6
CONTINUOUS
 10
372.120819
 20
82.788750
 11
375.200836
 21
82.788750
  0
LINE
  8
0
  6
CONTINUOUS
 10
372.120819
 20
84.347351
 11
372.825836
 21
84.347351
  0
ARC
  8
0
  6
CONTINUOUS
 10
388.949829
 20
93.235031
 40
3.803712
 50
-73.981873
 51
90.003510
  0
ARC
  8
0
  6
CONTINUOUS
 10
388.949829
 20
93.235031
 40
2.320524
 50
-82.585274
 51
62.411850
  0
LINE
  8
0
  6
CONTINUOUS
 10
383.253632
 20
97.038750
 11
388.949829
 21
97.038750
  0
LINE
  8
0
  6
CONTINUOUS
 10
389.249420
 20
90.933907
 11
385.591431
 21
90.933907
  0
LINE
  8
0
  6
CONTINUOUS
 10
383.253632
 20
97.038750
 11
383.253632
 21
95.294609
  0
LINE
  8
0
  6
CONTINUOUS
 10
385.591431
 20
95.294609
 11
385.591431
 21
90.933907
  0
LINE
  8
0
  6
CONTINUOUS
 10
389.999420
 20
89.579010
 11
392.353821
 21
84.273132
  0
LINE
  8
0
  6
CONTINUOUS
 10
388.632233
 20
89.449890
 11
390.860046
 21
84.273132
  0
LINE
  8
0
  6
CONTINUOUS
 10
383.253632
 20
84.273132
 11
383.958618
 21
84.273132
  0
LINE
  8
0
  6
CONTINUOUS
 10
385.591431
 20
84.273132
 11
386.241028
 21
84.273132
  0
LINE
  8
0
  6
CONTINUOUS
 10
386.241028
 20
82.788750
 11
383.253632
 21
82.788750
  0
LINE
  8
0
  6
CONTINUOUS
 10
390.564240
 20
84.273132
 11
390.860046
 21
84.273132
  0
LINE
  8
0
  6
CONTINUOUS
 10
392.353821
 20
84.273132
 11
392.753632
 21
84.273132
  0
LINE
  8
0
  6
CONTINUOUS
 10
390.564240
 20
82.788750
 11
392.753632
 21
82.788750
  0
LINE
  8
0
  6
CONTINUOUS
 10
392.753632
 20
84.273132
 11
392.753632
 21
82.788750
  0
LINE
  8
0
  6
CONTINUOUS
 10
390.564240
 20
84.273132
 11
390.564240
 21
82.788750
  0
LINE
  8
0
  6
CONTINUOUS
 10
386.241028
 20
84.273132
 11
386.241028
 21
82.788750
  0
LINE
  8
0
  6
CONTINUOUS
 10
383.253632
 20
84.273132
 11
383.253632
 21
82.788750
  0
LINE
  8
0
  6
CONTINUOUS
 10
370.568420
 20
95.294609
 11
370.058228
 21
94.070000
  0
LINE
  8
0
  6
CONTINUOUS
 10
377.082428
 20
95.294609
 11
377.512634
 21
94.070000
  0
LINE
  8
0
  6
CONTINUOUS
 10
374.607025
 20
95.294609
 11
377.082428
 21
95.294609
  0
LINE
  8
0
  6
CONTINUOUS
 10
372.825836
 20
95.294609
 11
370.568420
 21
95.294609
  0
LINE
  8
0
  6
CONTINUOUS
 10
385.591431
 20
89.449890
 11
388.632233
 21
89.449890
  0
LINE
  8
0
  6
CONTINUOUS
 10
383.253632
 20
95.294609
 11
383.958618
 21
95.294609
  0
LINE
  8
0
  6
CONTINUOUS
 10
385.591431
 20
95.294609
 11
390.024628
 21
95.291725
  0
LINE
  8
0
  6
CONTINUOUS
 10
362.880646
 20
94.294609
 11
362.880646
 21
94.070000
  0
LINE
  8
0
  6
CONTINUOUS
 10
445.753632
 20
167.565857
 11
445.753632
 21
96.011681
  0
LINE
  8
0
  6
CONTINUOUS
 10
301.753632
 20
167.565857
 11
301.753632
 21
96.011673
  0
ARC
  8
0
  6
CONTINUOUS
 10
373.753632
 20
131.788757
 40
88.000000
 50
228.189804
 51
311.810791
  0
ARC
  8
0
  6
CONTINUOUS
 10
373.753632
 20
131.788757
 40
88.000000
 50
48.217949
 51
131.810501
  0
ARC
  8
0
  6
CONTINUOUS
 10
341.753632
 20
167.565857
 40
40.000000
 50
131.810806
 51
180.000000
  0
ARC
  8
0
  6
CONTINUOUS
 10
405.753632
 20
167.565857
 40
40.000000
 50
0.000000
 51
48.251911
  0
ARC
  8
0
  6
CONTINUOUS
 10
405.753632
 20
96.011665
 40
40.000000
 50
-48.187901
 51
0.000000
  0
ARC
  8
0
  6
CONTINUOUS
 10
341.753632
 20
96.011665
 40
40.000000
 50
180.000000
 51
228.190094
  0
LINE
  8
0
  6
CONTINUOUS
 10
362.753632
 20
163.788757
 11
362.753632
 21
153.788757
  0
LINE
  8
0
  6
CONTINUOUS
 10
354.753632
 20
163.788757
 11
354.753632
 21
153.788757
  0
LINE
  8
0
  6
CONTINUOUS
 10
354.753632
 20
163.788757
 11
362.753632
 21
163.788757
  0
LINE
  8
0
  6
CONTINUOUS
 10
354.753632
 20
153.788757
 11
362.753632
 21
153.788757
  0
ARC
  8
0
  6
CONTINUOUS
 10
373.753632
 20
158.788757
 40
16.000000
 50
-161.790100
 51
161.790100
  0
LINE
  8
0
  6
CONTINUOUS
 10
644.753662
 20
371.846680
 11
635.253662
 21
371.846680
  0
LINE
  8
0
  6
CONTINUOUS
 10
635.253662
 20
387.846680
 11
644.753662
 21
387.846680
  0
LINE
  8
0
  6
CONTINUOUS
 10
644.753662
 20
461.846680
 11
635.253662
 21
461.846680
  0
LINE
  8
0
  6
CONTINUOUS
 10
635.253662
 20
461.846680
 11
635.253662
 21
423.712708
  0
LINE
  8
0
  6
CONTINUOUS
 10
635.253662
 20
445.846680
 11
644.753662
 21
445.846680
  0
LINE
  8
0
  6
CONTINUOUS
 10
641.753662
 20
422.846680
 11
641.753662
 21
410.846680
  0
LINE
  8
0
  6
CONTINUOUS
 10
634.753662
 20
422.846680
 11
634.753662
 21
410.846680
  0
LINE
  8
0
  6
CONTINUOUS
 10
640.753662
 20
409.846680
 11
635.753662
 21
409.846680
  0
LINE
  8
0
  6
CONTINUOUS
 10
635.753662
 20
423.846680
 11
640.753662
 21
423.846680
  0
ARC
  8
0
  6
CONTINUOUS
 10
635.753662
 20
410.846680
 40
1.000000
 50
180.000000
 51
270.000000
  0
ARC
  8
0
  6
CONTINUOUS
 10
640.753662
 20
410.846680
 40
1.000000
 50
-90.000000
 51
0.000000
  0
ARC
  8
0
  6
CONTINUOUS
 10
640.753662
 20
422.846680
 40
1.000000
 50
0.000000
 51
90.000000
  0
ARC
  8
0
  6
CONTINUOUS
 10
635.753662
 20
422.846680
 40
1.000000
 50
90.000000
 51
180.000000
  0
LINE
  8
0
  6
CONTINUOUS
 10
637.253662
 20
420.346680
 11
637.253662
 21
413.346680
  0
LINE
  8
0
  6
CONTINUOUS
 10
639.253662
 20
420.346680
 11
639.253662
 21
413.346680
  0
ARC
  8
0
  6
CONTINUOUS
 10
638.253662
 20
413.346680
 40
1.000000
 50
-90.000000
 51
0.000000
  0
ARC
  8
0
  6
CONTINUOUS
 10
638.253662
 20
413.346680
 40
1.000000
 50
180.000000
 51
270.000000
  0
ARC
  8
0
  6
CONTINUOUS
 10
638.253662
 20
420.346680
 40
1.000000
 50
0.000000
 51
90.000000
  0
ARC
  8
0
  6
CONTINUOUS
 10
638.253662
 20
420.346680
 40
1.000000
 50
90.000000
 51
180.000000
  0
LINE
  8
0
  6
CONTINUOUS
 10
635.253662
 20
409.980652
 11
635.253662
 21
371.846680
  0
LINE
  8
0
  6
CONTINUOUS
 10
644.753662
 20
369.846680
 11
644.753662
 21
463.846680
  0
LINE
  8
0
  6
CONTINUOUS
 10
644.753662
 20
387.846680
 11
688.728638
 21
387.846680
  0
LINE
  8
0
  6
CONTINUOUS
 10
644.753662
 20
445.846680
 11
688.728638
 21
445.846680
  0
LINE
  8
0
  6
CONTINUOUS
 10
687.253662
 20
369.846680
 11
644.753662
 21
369.846680
  0
LINE
  8
0
  6
CONTINUOUS
 10
687.253662
 20
463.846680
 11
644.753662
 21
463.846680
  0
ARC
  8
0
  6
CONTINUOUS
 10
687.253601
 20
374.846680
 40
5.000000
 50
-90.000000
 51
0.000000
  0
ARC
  8
0
  6
CONTINUOUS
 10
687.253662
 20
458.846680
 40
5.000000
 50
0.000000
 51
90.000000
  0
LINE
  8
0
  6
CONTINUOUS
 10
692.253601
 20
374.846680
 11
692.253662
 21
458.846680
  0
LINE
  8
0
  6
CONTINUOUS
 10
644.753662
 20
145.788757
 11
635.253662
 21
145.788757
  0
LINE
  8
0
  6
CONTINUOUS
 10
635.253662
 20
135.198044
 11
644.753662
 21
135.198044
  0
LINE
  8
0
  6
CONTINUOUS
 10
644.753662
 20
55.788750
 11
635.253662
 21
55.788750
  0
LINE
  8
0
  6
CONTINUOUS
 10
635.253662
 20
66.379463
 11
644.753662
 21
66.379463
  0
LINE
  8
0
  6
CONTINUOUS
 10
644.753662
 20
147.788757
 11
644.753662
 21
53.788750
  0
LINE
  8
0
  6
CONTINUOUS
 10
644.753662
 20
129.788757
 11
688.728638
 21
129.788757
  0
LINE
  8
0
  6
CONTINUOUS
 10
644.753662
 20
71.788750
 11
688.728638
 21
71.788750
  0
LINE
  8
0
  6
CONTINUOUS
 10
634.753662
 20
147.288757
 11
634.753662
 21
145.788757
  0
LINE
  8
0
  6
CONTINUOUS
 10
641.753662
 20
147.288757
 11
641.753662
 21
145.788757
  0
LINE
  8
0
  6
CONTINUOUS
 10
641.753662
 20
147.288757
 11
634.753662
 21
147.288757
  0
LINE
  8
0
  6
CONTINUOUS
 10
637.353638
 20
160.288757
 11
637.353638
 21
147.288757
  0
LINE
  8
0
  6
CONTINUOUS
 10
639.153625
 20
160.913757
 11
639.153625
 21
147.288757
  0
LINE
  8
0
  6
CONTINUOUS
 10
640.953613
 20
158.851257
 11
640.953613
 21
147.288757
  0
LINE
  8
0
  6
CONTINUOUS
 10
635.553650
 20
159.663757
 11
635.553650
 21
147.288757
  0
LINE
  8
0
  6
CONTINUOUS
 10
639.153625
 20
160.913757
 11
637.353638
 21
160.288757
  0
LINE
  8
0
  6
CONTINUOUS
 10
640.953613
 20
158.851257
 11
639.153625
 21
159.476257
  0
LINE
  8
0
  6
CONTINUOUS
 10
635.553650
 20
159.663757
 11
637.352661
 21
159.216049
  0
LINE
  8
0
  6
CONTINUOUS
 10
687.253662
 20
147.788757
 11
644.753662
 21
147.788757
  0
LINE
  8
0
  6
CONTINUOUS
 10
687.253662
 20
53.788750
 11
644.753662
 21
53.788750
  0
ARC
  8
0
  6
CONTINUOUS
 10
687.253601
 20
142.788757
 40
5.000000
 50
0.000000
 51
90.000000
  0
ARC
  8
0
  6
CONTINUOUS
 10
687.253662
 20
58.788750
 40
5.000000
 50
-90.000000
 51
0.000000
  0
LINE
  8
0
  6
CONTINUOUS
 10
692.253601
 20
142.788757
 11
692.253662
 21
58.788738
  0
LINE
  8
0
  6
CONTINUOUS
 10
635.253662
 20
55.788750
 11
635.253662
 21
145.788757
  0
ARC
  8
0
  6
CONTINUOUS
 10
644.753662
 20
456.116516
 40
4.500000
 50
180.000000
 51
270.000000
  0
ARC
  8
0
  6
CONTINUOUS
 10
644.753662
 20
456.116516
 40
3.000000
 50
180.000000
 51
270.000000
  0
ARC
  8
0
  6
CONTINUOUS
 10
644.753662
 20
456.116516
 40
1.500000
 50
180.000000
 51
270.000000
  0
LINE
  8
0
  6
CONTINUOUS
 10
643.253662
 20
456.116516
 11
643.253662
 21
461.132111
  0
LINE
  8
0
  6
CONTINUOUS
 10
641.753662
 20
456.116516
 11
641.753662
 21
460.616516
  0
LINE
  8
0
  6
CONTINUOUS
 10
640.253662
 20
456.116516
 11
640.253662
 21
460.616516
  0
LINE
  8
0
  6
CONTINUOUS
 10
643.253662
 20
461.116516
 11
641.753662
 21
460.616516
  0
LINE
  8
0
  6
CONTINUOUS
 10
641.753662
 20
460.116516
 11
640.253662
 21
460.616516
  0
LINE
  8
0
  6
CONTINUOUS
 10
525.253662
 20
445.846680
 11
525.253662
 21
459.846710
  0
TEXT
  8
0
 10
4.000000
 20
3.000000
 40
4.000000
 41
1.000000
  1
HLMN-32L-1200~1800-T60W
 50
0.000000
  0
ENDSEC
  0
EOF
