  0
SECTION
  2
HEADER
  9
$ACADVER
  1
AC1014
  9
$ACADMAINTVER
 70
     9
  9
$DWGCODEPAGE
  3
ANSI_932
  9
$INSBASE
 10
0.0
 20
0.0
 30
0.0
  9
$EXTMIN
 10
57.71514611110842
 20
66.74643576538333
 30
0.0
  9
$EXTMAX
 10
792.5888039805248
 20
610.4094184859064
 30
0.0
  9
$LIMMIN
 10
0.0
 20
0.0
  9
$LIMMAX
 10
297.0
 20
210.0
  9
$ORTHOMODE
 70
     1
  9
$REGENMODE
 70
     1
  9
$FILLMODE
 70
     1
  9
$QTEXTMODE
 70
     0
  9
$MIRRTEXT
 70
     0
  9
$DRAGMODE
 70
     2
  9
$LTSCALE
 40
3.0
  9
$OSMODE
 70
    37
  9
$ATTMODE
 70
     1
  9
$TEXTSIZE
 40
2.0
  9
$TRACEWID
 40
1.0
  9
$TEXTSTYLE
  7
STANDARD
  9
$CLAYER
  8
0
  9
$CELTYPE
  6
BYLAYER
  9
$CECOLOR
 62
   256
  9
$CELTSCALE
 40
1.0
  9
$DELOBJ
 70
     1
  9
$DISPSILH
 70
     0
  9
$DIMSCALE
 40
3.0
  9
$DIMASZ
 40
1.8
  9
$DIMEXO
 40
0.625
  9
$DIMDLI
 40
3.75
  9
$DIMRND
 40
0.0
  9
$DIMDLE
 40
0.0
  9
$DIMEXE
 40
0.8
  9
$DIMTP
 40
0.0
  9
$DIMTM
 40
0.0
  9
$DIMTXT
 40
1.8
  9
$DIMCEN
 40
2.5
  9
$DIMTSZ
 40
0.0
  9
$DIMTOL
 70
     0
  9
$DIMLIM
 70
     0
  9
$DIMTIH
 70
     0
  9
$DIMTOH
 70
     0
  9
$DIMSE1
 70
     0
  9
$DIMSE2
 70
     0
  9
$DIMTAD
 70
     1
  9
$DIMZIN
 70
     8
  9
$DIMBLK
  1

  9
$DIMASO
 70
     1
  9
$DIMSHO
 70
     1
  9
$DIMPOST
  1

  9
$DIMAPOST
  1

  9
$DIMALT
 70
     0
  9
$DIMALTD
 70
     4
  9
$DIMALTF
 40
0.0394
  9
$DIMLFAC
 40
1.0
  9
$DIMTOFL
 70
     1
  9
$DIMTVP
 40
0.0
  9
$DIMTIX
 70
     0
  9
$DIMSOXD
 70
     0
  9
$DIMSAH
 70
     0
  9
$DIMBLK1
  1

  9
$DIMBLK2
  1

  9
$DIMSTYLE
  2
STANDARD
  9
$DIMCLRD
 70
     0
  9
$DIMCLRE
 70
     0
  9
$DIMCLRT
 70
     0
  9
$DIMTFAC
 40
1.0
  9
$DIMGAP
 40
0.75
  9
$DIMJUST
 70
     0
  9
$DIMSD1
 70
     0
  9
$DIMSD2
 70
     0
  9
$DIMTOLJ
 70
     1
  9
$DIMTZIN
 70
     0
  9
$DIMALTZ
 70
     0
  9
$DIMALTTZ
 70
     0
  9
$DIMFIT
 70
     3
  9
$DIMUPT
 70
     0
  9
$DIMUNIT
 70
     8
  9
$DIMDEC
 70
     2
  9
$DIMTDEC
 70
     2
  9
$DIMALTU
 70
     8
  9
$DIMALTTD
 70
     4
  9
$DIMTXSTY
  7
STANDARD
  9
$DIMAUNIT
 70
     0
  9
$LUNITS
 70
     2
  9
$LUPREC
 70
     3
  9
$SKETCHINC
 40
1.0
  9
$FILLETRAD
 40
10.0
  9
$AUNITS
 70
     0
  9
$AUPREC
 70
     2
  9
$MENU
  1
.
  9
$ELEVATION
 40
0.0
  9
$PELEVATION
 40
0.0
  9
$THICKNESS
 40
0.0
  9
$LIMCHECK
 70
     0
  9
$BLIPMODE
 70
     0
  9
$CHAMFERA
 40
0.0
  9
$CHAMFERB
 40
0.0
  9
$CHAMFERC
 40
20.0
  9
$CHAMFERD
 40
0.0
  9
$SKPOLY
 70
     0
  9
$TDCREATE
 40
2453753.550847257
  9
$TDUPDATE
 40
2453832.475818680
  9
$TDINDWG
 40
0.1862215741
  9
$TDUSRTIMER
 40
0.1862215741
  9
$USRTIMER
 70
     1
  9
$ANGBASE
 50
0.0
  9
$ANGDIR
 70
     0
  9
$PDMODE
 70
     0
  9
$PDSIZE
 40
-10.0
  9
$PLINEWID
 40
0.0
  9
$COORDS
 70
     0
  9
$SPLFRAME
 70
     0
  9
$SPLINETYPE
 70
     6
  9
$SPLINESEGS
 70
     8
  9
$ATTDIA
 70
     0
  9
$ATTREQ
 70
     1
  9
$HANDLING
 70
-16383
  9
$HANDSEED
  5
1EC0
  9
$SURFTAB1
 70
     6
  9
$SURFTAB2
 70
     6
  9
$SURFTYPE
 70
     6
  9
$SURFU
 70
     6
  9
$SURFV
 70
     6
  9
$UCSNAME
  2

  9
$UCSORG
 10
0.0
 20
0.0
 30
0.0
  9
$UCSXDIR
 10
1.0
 20
0.0
 30
0.0
  9
$UCSYDIR
 10
0.0
 20
1.0
 30
0.0
  9
$PUCSNAME
  2

  9
$PUCSORG
 10
0.0
 20
0.0
 30
0.0
  9
$PUCSXDIR
 10
1.0
 20
0.0
 30
0.0
  9
$PUCSYDIR
 10
0.0
 20
1.0
 30
0.0
  9
$USERI1
 70
     0
  9
$USERI2
 70
     0
  9
$USERI3
 70
     0
  9
$USERI4
 70
     0
  9
$USERI5
 70
     0
  9
$USERR1
 40
0.0
  9
$USERR2
 40
0.0
  9
$USERR3
 40
0.0
  9
$USERR4
 40
0.0
  9
$USERR5
 40
0.0
  9
$WORLDVIEW
 70
     1
  9
$SHADEDGE
 70
     3
  9
$SHADEDIF
 70
    70
  9
$TILEMODE
 70
     1
  9
$MAXACTVP
 70
    48
  9
$PINSBASE
 10
0.0
 20
0.0
 30
0.0
  9
$PLIMCHECK
 70
     0
  9
$PEXTMIN
 10
0.0
 20
0.0
 30
0.0
  9
$PEXTMAX
 10
0.0
 20
0.0
 30
0.0
  9
$PLIMMIN
 10
0.0
 20
0.0
  9
$PLIMMAX
 10
12.0
 20
9.0
  9
$UNITMODE
 70
     0
  9
$VISRETAIN
 70
     1
  9
$PLINEGEN
 70
     0
  9
$PSLTSCALE
 70
     1
  9
$TREEDEPTH
 70
  3020
  9
$PICKSTYLE
 70
     1
  9
$CMLSTYLE
  2
STANDARD
  9
$CMLJUST
 70
     0
  9
$CMLSCALE
 40
1.0
  9
$PROXYGRAPHICS
 70
     1
  9
$MEASUREMENT
 70
     0
  0
ENDSEC
  0
SECTION
  2
CLASSES
  0
CLASS
  1
DICTIONARYVAR
  2
AcDbDictionaryVar
  3
AutoCAD 2000
 90
        0
280
     0
281
     0
  0
CLASS
  1
ACDBDICTIONARYWDFLT
  2
AcDbDictionaryWithDefault
  3
AutoCAD 2000
 90
        0
280
     0
281
     0
  0
CLASS
  1
ACDBPLACEHOLDER
  2
AcDbPlaceHolder
  3
AutoCAD 2000
 90
        0
280
     0
281
     0
  0
CLASS
  1
LAYOUT
  2
AcDbLayout
  3
AutoCAD 2000
 90
        0
280
     0
281
     0
  0
CLASS
  1
LONG_TRANSACTION
  2
AcDbLongTransaction
  3
AutoCAD 2000
 90
        0
280
     0
281
     0
  0
CLASS
  1
LWPOLYLINE
  2
AcDbPolyline
  3
AutoCAD 2000
 90
        0
280
     0
281
     1
  0
CLASS
  1
HATCH
  2
AcDbHatch
  3
AutoCAD 2000
 90
        0
280
     0
281
     1
  0
CLASS
  1
XRECORD
  2
AcDbXrecord
  3
AutoCAD 2000
 90
        0
280
     0
281
     0
  0
ENDSEC
  0
SECTION
  2
TABLES
  0
TABLE
  2
VPORT
  5
6E
330
0
100
AcDbSymbolTable
 70
     2
  0
VPORT
  5
1E9A
330
6E
100
AcDbSymbolTableRecord
100
AcDbViewportTableRecord
  2
*ACTIVE
 70
     0
 10
0.0
 20
0.0
 11
1.0
 21
1.0
 12
414.2967915127221
 22
320.6759175895045
 13
0.0
 23
0.0
 14
10.0
 24
10.0
 15
10.0
 25
10.0
 16
0.0
 26
0.0
 36
1.0
 17
0.0
 27
0.0
 37
0.0
 40
584.0574294429988
 41
1.566970091027308
 42
50.0
 43
0.0
 44
0.0
 50
0.0
 51
0.0
 71
     0
 72
   100
 73
     1
 74
     3
 75
     0
 76
     0
 77
     0
 78
     0
  0
ENDTAB
  0
TABLE
  2
LTYPE
  5
69
330
0
100
AcDbSymbolTable
 70
     3
  0
LTYPE
  5
6A
330
69
100
AcDbSymbolTableRecord
100
AcDbLinetypeTableRecord
  2
BYBLOCK
 70
     0
  3

 72
    65
 73
     0
 40
0.0
  0
LTYPE
  5
6B
330
69
100
AcDbSymbolTableRecord
100
AcDbLinetypeTableRecord
  2
BYLAYER
 70
     0
  3

 72
    65
 73
     0
 40
0.0
  0
LTYPE
  5
8
330
69
100
AcDbSymbolTableRecord
100
AcDbLinetypeTableRecord
  2
CONTINUOUS
 70
     0
  3
Solid line
 72
    65
 73
     0
 40
0.0
  0
LTYPE
  5
27C
330
69
100
AcDbSymbolTableRecord
100
AcDbLinetypeTableRecord
  2
SEKKEI_A2_
 70
     0
  3
center(A2)  ____ _ ____ _ ____ _ ____ _ ____ _ 
 72
    65
 73
     4
 40
14.28749999999999
 49
9.525
 74
     0
 49
-1.587499999999999
 74
     0
 49
1.587499999999999
 74
     0
 49
-1.587499999999999
 74
     0
  0
LTYPE
  5
2B4
330
69
100
AcDbSymbolTableRecord
100
AcDbLinetypeTableRecord
  2
HIDDEN2
 70
     0
  3
Hidden (.5x) _ _ _ _ _ _ _ _ _ _ _ _ _ _ _ _ _
 72
    65
 73
     2
 40
4.762499999999999
 49
3.174999999999999
 74
     0
 49
-1.587499999999999
 74
     0
  0
ENDTAB
  0
TABLE
  2
LAYER
  5
66
330
0
100
AcDbSymbolTable
 70
     9
  0
LAYER
  5
5E
330
66
100
AcDbSymbolTableRecord
100
AcDbLayerTableRecord
  2
0
 70
     0
 62
     7
  6
CONTINUOUS
  0
LAYER
  5
3E
330
66
100
AcDbSymbolTableRecord
100
AcDbLayerTableRecord
  2
CENTER
 70
     0
 62
     3
  6
SEKKEI_A2_
  0
LAYER
  5
2B5
330
66
100
AcDbSymbolTableRecord
100
AcDbLayerTableRecord
  2
HIDS
 70
     0
 62
     1
  6
HIDDEN2
  0
LAYER
  5
2BA
330
66
100
AcDbSymbolTableRecord
100
AcDbLayerTableRecord
  2
HOJO
 70
     0
 62
     4
  6
CONTINUOUS
  0
LAYER
  5
3FA
330
66
100
AcDbSymbolTableRecord
100
AcDbLayerTableRecord
  2
TITLE
 70
     0
 62
     4
  6
CONTINUOUS
  0
ENDTAB
  0
TABLE
  2
STYLE
  5
67
330
0
100
AcDbSymbolTable
 70
     1
  0
STYLE
  5
16
330
67
100
AcDbSymbolTableRecord
100
AcDbTextStyleTableRecord
  2
STANDARD
 70
     0
 40
0.0
 41
1.0
 50
0.0
 71
     0
 42
2.0
  3
simplex.shx
  4
extfont.shx
  0
ENDTAB
  0
TABLE
  2
VIEW
  5
6C
330
0
100
AcDbSymbolTable
 70
     0
  0
ENDTAB
  0
TABLE
  2
UCS
  5
6D
330
0
100
AcDbSymbolTable
 70
     0
  0
ENDTAB
  0
TABLE
  2
APPID
  5
70
330
0
100
AcDbSymbolTable
 70
     1
  0
APPID
  5
71
330
70
100
AcDbSymbolTableRecord
100
AcDbRegAppTableRecord
  2
ACAD
 70
     0
  0
ENDTAB
  0
TABLE
  2
DIMSTYLE
  5
72
330
0
100
AcDbSymbolTable
 70
     1
  0
DIMSTYLE
105
73
330
72
100
AcDbSymbolTableRecord
100
AcDbDimStyleTableRecord
  2
STANDARD
 70
     0
  3

  4

  5

  6

  7

 40
3.0
 41
1.8
 42
0.625
 43
3.75
 44
0.8
 45
0.0
 46
0.0
 47
0.0
 48
0.0
140
1.8
141
2.5
142
0.0
143
0.0394
144
1.0
145
0.0
146
1.0
147
0.75
 71
     0
 72
     0
 73
     0
 74
     0
 75
     0
 76
     0
 77
     1
 78
     8
170
     0
171
     4
172
     1
173
     0
174
     0
175
     0
176
     0
177
     0
178
     0
270
     8
271
     2
272
     2
273
     8
274
     4
340
16
275
     0
280
     0
281
     0
282
     0
283
     1
284
     0
285
     0
286
     0
287
     3
288
     0
  0
ENDTAB
  0
TABLE
  2
BLOCK_RECORD
  5
1
330
0
100
AcDbSymbolTable
 70
    62
  0
BLOCK_RECORD
  5
2
102
{ACAD_XDICTIONARY
360
1EBC
102
}
330
1
100
AcDbSymbolTableRecord
100
AcDbBlockTableRecord
  2
*MODEL_SPACE
  0
BLOCK_RECORD
  5
1E95
102
{ACAD_XDICTIONARY
360
1EBE
102
}
330
1
100
AcDbSymbolTableRecord
100
AcDbBlockTableRecord
  2
*PAPER_SPACE
  0
ENDTAB
  0
ENDSEC
  0
SECTION
  2
BLOCKS
  0
BLOCK
  5
5D
330
2
100
AcDbEntity
  8
0
100
AcDbBlockBegin
  2
*MODEL_SPACE
 70
     0
 10
0.0
 20
0.0
 30
0.0
  3
*MODEL_SPACE
  1

  0
ENDBLK
  5
5F
330
2
100
AcDbEntity
  8
0
100
AcDbBlockEnd
  0
BLOCK
  5
1E97
330
1E95
100
AcDbEntity
 67
     1
  8
0
100
AcDbBlockBegin
  2
*PAPER_SPACE
 70
     0
 10
0.0
 20
0.0
 30
0.0
  3
*PAPER_SPACE
  1

  0
ENDBLK
  5
1E98
330
1E95
100
AcDbEntity
 67
     1
  8
0
100
AcDbBlockEnd
  0
ENDSEC
  0
SECTION
  2
ENTITIES
  0
ARC
  5
68C
330
2
100
AcDbEntity
  8
0
100
AcDbCircle
 10
386.2151571111082
 20
216.7464317653833
 30
0.0
 40
16.0
100
AcDbArc
 50
18.20990000000007
 51
341.7900999999999
  0
LINE
  5
68D
330
2
100
AcDbEntity
  8
0
100
AcDbLine
 10
409.9725421111084
 20
99.74643576538333
 30
0.0
 11
362.4577411111083
 21
99.74643576538333
 31
0.0
  0
LINE
  5
68E
330
2
100
AcDbEntity
  8
0
100
AcDbLine
 10
411.7151571111082
 20
128.7464317653833
 30
0.0
 11
360.7151571111082
 21
128.7464317653833
 31
0.0
  0
LINE
  5
68F
330
2
100
AcDbEntity
  8
0
100
AcDbLine
 10
360.7151571111082
 20
125.8464377653833
 30
0.0
 11
411.7151571111082
 21
125.8464377653833
 31
0.0
  0
ARC
  5
690
330
2
100
AcDbEntity
  8
0
100
AcDbCircle
 10
386.2151571111082
 20
216.7464317653833
 30
0.0
 40
41.09999799999999
100
AcDbArc
 50
167.4768980000002
 51
12.52323999999984
  0
ARC
  5
691
330
2
100
AcDbEntity
  8
0
100
AcDbCircle
 10
386.2151571111082
 20
216.7464317653833
 30
0.0
 40
44.0
100
AcDbArc
 50
12.52323999999984
 51
167.4768980000002
  0
CIRCLE
  5
692
330
2
100
AcDbEntity
  8
0
100
AcDbCircle
 10
386.2151571111082
 20
216.7464317653833
 30
0.0
 40
39.0
  0
LINE
  5
693
330
2
100
AcDbEntity
  8
0
100
AcDbLine
 10
359.7117391111083
 20
281.7464317653833
 30
0.0
 11
412.7185441111083
 21
281.7464317653833
 31
0.0
  0
LINE
  5
694
330
2
100
AcDbEntity
  8
0
100
AcDbLine
 10
310.2151571111082
 20
94.74643576538332
 30
0.0
 11
462.2151571111082
 21
94.74643576538332
 31
0.0
  0
LINE
  5
695
330
2
100
AcDbEntity
  8
0
100
AcDbLine
 10
310.2151571111082
 20
76.74643576538333
 30
0.0
 11
462.2151571111082
 21
76.74643576538333
 31
0.0
  0
LINE
  5
696
330
2
100
AcDbEntity
  8
CENTER
100
AcDbLine
 10
331.1427700653221
 20
216.7464317653833
 30
0.0
 11
441.2875341667752
 21
216.7464317653833
 31
0.0
  0
LINE
  5
697
330
2
100
AcDbEntity
  8
CENTER
100
AcDbLine
 10
57.71514611110842
 20
525.4094184859066
 30
0.0
 11
472.2153401111084
 21
525.4094184859066
 31
0.0
  0
LINE
  5
698
330
2
100
AcDbEntity
  8
0
100
AcDbLine
 10
368.7151571111082
 20
460.4094184859065
 30
0.0
 11
403.7151571111082
 21
460.4094184859065
 31
0.0
  0
LINE
  5
699
330
2
100
AcDbEntity
  8
0
100
AcDbLine
 10
405.2151571111083
 20
405.4094184859065
 30
0.0
 11
370.2151571111083
 21
405.4094184859065
 31
0.0
  0
LINE
  5
69D
330
2
100
AcDbEntity
  8
0
100
AcDbLine
 10
458.4817891111083
 20
480.4094184859065
 30
0.0
 11
313.5517811111083
 21
480.4094184859065
 31
0.0
  0
LINE
  5
69E
330
2
100
AcDbEntity
  8
0
100
AcDbLine
 10
313.5517811111083
 20
570.4094184859066
 30
0.0
 11
458.4817891111083
 21
570.4094184859066
 31
0.0
  0
LINE
  5
69F
330
2
100
AcDbEntity
  8
0
100
AcDbLine
 10
124.7151531111083
 20
124.3371337653833
 30
0.0
 11
233.6774671111084
 21
124.3371337653833
 31
0.0
  0
LINE
  5
6A0
330
2
100
AcDbEntity
  8
0
100
AcDbLine
 10
124.7151531111083
 20
193.1557337653833
 30
0.0
 11
233.6774671111084
 21
193.1557337653833
 31
0.0
  0
LINE
  5
6A1
330
2
100
AcDbEntity
  8
0
100
AcDbLine
 10
124.7151531111083
 20
113.7464357653833
 30
0.0
 11
243.7151571111082
 21
113.7464357653833
 31
0.0
  0
LINE
  5
6A2
330
2
100
AcDbEntity
  8
0
100
AcDbLine
 10
124.7151531111083
 20
203.7464317653832
 30
0.0
 11
243.7151571111082
 21
203.7464317653832
 31
0.0
  0
LINE
  5
6A3
330
2
100
AcDbEntity
  8
CENTER
100
AcDbLine
 10
57.71514611110956
 20
158.7464317653832
 30
0.0
 11
343.1015091111082
 21
158.7464317653832
 31
0.0
  0
LINE
  5
6A4
330
2
100
AcDbEntity
  8
0
100
AcDbLine
 10
124.7151531111083
 20
113.7464357653833
 30
0.0
 11
124.7151531111083
 21
203.7464317653832
 31
0.0
  0
LINE
  5
6A5
330
2
100
AcDbEntity
  8
0
100
AcDbLine
 10
67.71516111110838
 20
200.7464317653833
 30
0.0
 11
67.71513111110834
 21
116.7464247653833
 31
0.0
  0
LINE
  5
6A6
330
2
100
AcDbEntity
  8
0
100
AcDbLine
 10
115.2151531111083
 20
205.7464317653832
 30
0.0
 11
115.2151531111083
 21
111.7464357653833
 31
0.0
  0
ARC
  5
6A8
330
2
100
AcDbEntity
  8
0
100
AcDbCircle
 10
72.71513111110834
 20
116.7464357653833
 30
0.0
 40
5.0
100
AcDbArc
 50
180.0
 51
270.0
  0
LINE
  5
6A9
330
2
100
AcDbEntity
  8
0
100
AcDbLine
 10
115.2151531111083
 20
129.7464317653833
 30
0.0
 11
71.24012111110835
 21
129.7464317653833
 31
0.0
  0
LINE
  5
6AA
330
2
100
AcDbEntity
  8
0
100
AcDbLine
 10
72.71513111110834
 20
111.7464357653833
 30
0.0
 11
115.2151531111083
 21
111.7464357653833
 31
0.0
  0
LINE
  5
6AB
330
2
100
AcDbEntity
  8
0
100
AcDbLine
 10
115.2151531111083
 20
113.7464357653833
 30
0.0
 11
124.7151531111083
 21
113.7464357653833
 31
0.0
  0
LINE
  5
6AC
330
2
100
AcDbEntity
  8
0
100
AcDbLine
 10
124.7151531111083
 20
124.3371457653833
 30
0.0
 11
115.2151531111083
 21
124.3371457653833
 31
0.0
  0
ARC
  5
6AD
330
2
100
AcDbEntity
  8
0
100
AcDbCircle
 10
72.71516111110838
 20
200.7464317653833
 30
0.0
 40
5.0
100
AcDbArc
 50
90.0
 51
180.0
  0
LINE
  5
6AE
330
2
100
AcDbEntity
  8
0
100
AcDbLine
 10
115.2151531111083
 20
187.7464317653832
 30
0.0
 11
71.24012111110835
 21
187.7464317653832
 31
0.0
  0
LINE
  5
6B0
330
2
100
AcDbEntity
  8
0
100
AcDbLine
 10
119.7151531111082
 20
187.2758357653833
 30
0.0
 11
119.7151531111082
 21
182.7758357653832
 31
0.0
  0
LINE
  5
6B1
330
2
100
AcDbEntity
  8
0
100
AcDbLine
 10
118.2151531111083
 20
187.2758357653833
 30
0.0
 11
118.2151531111083
 21
182.7758357653832
 31
0.0
  0
LINE
  5
6B2
330
2
100
AcDbEntity
  8
0
100
AcDbLine
 10
116.7151531111082
 20
187.2758357653833
 30
0.0
 11
116.7151531111082
 21
182.2602337653833
 31
0.0
  0
LINE
  5
6B3
330
2
100
AcDbEntity
  8
HOJO
100
AcDbLine
 10
118.2151531111083
 20
183.2758357653833
 30
0.0
 11
119.7151531111082
 21
182.7758357653832
 31
0.0
  0
LINE
  5
6B4
330
2
100
AcDbEntity
  8
HOJO
100
AcDbLine
 10
116.7151531111082
 20
182.2758357653833
 30
0.0
 11
118.2151531111083
 21
182.7758357653832
 31
0.0
  0
ARC
  5
6B5
330
2
100
AcDbEntity
  8
0
100
AcDbCircle
 10
115.2151531111083
 20
187.2758357653833
 30
0.0
 40
3.0
100
AcDbArc
 50
0.0
 51
90.0
  0
ARC
  5
6B6
330
2
100
AcDbEntity
  8
0
100
AcDbCircle
 10
115.2151531111083
 20
187.2758357653833
 30
0.0
 40
4.5
100
AcDbArc
 50
0.0
 51
90.0
  0
LINE
  5
6B7
330
2
100
AcDbEntity
  8
0
100
AcDbLine
 10
124.7151531111083
 20
193.1557337653833
 30
0.0
 11
115.2151531111083
 21
193.1557337653833
 31
0.0
  0
ARC
  5
6B8
330
2
100
AcDbEntity
  8
0
100
AcDbCircle
 10
115.2151531111083
 20
187.2758357653833
 30
0.0
 40
1.5
100
AcDbArc
 50
0.0
 51
90.0
  0
LINE
  5
6B9
330
2
100
AcDbEntity
  8
0
100
AcDbLine
 10
72.71513111110834
 20
205.7464317653832
 30
0.0
 11
115.2151531111083
 21
205.7464317653832
 31
0.0
  0
LINE
  5
6BE
330
2
100
AcDbEntity
  8
0
100
AcDbLine
 10
115.2151531111083
 20
203.7464317653832
 30
0.0
 11
124.7151531111083
 21
203.7464317653832
 31
0.0
  0
LINE
  5
6C4
330
2
100
AcDbEntity
  8
0
100
AcDbLine
 10
289.7151571111082
 20
132.3941677653833
 30
0.0
 11
289.7151571111082
 21
233.7465537653832
 31
0.0
  0
LINE
  5
6C5
330
2
100
AcDbEntity
  8
0
100
AcDbLine
 10
243.7151571111082
 20
203.7464317653832
 30
0.0
 11
243.7151571111082
 21
113.7464357653833
 31
0.0
  0
LINE
  5
6C6
330
2
100
AcDbEntity
  8
0
100
AcDbLine
 10
234.7151571111083
 20
201.7464317653832
 30
0.0
 11
234.7151571111083
 21
115.7464167653833
 31
0.0
  0
LINE
  5
6C7
330
2
100
AcDbEntity
  8
0
100
AcDbLine
 10
298.2151571111082
 20
235.7464317653833
 30
0.0
 11
298.2151571111082
 21
107.7464357653833
 31
0.0
  0
ARC
  5
6C8
330
2
100
AcDbEntity
  8
0
100
AcDbCircle
 10
489.9239581111084
 20
171.7464317653833
 30
0.0
 40
185.2088929999999
100
AcDbArc
 50
166.0019069999998
 51
193.9980930000001
  0
ARC
  5
6C9
330
2
100
AcDbEntity
  8
0
100
AcDbCircle
 10
360.7151571111082
 20
157.7464317653832
 30
0.0
 40
31.89999999999999
100
AcDbArc
 50
167.4768980000002
 51
270.0
  0
ARC
  5
6CA
330
2
100
AcDbEntity
  8
0
100
AcDbCircle
 10
360.7151571111082
 20
157.7464317653832
 30
0.0
 40
29.0
100
AcDbArc
 50
167.4768980000002
 51
270.0
  0
LINE
  5
6CB
330
2
100
AcDbEntity
  8
0
100
AcDbLine
 10
310.2151571111082
 20
103.2464357653833
 30
0.0
 11
310.2151571111082
 21
240.2464317653833
 31
0.0
  0
LINE
  5
6CC
330
2
100
AcDbEntity
  8
CENTER
100
AcDbLine
 10
386.2151571111084
 20
291.7464317653833
 30
0.0
 11
386.2151571111082
 21
66.74643576538333
 31
0.0
  0
LINE
  5
6CD
330
2
100
AcDbEntity
  8
0
100
AcDbLine
 10
243.7151571111082
 20
123.2274347653833
 30
0.0
 11
298.2151571111082
 21
123.2274347653833
 31
0.0
  0
LINE
  5
6CE
330
2
100
AcDbEntity
  8
0
100
AcDbLine
 10
243.7151571111082
 20
138.2404357653833
 30
0.0
 11
287.7151571111082
 21
138.2404357653833
 31
0.0
  0
LINE
  5
6CF
330
2
100
AcDbEntity
  8
0
100
AcDbLine
 10
298.2151571111082
 20
111.8432527653833
 30
0.0
 11
243.7151571111082
 21
113.7464357653833
 31
0.0
  0
ARC
  5
6D0
330
2
100
AcDbEntity
  8
0
100
AcDbCircle
 10
236.7151571111083
 20
115.7464357653833
 30
0.0
 40
2.0
100
AcDbArc
 50
180.0
 51
270.0
  0
LINE
  5
6D1
330
2
100
AcDbEntity
  8
0
100
AcDbLine
 10
324.2151571111083
 20
92.67987476538332
 30
0.0
 11
324.2151571111083
 21
76.74643576538333
 31
0.0
  0
LINE
  5
6D2
330
2
100
AcDbEntity
  8
HIDS
100
AcDbLine
 10
345.2151571111083
 20
94.74643576538332
 30
0.0
 11
345.2151571111083
 21
76.74643576538333
 31
0.0
  0
LINE
  5
6D3
330
2
100
AcDbEntity
  8
HIDS
100
AcDbLine
 10
332.2151571111082
 20
94.74643576538332
 30
0.0
 11
332.2151571111082
 21
76.74643576538333
 31
0.0
  0
LINE
  5
6D4
330
2
100
AcDbEntity
  8
0
100
AcDbLine
 10
310.2151571111082
 20
103.2464357653833
 30
0.0
 11
310.2151571111082
 21
76.74643576538333
 31
0.0
  0
LINE
  5
6D5
330
2
100
AcDbEntity
  8
CENTER
100
AcDbLine
 10
338.7151571111083
 20
99.74643576538335
 30
0.0
 11
338.7151571111083
 21
71.74643576538335
 31
0.0
  0
LINE
  5
6D6
330
2
100
AcDbEntity
  8
0
100
AcDbLine
 10
305.2151571111082
 20
107.7464357653833
 30
0.0
 11
298.2151571111082
 21
107.7464357653833
 31
0.0
  0
LINE
  5
6D7
330
2
100
AcDbEntity
  8
0
100
AcDbLine
 10
291.7151571111082
 20
107.7463367653833
 30
0.0
 11
298.2151571111082
 21
107.7463367653833
 31
0.0
  0
ARC
  5
6D8
330
2
100
AcDbEntity
  8
0
100
AcDbCircle
 10
287.2152021111083
 20
109.7258557653833
 30
0.0
 40
2.5
100
AcDbArc
 50
0.2607730000002915
 51
88.00000000000043
  0
ARC
  5
6D9
330
2
100
AcDbEntity
  8
0
100
AcDbCircle
 10
291.7151571111082
 20
109.7463367653833
 30
0.0
 40
2.0
100
AcDbArc
 50
180.2607730000002
 51
270.0
  0
ARC
  5
6DA
330
2
100
AcDbEntity
  8
0
100
AcDbCircle
 10
305.2151721111083
 20
102.7464167653833
 30
0.0
 40
5.0
100
AcDbArc
 50
0.0
 51
90.0
  0
LINE
  5
6DB
330
2
100
AcDbEntity
  8
0
100
AcDbLine
 10
290.2831191111083
 20
131.1794387653833
 30
0.0
 11
298.2151571111082
 21
131.1794387653833
 31
0.0
  0
LINE
  5
6DC
330
2
100
AcDbEntity
  8
0
100
AcDbLine
 10
360.3365561111083
 20
98.86775476538332
 30
0.0
 11
357.6797561111084
 21
96.21093676538334
 31
0.0
  0
LINE
  5
6DD
330
2
100
AcDbEntity
  8
0
100
AcDbLine
 10
361.2151571111082
 20
98.81055676538332
 30
0.0
 11
361.2151571111082
 21
95.74643576538333
 31
0.0
  0
ARC
  5
6DE
330
2
100
AcDbEntity
  8
0
100
AcDbCircle
 10
354.1441421111083
 20
99.74643576538333
 30
0.0
 40
5.0
100
AcDbArc
 50
270.0
 51
315.0000919999998
  0
ARC
  5
6DF
330
2
100
AcDbEntity
  8
0
100
AcDbCircle
 10
360.2151571111082
 20
95.74643576538333
 30
0.0
 40
1.0
100
AcDbArc
 50
270.0
 51
0.0
  0
ARC
  5
6E0
330
2
100
AcDbEntity
  8
0
100
AcDbCircle
 10
362.4577411111083
 20
96.74643576538333
 30
0.0
 40
3.0
100
AcDbArc
 50
90.0
 51
135.0003050000002
  0
LINE
  5
6E1
330
2
100
AcDbEntity
  8
0
100
AcDbLine
 10
375.3421401111083
 20
147.4632367653833
 30
0.0
 11
375.3421401111083
 21
145.3850967653833
 31
0.0
  0
LINE
  5
6E2
330
2
100
AcDbEntity
  8
0
100
AcDbLine
 10
375.3421401111083
 20
145.9788537653832
 30
0.0
 11
375.3421401111083
 21
147.1663537653832
 31
0.0
  0
LINE
  5
6E3
330
2
100
AcDbEntity
  8
0
100
AcDbLine
 10
368.8109511111083
 20
151.7738597653833
 30
0.0
 11
368.8109511111083
 21
143.5642727653833
 31
0.0
  0
LINE
  5
6E4
330
2
100
AcDbEntity
  8
0
100
AcDbLine
 10
367.2151571111082
 20
152.7879667653833
 30
0.0
 11
367.2151571111082
 21
142.5955527653833
 31
0.0
  0
LINE
  5
6E5
330
2
100
AcDbEntity
  8
0
100
AcDbLine
 10
376.7151571111083
 20
149.0218377653833
 30
0.0
 11
376.7151571111083
 21
140.7464317653833
 31
0.0
  0
ARC
  5
6E6
330
2
100
AcDbEntity
  8
0
100
AcDbCircle
 10
372.3733601111083
 20
145.3850967653833
 30
0.0
 40
2.96875
100
AcDbArc
 50
270.0002139999998
 51
0.0001089999998967
  0
LINE
  5
6E7
330
2
100
AcDbEntity
  8
0
100
AcDbLine
 10
373.9881361111083
 20
140.7464317653833
 30
0.0
 11
369.0477371111082
 21
140.7464317653833
 31
0.0
  0
LINE
  5
6E8
330
2
100
AcDbEntity
  8
0
100
AcDbLine
 10
372.3733601111083
 20
142.4163537653833
 30
0.0
 11
369.9007651111082
 21
142.4163537653833
 31
0.0
  0
LINE
  5
6E9
330
2
100
AcDbEntity
  8
0
100
AcDbLine
 10
367.2151571111082
 20
142.5955527653833
 30
0.0
 11
369.0477371111082
 21
140.7464317653833
 31
0.0
  0
LINE
  5
6EA
330
2
100
AcDbEntity
  8
0
100
AcDbLine
 10
368.8109511111083
 20
143.5642727653833
 30
0.0
 11
369.9007651111082
 21
142.4163537653833
 31
0.0
  0
LINE
  5
6EB
330
2
100
AcDbEntity
  8
0
100
AcDbLine
 10
375.3421401111083
 20
141.8823577653833
 30
0.0
 11
373.9881361111083
 21
140.7464317653833
 31
0.0
  0
LINE
  5
6EC
330
2
100
AcDbEntity
  8
0
100
AcDbLine
 10
375.3421401111083
 20
140.7464317653833
 30
0.0
 11
376.7151571111083
 21
140.7464317653833
 31
0.0
  0
LINE
  5
6ED
330
2
100
AcDbEntity
  8
0
100
AcDbLine
 10
375.3421401111083
 20
141.8823577653833
 30
0.0
 11
375.3421401111083
 21
140.7464317653833
 31
0.0
  0
LINE
  5
6EE
330
2
100
AcDbEntity
  8
0
100
AcDbLine
 10
368.9399491111082
 20
154.9964317653833
 30
0.0
 11
375.3279501111082
 21
154.9964317653833
 31
0.0
  0
LINE
  5
6EF
330
2
100
AcDbEntity
  8
0
100
AcDbLine
 10
374.4611591111083
 20
153.1038537653832
 30
0.0
 11
369.8835531111082
 21
153.1038537653832
 31
0.0
  0
LINE
  5
6F0
330
2
100
AcDbEntity
  8
0
100
AcDbLine
 10
368.9399491111082
 20
154.9964317653833
 30
0.0
 11
367.2151571111082
 21
152.7879667653833
 31
0.0
  0
LINE
  5
6F1
330
2
100
AcDbEntity
  8
0
100
AcDbLine
 10
369.8835531111082
 20
153.1038537653832
 30
0.0
 11
368.8109511111083
 21
151.7738597653833
 31
0.0
  0
LINE
  5
6F2
330
2
100
AcDbEntity
  8
0
100
AcDbLine
 10
375.3421401111083
 20
152.2522987653833
 30
0.0
 11
375.3421401111083
 21
152.0276817653833
 31
0.0
  0
LINE
  5
6F3
330
2
100
AcDbEntity
  8
0
100
AcDbLine
 10
372.8557511111083
 20
149.0218377653833
 30
0.0
 11
372.8557511111083
 21
147.4632367653833
 31
0.0
  0
LINE
  5
6F4
330
2
100
AcDbEntity
  8
0
100
AcDbLine
 10
376.7151571111083
 20
153.4568507653833
 30
0.0
 11
376.7151571111083
 21
152.0276817653833
 31
0.0
  0
LINE
  5
6F5
330
2
100
AcDbEntity
  8
0
100
AcDbLine
 10
375.3421401111083
 20
147.4632367653833
 30
0.0
 11
372.8557511111083
 21
147.4632367653833
 31
0.0
  0
LINE
  5
6F6
330
2
100
AcDbEntity
  8
0
100
AcDbLine
 10
372.8557511111083
 20
149.0218377653833
 30
0.0
 11
376.7151571111083
 21
149.0218377653833
 31
0.0
  0
LINE
  5
6F7
330
2
100
AcDbEntity
  8
0
100
AcDbLine
 10
375.3421401111083
 20
152.0276817653833
 30
0.0
 11
376.7151571111083
 21
152.0276817653833
 31
0.0
  0
LINE
  5
6F8
330
2
100
AcDbEntity
  8
0
100
AcDbLine
 10
375.3279501111082
 20
154.9964317653833
 30
0.0
 11
376.7151571111083
 21
153.4568507653833
 31
0.0
  0
LINE
  5
6F9
330
2
100
AcDbEntity
  8
0
100
AcDbLine
 10
375.3421401111083
 20
152.2522987653833
 30
0.0
 11
374.4431541111083
 21
153.1038537653832
 31
0.0
  0
LINE
  5
6FA
330
2
100
AcDbEntity
  8
0
100
AcDbLine
 10
387.0687641111083
 20
153.2522987653833
 30
0.0
 11
387.0687641111083
 21
142.3050337653833
 31
0.0
  0
LINE
  5
6FB
330
2
100
AcDbEntity
  8
0
100
AcDbLine
 10
385.2873611111083
 20
153.2522987653833
 30
0.0
 11
385.2873611111083
 21
142.3050337653833
 31
0.0
  0
LINE
  5
6FC
330
2
100
AcDbEntity
  8
0
100
AcDbLine
 10
384.5823441111083
 20
140.7464317653833
 30
0.0
 11
387.6623611111083
 21
140.7464317653833
 31
0.0
  0
LINE
  5
6FD
330
2
100
AcDbEntity
  8
0
100
AcDbLine
 10
384.5823441111083
 20
142.3050337653833
 30
0.0
 11
385.2873611111083
 21
142.3050337653833
 31
0.0
  0
LINE
  5
6FE
330
2
100
AcDbEntity
  8
0
100
AcDbLine
 10
384.5823441111083
 20
142.3050337653833
 30
0.0
 11
384.5823441111083
 21
140.7464317653833
 31
0.0
  0
LINE
  5
6FF
330
2
100
AcDbEntity
  8
0
100
AcDbLine
 10
387.6623611111083
 20
142.3050337653833
 30
0.0
 11
387.6623611111083
 21
140.7464317653833
 31
0.0
  0
LINE
  5
700
330
2
100
AcDbEntity
  8
0
100
AcDbLine
 10
387.0687641111083
 20
142.3050337653833
 30
0.0
 11
387.6623611111083
 21
142.3050337653833
 31
0.0
  0
LINE
  5
701
330
2
100
AcDbEntity
  8
0
100
AcDbLine
 10
381.4651571111082
 20
154.9964317653833
 30
0.0
 11
390.9651571111083
 21
154.9964317653833
 31
0.0
  0
LINE
  5
702
330
2
100
AcDbEntity
  8
0
100
AcDbLine
 10
385.2873611111083
 20
153.2522987653833
 30
0.0
 11
383.0299461111083
 21
153.2522987653833
 31
0.0
  0
LINE
  5
703
330
2
100
AcDbEntity
  8
0
100
AcDbLine
 10
383.0299461111083
 20
153.2522987653833
 30
0.0
 11
382.5197531111083
 21
152.0276817653833
 31
0.0
  0
LINE
  5
704
330
2
100
AcDbEntity
  8
0
100
AcDbLine
 10
381.4651571111082
 20
152.0276817653833
 30
0.0
 11
382.5197531111083
 21
152.0276817653833
 31
0.0
  0
LINE
  5
705
330
2
100
AcDbEntity
  8
0
100
AcDbLine
 10
381.4651571111082
 20
152.0276817653833
 30
0.0
 11
381.4651571111082
 21
154.9964317653833
 31
0.0
  0
LINE
  5
706
330
2
100
AcDbEntity
  8
0
100
AcDbLine
 10
387.0687641111083
 20
153.2522987653833
 30
0.0
 11
389.5439531111083
 21
153.2522987653833
 31
0.0
  0
LINE
  5
707
330
2
100
AcDbEntity
  8
0
100
AcDbLine
 10
389.5439531111083
 20
153.2522987653833
 30
0.0
 11
389.9741591111082
 21
152.0276817653833
 31
0.0
  0
LINE
  5
708
330
2
100
AcDbEntity
  8
0
100
AcDbLine
 10
389.9741591111082
 20
152.0276817653833
 30
0.0
 11
390.9651571111083
 21
152.0276817653833
 31
0.0
  0
LINE
  5
709
330
2
100
AcDbEntity
  8
0
100
AcDbLine
 10
390.9651571111083
 20
152.0276817653833
 30
0.0
 11
390.9651571111083
 21
154.9964317653833
 31
0.0
  0
LINE
  5
70A
330
2
100
AcDbEntity
  8
0
100
AcDbLine
 10
288.9829181111083
 20
211.5142087653833
 30
0.0
 11
283.2684101111083
 21
205.7996857653833
 31
0.0
  0
LINE
  5
70B
330
2
100
AcDbEntity
  8
0
100
AcDbLine
 10
243.7151571111082
 20
203.7464317653832
 30
0.0
 11
289.7151571111082
 21
205.3527857653833
 31
0.0
  0
ARC
  5
70D
330
2
100
AcDbEntity
  8
0
100
AcDbCircle
 10
236.7151571111083
 20
201.7464627653832
 30
0.0
 40
2.0
100
AcDbArc
 50
90.0
 51
180.0
  0
ARC
  5
70E
330
2
100
AcDbEntity
  8
0
100
AcDbCircle
 10
281.5006331111082
 20
207.5674617653833
 30
0.0
 40
2.5
100
AcDbArc
 50
271.9999999999995
 51
315.0
  0
ARC
  5
70F
330
2
100
AcDbEntity
  8
0
100
AcDbCircle
 10
291.7151721111083
 20
233.7465537653832
 30
0.0
 40
2.0
100
AcDbArc
 50
90.0
 51
180.0
  0
ARC
  5
710
330
2
100
AcDbEntity
  8
0
100
AcDbCircle
 10
305.2151261111083
 20
240.7464317653833
 30
0.0
 40
5.0
100
AcDbArc
 50
270.0
 51
0.0
  0
LINE
  5
711
330
2
100
AcDbEntity
  8
0
100
AcDbLine
 10
332.4051591111083
 20
164.0346247653833
 30
0.0
 11
346.0929641111083
 21
225.6583127653833
 31
0.0
  0
LINE
  5
712
330
2
100
AcDbEntity
  8
0
100
AcDbLine
 10
329.5741651111084
 20
164.6634397653833
 30
0.0
 11
343.2619401111082
 21
226.2871427653833
 31
0.0
  0
ARC
  5
713
330
2
100
AcDbEntity
  8
0
100
AcDbCircle
 10
287.2151571111082
 20
213.2819697653833
 30
0.0
 40
2.5
100
AcDbArc
 50
315.0
 51
0.0
  0
LINE
  5
714
330
2
100
AcDbEntity
  8
0
100
AcDbLine
 10
305.2151571111082
 20
235.7464317653833
 30
0.0
 11
298.2151571111082
 21
235.7464317653833
 31
0.0
  0
LINE
  5
715
330
2
100
AcDbEntity
  8
0
100
AcDbLine
 10
291.7151571111082
 20
235.7465387653833
 30
0.0
 11
298.2151571111082
 21
235.7465387653833
 31
0.0
  0
LINE
  5
716
330
2
100
AcDbEntity
  8
0
100
AcDbLine
 10
313.6651081111083
 20
251.6320517653833
 30
0.0
 11
355.1617511111083
 21
280.3264947653833
 31
0.0
  0
ARC
  5
717
330
2
100
AcDbEntity
  8
0
100
AcDbCircle
 10
318.2151571111083
 20
245.0520347653833
 30
0.0
 40
8.0
100
AcDbArc
 50
124.6638029999998
 51
180.0
  0
LINE
  5
718
330
2
100
AcDbEntity
  8
0
100
AcDbLine
 10
310.2151571111082
 20
240.2464317653833
 30
0.0
 11
310.2151571111082
 21
245.0519897653833
 31
0.0
  0
ARC
  5
719
330
2
100
AcDbEntity
  8
0
100
AcDbCircle
 10
359.7117391111083
 20
273.7464317653833
 30
0.0
 40
8.0
100
AcDbArc
 50
90.0
 51
124.6636960000001
  0
LINE
  5
71A
330
2
100
AcDbEntity
  8
0
100
AcDbLine
 10
124.7151531111083
 20
496.4094184859066
 30
0.0
 11
234.7151571111083
 21
496.4094184859066
 31
0.0
  0
LINE
  5
71B
330
2
100
AcDbEntity
  8
0
100
AcDbLine
 10
124.7151531111083
 20
554.4094184859066
 30
0.0
 11
234.7151571111083
 21
554.4094184859066
 31
0.0
  0
LINE
  5
71C
330
2
100
AcDbEntity
  8
0
100
AcDbLine
 10
124.7151531111083
 20
480.4094184859065
 30
0.0
 11
243.7151571111082
 21
480.4094184859065
 31
0.0
  0
LINE
  5
71D
330
2
100
AcDbEntity
  8
0
100
AcDbLine
 10
124.7151531111083
 20
570.4094184859066
 30
0.0
 11
243.7151571111082
 21
570.4094184859066
 31
0.0
  0
LINE
  5
71E
330
2
100
AcDbEntity
  8
0
100
AcDbLine
 10
67.71516111110838
 20
567.4094184859066
 30
0.0
 11
67.71513111110834
 21
483.4094184859066
 31
0.0
  0
LINE
  5
71F
330
2
100
AcDbEntity
  8
0
100
AcDbLine
 10
115.2151531111083
 20
572.4094184859065
 30
0.0
 11
115.2151531111083
 21
532.9094184859066
 31
0.0
  0
ARC
  5
724
330
2
100
AcDbEntity
  8
0
100
AcDbCircle
 10
72.71513111110834
 20
483.4094184859066
 30
0.0
 40
5.0
100
AcDbArc
 50
180.0
 51
270.0
  0
LINE
  5
725
330
2
100
AcDbEntity
  8
0
100
AcDbLine
 10
115.2151531111083
 20
496.4094184859066
 30
0.0
 11
71.24012111110835
 21
496.4094184859066
 31
0.0
  0
LINE
  5
727
330
2
100
AcDbEntity
  8
0
100
AcDbLine
 10
119.7151531111082
 20
486.1395814859065
 30
0.0
 11
119.7151531111082
 21
481.6395814859066
 31
0.0
  0
LINE
  5
728
330
2
100
AcDbEntity
  8
0
100
AcDbLine
 10
118.2151531111083
 20
486.1395814859065
 30
0.0
 11
118.2151531111083
 21
481.6395814859066
 31
0.0
  0
LINE
  5
729
330
2
100
AcDbEntity
  8
0
100
AcDbLine
 10
116.7151531111082
 20
486.1395814859065
 30
0.0
 11
116.7151531111082
 21
481.1239874859065
 31
0.0
  0
LINE
  5
72A
330
2
100
AcDbEntity
  8
0
100
AcDbLine
 10
124.7151531111083
 20
480.4094184859065
 30
0.0
 11
124.7151531111083
 21
500.4094184859066
 31
0.0
  0
LINE
  5
72B
330
2
100
AcDbEntity
  8
0
100
AcDbLine
 10
72.71513111110834
 20
478.4094184859066
 30
0.0
 11
115.2151531111083
 21
478.4094184859066
 31
0.0
  0
LINE
  5
72C
330
2
100
AcDbEntity
  8
HOJO
100
AcDbLine
 10
118.2151531111083
 20
482.1395814859066
 30
0.0
 11
119.7151531111082
 21
481.6395814859066
 31
0.0
  0
LINE
  5
72D
330
2
100
AcDbEntity
  8
0
100
AcDbLine
 10
115.2151531111083
 20
480.4094184859065
 30
0.0
 11
124.7151531111083
 21
480.4094184859065
 31
0.0
  0
LINE
  5
72E
330
2
100
AcDbEntity
  8
HOJO
100
AcDbLine
 10
116.7151531111082
 20
481.1395814859066
 30
0.0
 11
118.2151531111083
 21
481.6395814859066
 31
0.0
  0
ARC
  5
72F
330
2
100
AcDbEntity
  8
0
100
AcDbCircle
 10
115.2151531111083
 20
486.1395814859065
 30
0.0
 40
3.0
100
AcDbArc
 50
0.0
 51
90.0
  0
ARC
  5
730
330
2
100
AcDbEntity
  8
0
100
AcDbCircle
 10
115.2151531111083
 20
486.1395814859065
 30
0.0
 40
4.5
100
AcDbArc
 50
0.0
 51
90.0
  0
ARC
  5
731
330
2
100
AcDbEntity
  8
0
100
AcDbCircle
 10
115.2151531111083
 20
486.1395814859065
 30
0.0
 40
1.5
100
AcDbArc
 50
0.0
 51
90.0
  0
LINE
  5
732
330
2
100
AcDbEntity
  8
0
100
AcDbLine
 10
124.7151531111083
 20
496.4094184859066
 30
0.0
 11
115.2151531111083
 21
496.4094184859066
 31
0.0
  0
ARC
  5
737
330
2
100
AcDbEntity
  8
0
100
AcDbCircle
 10
72.71516111110838
 20
567.4094184859066
 30
0.0
 40
5.0
100
AcDbArc
 50
90.0
 51
180.0
  0
LINE
  5
738
330
2
100
AcDbEntity
  8
0
100
AcDbLine
 10
115.2151531111083
 20
554.4094184859066
 30
0.0
 11
71.24012111110835
 21
554.4094184859066
 31
0.0
  0
LINE
  5
73A
330
2
100
AcDbEntity
  8
0
100
AcDbLine
 10
124.7151531111083
 20
550.4094184859066
 30
0.0
 11
124.7151531111083
 21
570.4094184859066
 31
0.0
  0
LINE
  5
73F
330
2
100
AcDbEntity
  8
0
100
AcDbLine
 10
124.7151531111083
 20
554.4094184859066
 30
0.0
 11
115.2151531111083
 21
554.4094184859066
 31
0.0
  0
LINE
  5
740
330
2
100
AcDbEntity
  8
0
100
AcDbLine
 10
72.71513111110834
 20
572.4094184859065
 30
0.0
 11
115.2151531111083
 21
572.4094184859065
 31
0.0
  0
LINE
  5
741
330
2
100
AcDbEntity
  8
0
100
AcDbLine
 10
115.2151531111083
 20
570.4094184859066
 30
0.0
 11
124.7151531111083
 21
570.4094184859066
 31
0.0
  0
LINE
  5
743
330
2
100
AcDbEntity
  8
0
100
AcDbLine
 10
282.5721511111082
 20
547.2049194859066
 30
0.0
 11
282.5721511111082
 21
503.4923344859066
 31
0.0
  0
LINE
  5
744
330
2
100
AcDbEntity
  8
0
100
AcDbLine
 10
243.7151571111082
 20
574.4214424859065
 30
0.0
 11
243.7151571111082
 21
476.3974244859065
 31
0.0
  0
LINE
  5
745
330
2
100
AcDbEntity
  8
0
100
AcDbLine
 10
289.7151571111082
 20
463.4094184859065
 30
0.0
 11
289.7151571111082
 21
587.4094184859066
 31
0.0
  0
LINE
  5
746
330
2
100
AcDbEntity
  8
0
100
AcDbLine
 10
310.2149581111083
 20
525.4094184859066
 30
0.0
 11
310.9489821111083
 21
483.3570804859066
 31
0.0
  0
LINE
  5
747
330
2
100
AcDbEntity
  8
0
100
AcDbLine
 10
298.2151571111082
 20
589.4094184859065
 30
0.0
 11
298.2151571111082
 21
461.4094184859066
 31
0.0
  0
LINE
  5
748
330
2
100
AcDbEntity
  8
0
100
AcDbLine
 10
357.2151571111082
 20
567.4094184859066
 30
0.0
 11
357.2151571111082
 21
483.4094184859066
 31
0.0
  0
LINE
  5
749
330
2
100
AcDbEntity
  8
CENTER
100
AcDbLine
 10
386.2151571111082
 20
610.4094184859064
 30
0.0
 11
386.2151571111082
 21
395.4094184859066
 31
0.0
  0
LINE
  5
74A
330
2
100
AcDbEntity
  8
0
100
AcDbLine
 10
244.2148521111083
 20
475.8799684859066
 30
0.0
 11
289.7151571111082
 21
474.2910714859066
 31
0.0
  0
LINE
  5
74B
330
2
100
AcDbEntity
  8
0
100
AcDbLine
 10
283.1773001111083
 20
501.4094184859065
 30
0.0
 11
289.6871261111083
 21
501.4094184859065
 31
0.0
  0
LINE
  5
74C
330
2
100
AcDbEntity
  8
0
100
AcDbLine
 10
243.7151571111082
 20
480.4094184859065
 30
0.0
 11
287.2787711111083
 21
478.8881474859066
 31
0.0
  0
LINE
  5
74D
330
2
100
AcDbEntity
  8
0
100
AcDbLine
 10
234.7151571111083
 20
496.4094184859066
 30
0.0
 11
234.7151571111083
 21
482.4094184859066
 31
0.0
  0
ARC
  5
74E
330
2
100
AcDbEntity
  8
0
100
AcDbCircle
 10
236.7151571111083
 20
482.4094184859066
 30
0.0
 40
2.0
100
AcDbArc
 50
180.0
 51
270.0
  0
LINE
  5
74F
330
2
100
AcDbEntity
  8
0
100
AcDbLine
 10
243.7151571111082
 20
476.3974244859065
 30
0.0
 11
244.2148521111083
 21
475.8799684859066
 31
0.0
  0
LINE
  5
750
330
2
100
AcDbEntity
  8
0
100
AcDbLine
 10
370.2151571111083
 20
460.4094184859065
 30
0.0
 11
370.2151571111083
 21
405.4094184859065
 31
0.0
  0
LINE
  5
751
330
2
100
AcDbEntity
  8
0
100
AcDbLine
 10
335.4711691111083
 20
470.4094184859066
 30
0.0
 11
345.1563191111083
 21
470.4094184859066
 31
0.0
  0
ARC
  5
753
330
2
100
AcDbEntity
  8
0
100
AcDbCircle
 10
338.7151571111083
 20
465.4094184859066
 30
0.0
 40
6.5
100
AcDbArc
 50
128.7593079999999
 51
50.28486300000015
  0
LINE
  5
754
330
2
100
AcDbEntity
  8
0
100
AcDbLine
 10
327.7650831111084
 20
450.4094184859066
 30
0.0
 11
370.2151571111083
 21
450.4094184859066
 31
0.0
  0
ARC
  5
755
330
2
100
AcDbEntity
  8
0
100
AcDbCircle
 10
313.9485251111083
 20
483.4094184859066
 30
0.0
 40
3.0
100
AcDbArc
 50
181.0000000000001
 51
270.0
  0
ARC
  5
756
330
2
100
AcDbEntity
  8
0
100
AcDbCircle
 10
313.5517811111083
 20
475.4094184859066
 30
0.0
 40
5.0
100
AcDbArc
 50
90.0
 51
164.9999999999996
  0
LINE
  5
757
330
2
100
AcDbEntity
  8
0
100
AcDbLine
 10
320.2715531111083
 20
455.6082094859066
 30
0.0
 11
311.2167591111083
 21
479.8307134859065
 31
0.0
  0
LINE
  5
758
330
2
100
AcDbEntity
  8
0
100
AcDbLine
 10
305.6171041111083
 20
465.1153204859066
 30
0.0
 11
308.7221601111083
 21
476.7035164859065
 31
0.0
  0
LINE
  5
759
330
2
100
AcDbEntity
  8
0
100
AcDbLine
 10
300.7874831111083
 20
461.4094184859066
 30
0.0
 11
298.2151571111082
 21
461.4094184859066
 31
0.0
  0
LINE
  5
75A
330
2
100
AcDbEntity
  8
0
100
AcDbLine
 10
291.7151571111082
 20
461.4094184859066
 30
0.0
 11
298.2151571111082
 21
461.4094184859066
 31
0.0
  0
ARC
  5
75B
330
2
100
AcDbEntity
  8
0
100
AcDbCircle
 10
291.7151571111082
 20
463.4094184859065
 30
0.0
 40
2.0
100
AcDbArc
 50
180.0
 51
270.0
  0
ARC
  5
75C
330
2
100
AcDbEntity
  8
0
100
AcDbCircle
 10
300.7874831111083
 20
466.4094184859066
 30
0.0
 40
5.0
100
AcDbArc
 50
270.0
 51
344.9999999999996
  0
ARC
  5
75D
330
2
100
AcDbEntity
  8
0
100
AcDbCircle
 10
287.1915211111083
 20
476.3896734859066
 30
0.0
 40
2.5
100
AcDbArc
 50
0.1042919999999583
 51
88.00000000000043
  0
ARC
  5
75F
330
2
100
AcDbEntity
  8
0
100
AcDbCircle
 10
327.7650831111084
 20
458.4094184859066
 30
0.0
 40
8.0
100
AcDbArc
 50
200.4966130000002
 51
270.0
  0
ARC
  5
760
330
2
100
AcDbEntity
  8
0
100
AcDbCircle
 10
325.0591511111083
 20
475.4094184859066
 30
0.0
 40
5.0
100
AcDbArc
 50
16.17215899999997
 51
90.0
  0
LINE
  5
761
330
2
100
AcDbEntity
  8
0
100
AcDbLine
 10
330.6690141111083
 20
474.0168094859066
 30
0.0
 11
329.8613051111083
 21
476.8020574859066
 31
0.0
  0
ARC
  5
762
330
2
100
AcDbEntity
  8
0
100
AcDbCircle
 10
335.4711691111083
 20
475.4094184859066
 30
0.0
 40
5.0
100
AcDbArc
 50
196.1721650000001
 51
270.0
  0
LINE
  5
763
330
2
100
AcDbEntity
  8
0
100
AcDbLine
 10
328.8151631111084
 20
480.4094184859065
 30
0.0
 11
328.8119281111082
 21
480.4205264859066
 31
0.0
  0
LINE
  5
764
330
2
100
AcDbEntity
  8
0
100
AcDbLine
 10
421.4739461111084
 20
463.4094184859065
 30
0.0
 11
350.9563371111084
 21
463.4094184859065
 31
0.0
  0
ARC
  5
765
330
2
100
AcDbEntity
  8
0
100
AcDbCircle
 10
350.9563371111084
 20
468.4094184859065
 30
0.0
 40
5.0
100
AcDbArc
 50
196.389542
 51
270.0
  0
LINE
  5
766
330
2
100
AcDbEntity
  8
0
100
AcDbLine
 10
346.1595231111083
 20
466.9985904859067
 30
0.0
 11
345.1563191111083
 21
470.4094184859066
 31
0.0
  0
LINE
  5
767
330
2
100
AcDbEntity
  8
0
100
AcDbLine
 10
368.7151571111082
 20
463.4094184859065
 30
0.0
 11
368.7151571111082
 21
460.4094184859065
 31
0.0
  0
LINE
  5
768
330
2
100
AcDbEntity
  8
0
100
AcDbLine
 10
244.2148521111083
 20
574.9388674859065
 30
0.0
 11
289.7151571111082
 21
576.5277954859065
 31
0.0
  0
LINE
  5
769
330
2
100
AcDbEntity
  8
0
100
AcDbLine
 10
282.5721511111082
 20
549.4094184859066
 30
0.0
 11
289.6871261111083
 21
549.4094184859066
 31
0.0
  0
LINE
  5
76A
330
2
100
AcDbEntity
  8
0
100
AcDbLine
 10
243.7151571111082
 20
570.4094184859066
 30
0.0
 11
287.2787711111083
 21
571.9307194859066
 31
0.0
  0
LINE
  5
76B
330
2
100
AcDbEntity
  8
0
100
AcDbLine
 10
234.7151571111083
 20
568.4094184859065
 30
0.0
 11
234.7151571111083
 21
554.4094184859066
 31
0.0
  0
ARC
  5
76C
330
2
100
AcDbEntity
  8
0
100
AcDbCircle
 10
236.7151571111083
 20
568.4094484859066
 30
0.0
 40
2.0
100
AcDbArc
 50
90.0
 51
180.0
  0
LINE
  5
76D
330
2
100
AcDbEntity
  8
0
100
AcDbLine
 10
243.7151571111082
 20
574.4214424859065
 30
0.0
 11
244.2148521111083
 21
574.9388674859065
 31
0.0
  0
LINE
  5
76E
330
2
100
AcDbEntity
  8
0
100
AcDbLine
 10
335.4711691111083
 20
580.4094184859065
 30
0.0
 11
345.1563191111083
 21
580.4094184859065
 31
0.0
  0
ARC
  5
770
330
2
100
AcDbEntity
  8
0
100
AcDbCircle
 10
338.7151571111083
 20
585.4094184859065
 30
0.0
 40
6.5
100
AcDbArc
 50
309.7151369999998
 51
231.240692
  0
LINE
  5
771
330
2
100
AcDbEntity
  8
0
100
AcDbLine
 10
327.7650831111084
 20
600.4094184859066
 30
0.0
 11
444.6651991111083
 21
600.4094184859065
 31
0.0
  0
LINE
  5
772
330
2
100
AcDbEntity
  8
0
100
AcDbLine
 10
310.2149581111083
 20
525.4094184859066
 30
0.0
 11
310.9489821111083
 21
567.4617864859065
 31
0.0
  0
ARC
  5
773
330
2
100
AcDbEntity
  8
0
100
AcDbCircle
 10
313.9485251111083
 20
567.4094184859066
 30
0.0
 40
3.0
100
AcDbArc
 50
90.0
 51
178.9999999999998
  0
ARC
  5
774
330
2
100
AcDbEntity
  8
0
100
AcDbCircle
 10
313.5517811111083
 20
575.4094184859066
 30
0.0
 40
5.0
100
AcDbArc
 50
195.0000000000003
 51
270.0
  0
LINE
  5
775
330
2
100
AcDbEntity
  8
0
100
AcDbLine
 10
320.2715531111083
 20
595.2106574859065
 30
0.0
 11
311.2167591111083
 21
570.9881534859066
 31
0.0
  0
LINE
  5
776
330
2
100
AcDbEntity
  8
0
100
AcDbLine
 10
305.6171041111083
 20
585.7035164859065
 30
0.0
 11
308.7221601111083
 21
574.1153204859065
 31
0.0
  0
ARC
  5
777
330
2
100
AcDbEntity
  8
0
100
AcDbCircle
 10
287.1915211111083
 20
574.4291934859066
 30
0.0
 40
2.5
100
AcDbArc
 50
271.9999999999995
 51
359.8957209999999
  0
LINE
  5
778
330
2
100
AcDbEntity
  8
0
100
AcDbLine
 10
289.7151571111082
 20
572.0157714859064
 30
0.0
 11
289.6871261111083
 21
572.0147954859065
 31
0.0
  0
LINE
  5
779
330
2
100
AcDbEntity
  8
0
100
AcDbLine
 10
300.7874831111083
 20
589.4094184859065
 30
0.0
 11
298.2151571111082
 21
589.4094184859065
 31
0.0
  0
LINE
  5
77A
330
2
100
AcDbEntity
  8
0
100
AcDbLine
 10
291.7151571111082
 20
589.4094184859065
 30
0.0
 11
298.2151571111082
 21
589.4094184859065
 31
0.0
  0
ARC
  5
77B
330
2
100
AcDbEntity
  8
0
100
AcDbCircle
 10
291.7151571111082
 20
587.4094184859066
 30
0.0
 40
2.0
100
AcDbArc
 50
90.0
 51
180.0
  0
ARC
  5
77C
330
2
100
AcDbEntity
  8
0
100
AcDbCircle
 10
300.7874831111083
 20
584.4094184859065
 30
0.0
 40
5.0
100
AcDbArc
 50
15.00000000000037
 51
90.0
  0
ARC
  5
77E
330
2
100
AcDbEntity
  8
0
100
AcDbCircle
 10
325.0591511111083
 20
575.4094184859066
 30
0.0
 40
5.0
100
AcDbArc
 50
270.0
 51
343.827841
  0
LINE
  5
77F
330
2
100
AcDbEntity
  8
0
100
AcDbLine
 10
330.6690141111083
 20
576.8020574859066
 30
0.0
 11
329.8613051111083
 21
574.0168094859066
 31
0.0
  0
LINE
  5
780
330
2
100
AcDbEntity
  8
0
100
AcDbLine
 10
328.8151631111084
 20
570.4094184859066
 30
0.0
 11
328.8119281111082
 21
570.3983404859066
 31
0.0
  0
ARC
  5
781
330
2
100
AcDbEntity
  8
0
100
AcDbCircle
 10
335.4711691111083
 20
575.4094184859066
 30
0.0
 40
5.0
100
AcDbArc
 50
90.0
 51
163.8278349999998
  0
ARC
  5
782
330
2
100
AcDbEntity
  8
0
100
AcDbCircle
 10
327.7650831111084
 20
592.4094184859066
 30
0.0
 40
8.0
100
AcDbArc
 50
90.0
 51
159.5033869999996
  0
LINE
  5
783
330
2
100
AcDbEntity
  8
0
100
AcDbLine
 10
421.4739461111084
 20
587.4094184859066
 30
0.0
 11
350.9563371111084
 21
587.4094184859066
 31
0.0
  0
ARC
  5
784
330
2
100
AcDbEntity
  8
0
100
AcDbCircle
 10
350.9563371111084
 20
582.4094184859066
 30
0.0
 40
5.0
100
AcDbArc
 50
90.0
 51
163.6104580000001
  0
LINE
  5
785
330
2
100
AcDbEntity
  8
0
100
AcDbLine
 10
346.1595231111083
 20
583.8202454859064
 30
0.0
 11
345.1563191111083
 21
580.4094184859065
 31
0.0
  0
ARC
  5
786
330
2
100
AcDbEntity
  8
0
100
AcDbCircle
 10
662.7758398210175
 20
132.5024747653833
 30
0.0
 40
5.0
100
AcDbArc
 50
180.0
 51
253.8282009999997
  0
LINE
  5
787
330
2
100
AcDbEntity
  8
0
100
AcDbLine
 10
639.8648288210174
 20
95.09459576538331
 30
0.0
 11
665.2690648210175
 21
99.32863476538333
 31
0.0
  0
LINE
  5
788
330
2
100
AcDbEntity
  8
0
100
AcDbLine
 10
664.1866678210175
 20
259.6907987653833
 30
0.0
 11
654.3650118210174
 21
256.8020507653833
 31
0.0
  0
LINE
  5
789
330
2
100
AcDbEntity
  8
0
100
AcDbLine
 10
640.2758398210174
 20
94.74643576538332
 30
0.0
 11
663.7758398210174
 21
94.74643576538332
 31
0.0
  0
LINE
  5
78A
330
2
100
AcDbEntity
  8
0
100
AcDbLine
 10
637.7758398210175
 20
76.74643576538333
 30
0.0
 11
682.7758398210175
 21
76.74643576538333
 31
0.0
  0
LINE
  5
78B
330
2
100
AcDbEntity
  8
CENTER
100
AcDbLine
 10
582.7758398210175
 20
216.7464317653833
 30
0.0
 11
784.7758398210174
 21
216.7464317653833
 31
0.0
  0
LINE
  5
78C
330
2
100
AcDbEntity
  8
CENTER
100
AcDbLine
 10
638.7758398210174
 20
171.7464317653833
 30
0.0
 11
786.7758398210175
 21
171.7464317653833
 31
0.0
  0
LINE
  5
78E
330
2
100
AcDbEntity
  8
0
100
AcDbLine
 10
657.7758398210175
 20
132.5024367653833
 30
0.0
 11
657.7758398210175
 21
220.6568327653833
 31
0.0
  0
ARC
  5
78F
330
2
100
AcDbEntity
  8
0
100
AcDbCircle
 10
411.7151571111082
 20
157.7464317653832
 30
0.0
 40
31.89999999999999
100
AcDbArc
 50
270.0
 51
12.52323999999984
  0
ARC
  5
790
330
2
100
AcDbEntity
  8
0
100
AcDbCircle
 10
411.7151571111082
 20
157.7464317653832
 30
0.0
 40
29.0
100
AcDbArc
 50
270.0
 51
12.52323999999984
  0
LINE
  5
791
330
2
100
AcDbEntity
  8
0
100
AcDbLine
 10
462.2151571111082
 20
245.0519897653833
 30
0.0
 11
462.2151571111082
 21
76.74643576538333
 31
0.0
  0
LINE
  5
792
330
2
100
AcDbEntity
  8
0
100
AcDbLine
 10
448.2151571111082
 20
92.67987476538332
 30
0.0
 11
448.2151571111082
 21
76.74643576538333
 31
0.0
  0
LINE
  5
793
330
2
100
AcDbEntity
  8
HIDS
100
AcDbLine
 10
440.2151571111082
 20
94.74643576538332
 30
0.0
 11
440.2151571111082
 21
76.74643576538333
 31
0.0
  0
LINE
  5
794
330
2
100
AcDbEntity
  8
HIDS
100
AcDbLine
 10
427.2151571111082
 20
94.74643576538332
 30
0.0
 11
427.2151571111082
 21
76.74643576538333
 31
0.0
  0
LINE
  5
795
330
2
100
AcDbEntity
  8
CENTER
100
AcDbLine
 10
433.7151571111083
 20
99.74643576538333
 30
0.0
 11
433.7151571111083
 21
71.74643576538329
 31
0.0
  0
LINE
  5
796
330
2
100
AcDbEntity
  8
0
100
AcDbLine
 10
411.2151571111082
 20
98.81055676538332
 30
0.0
 11
411.2151571111082
 21
95.74643576538333
 31
0.0
  0
LINE
  5
797
330
2
100
AcDbEntity
  8
0
100
AcDbLine
 10
412.0937581111084
 20
98.86775476538332
 30
0.0
 11
414.7507401111083
 21
96.21089476538333
 31
0.0
  0
ARC
  5
798
330
2
100
AcDbEntity
  8
0
100
AcDbCircle
 10
412.2151571111082
 20
95.74643576538333
 30
0.0
 40
1.0
100
AcDbArc
 50
180.0
 51
270.0
  0
ARC
  5
799
330
2
100
AcDbEntity
  8
0
100
AcDbCircle
 10
418.2861411111083
 20
99.74643576538333
 30
0.0
 40
5.0
100
AcDbArc
 50
225.0
 51
270.0
  0
ARC
  5
79A
330
2
100
AcDbEntity
  8
0
100
AcDbCircle
 10
409.9725421111084
 20
96.74643576538333
 30
0.0
 40
3.0
100
AcDbArc
 50
45.00016000000012
 51
90.0
  0
LINE
  5
79B
330
2
100
AcDbEntity
  8
0
100
AcDbLine
 10
401.0937581111083
 20
147.4075727653833
 30
0.0
 11
403.3217551111083
 21
142.2308147653833
 31
0.0
  0
LINE
  5
79C
330
2
100
AcDbEntity
  8
0
100
AcDbLine
 10
402.4609451111083
 20
147.5366927653833
 30
0.0
 11
404.8153461111082
 21
142.2308147653833
 31
0.0
  0
LINE
  5
79D
330
2
100
AcDbEntity
  8
0
100
AcDbLine
 10
398.0531391111083
 20
147.4075727653833
 30
0.0
 11
398.0531391111083
 21
142.2308147653833
 31
0.0
  0
LINE
  5
79E
330
2
100
AcDbEntity
  8
0
100
AcDbLine
 10
396.4203571111084
 20
153.2522987653833
 30
0.0
 11
396.4203571111084
 21
142.2308147653833
 31
0.0
  0
LINE
  5
79F
330
2
100
AcDbEntity
  8
0
100
AcDbLine
 10
395.7151571111083
 20
142.2308147653833
 30
0.0
 11
395.7151571111083
 21
140.7464317653833
 31
0.0
  0
LINE
  5
7A0
330
2
100
AcDbEntity
  8
0
100
AcDbLine
 10
398.7025531111082
 20
142.2308147653833
 30
0.0
 11
398.7025531111082
 21
140.7464317653833
 31
0.0
  0
LINE
  5
7A1
330
2
100
AcDbEntity
  8
0
100
AcDbLine
 10
398.7025531111082
 20
140.7464317653833
 30
0.0
 11
395.7151571111083
 21
140.7464317653833
 31
0.0
  0
LINE
  5
7A2
330
2
100
AcDbEntity
  8
0
100
AcDbLine
 10
398.0531391111083
 20
142.2308147653833
 30
0.0
 11
398.7025531111082
 21
142.2308147653833
 31
0.0
  0
LINE
  5
7A3
330
2
100
AcDbEntity
  8
0
100
AcDbLine
 10
395.7151571111083
 20
142.2308147653833
 30
0.0
 11
396.4203571111084
 21
142.2308147653833
 31
0.0
  0
LINE
  5
7A4
330
2
100
AcDbEntity
  8
0
100
AcDbLine
 10
403.0257651111083
 20
142.2308147653833
 30
0.0
 11
403.0257651111083
 21
140.7464317653833
 31
0.0
  0
LINE
  5
7A5
330
2
100
AcDbEntity
  8
0
100
AcDbLine
 10
405.2151571111083
 20
142.2308147653833
 30
0.0
 11
405.2151571111083
 21
140.7464317653833
 31
0.0
  0
LINE
  5
7A6
330
2
100
AcDbEntity
  8
0
100
AcDbLine
 10
403.0257651111083
 20
140.7464317653833
 30
0.0
 11
405.2151571111083
 21
140.7464317653833
 31
0.0
  0
LINE
  5
7A7
330
2
100
AcDbEntity
  8
0
100
AcDbLine
 10
404.8153461111082
 20
142.2308147653833
 30
0.0
 11
405.2151571111083
 21
142.2308147653833
 31
0.0
  0
LINE
  5
7A8
330
2
100
AcDbEntity
  8
0
100
AcDbLine
 10
403.0257651111083
 20
142.2308147653833
 30
0.0
 11
403.3217551111083
 21
142.2308147653833
 31
0.0
  0
LINE
  5
7A9
330
2
100
AcDbEntity
  8
0
100
AcDbLine
 10
398.0531391111083
 20
153.2522987653833
 30
0.0
 11
402.4861531111082
 21
153.2494077653833
 31
0.0
  0
LINE
  5
7AA
330
2
100
AcDbEntity
  8
0
100
AcDbLine
 10
398.0531391111083
 20
147.4075727653833
 30
0.0
 11
401.0937581111083
 21
147.4075727653833
 31
0.0
  0
LINE
  5
7AB
330
2
100
AcDbEntity
  8
0
100
AcDbLine
 10
401.7109451111083
 20
148.8915967653833
 30
0.0
 11
398.0531391111083
 21
148.8915967653833
 31
0.0
  0
LINE
  5
7AC
330
2
100
AcDbEntity
  8
0
100
AcDbLine
 10
395.7151571111083
 20
154.9964317653833
 30
0.0
 11
401.4113541111083
 21
154.9964317653833
 31
0.0
  0
LINE
  5
7AD
330
2
100
AcDbEntity
  8
0
100
AcDbLine
 10
395.7151571111083
 20
153.2522987653833
 30
0.0
 11
396.4203571111084
 21
153.2522987653833
 31
0.0
  0
LINE
  5
7AE
330
2
100
AcDbEntity
  8
0
100
AcDbLine
 10
398.0531391111083
 20
153.2522987653833
 30
0.0
 11
398.0531391111083
 21
148.8915967653833
 31
0.0
  0
LINE
  5
7AF
330
2
100
AcDbEntity
  8
0
100
AcDbLine
 10
395.7151571111083
 20
154.9964317653833
 30
0.0
 11
395.7151571111083
 21
153.2522987653833
 31
0.0
  0
ARC
  5
7B0
330
2
100
AcDbEntity
  8
0
100
AcDbCircle
 10
401.4113541111083
 20
151.1927137653833
 30
0.0
 40
2.320524
100
AcDbArc
 50
277.4147259999995
 51
62.41184999999949
  0
ARC
  5
7B1
330
2
100
AcDbEntity
  8
0
100
AcDbCircle
 10
401.4113541111083
 20
151.1927137653833
 30
0.0
 40
3.803712
100
AcDbArc
 50
286.0181269999995
 51
90.00350999999964
  0
LINE
  5
7B2
330
2
100
AcDbEntity
  8
HIDS
100
AcDbLine
 10
646.2758398210175
 20
94.74643576538332
 30
0.0
 11
646.2758398210175
 21
76.74643576538333
 31
0.0
  0
LINE
  5
7B3
330
2
100
AcDbEntity
  8
HIDS
100
AcDbLine
 10
659.2758398210174
 20
94.74643576538332
 30
0.0
 11
659.2758398210174
 21
76.74643576538333
 31
0.0
  0
LINE
  5
7B4
330
2
100
AcDbEntity
  8
0
100
AcDbLine
 10
637.7758398210175
 20
92.62861476538331
 30
0.0
 11
637.7758398210175
 21
76.74643576538333
 31
0.0
  0
LINE
  5
7B5
330
2
100
AcDbEntity
  8
CENTER
100
AcDbLine
 10
652.7758398210171
 20
99.74643576538333
 30
0.0
 11
652.7758398210176
 21
71.74643576538333
 31
0.0
  0
ARC
  5
7B6
330
2
100
AcDbEntity
  8
0
100
AcDbCircle
 10
640.2758398210174
 20
92.62863576538331
 30
0.0
 40
2.5
100
AcDbArc
 50
99.46275299999982
 51
180.0
  0
ARC
  5
7B7
330
2
100
AcDbEntity
  8
0
100
AcDbCircle
 10
640.2758398210174
 20
92.24645476538331
 30
0.0
 40
2.5
100
AcDbArc
 50
90.0
 51
180.0
  0
LINE
  5
7B8
330
2
100
AcDbEntity
  8
0
100
AcDbLine
 10
426.3373491111082
 20
225.6583887653833
 30
0.0
 11
440.0251541111083
 21
164.0346777653833
 31
0.0
  0
LINE
  5
7B9
330
2
100
AcDbEntity
  8
0
100
AcDbLine
 10
429.1683431111083
 20
226.2872187653833
 30
0.0
 11
442.8561481111083
 21
164.6635007653833
 31
0.0
  0
LINE
  5
7BA
330
2
100
AcDbEntity
  8
0
100
AcDbLine
 10
405.2151571111083
 20
211.7464927653833
 30
0.0
 11
405.2151571111083
 21
221.7464927653833
 31
0.0
  0
LINE
  5
7BB
330
2
100
AcDbEntity
  8
0
100
AcDbLine
 10
397.2151571111083
 20
211.7464777653832
 30
0.0
 11
397.2151571111083
 21
221.7464777653832
 31
0.0
  0
LINE
  5
7BC
330
2
100
AcDbEntity
  8
0
100
AcDbLine
 10
405.2151571111083
 20
211.7464927653833
 30
0.0
 11
397.2151571111083
 21
211.7464777653832
 31
0.0
  0
LINE
  5
7BD
330
2
100
AcDbEntity
  8
0
100
AcDbLine
 10
405.2151571111083
 20
221.7464927653833
 30
0.0
 11
397.2151571111083
 21
221.7464777653832
 31
0.0
  0
LINE
  5
7BE
330
2
100
AcDbEntity
  8
0
100
AcDbLine
 10
458.7651441111083
 20
251.6320517653833
 30
0.0
 11
417.2685621111083
 21
280.3264947653833
 31
0.0
  0
ARC
  5
7BF
330
2
100
AcDbEntity
  8
0
100
AcDbCircle
 10
412.7185441111083
 20
273.7464317653833
 30
0.0
 40
8.0
100
AcDbArc
 50
55.33668900000004
 51
90.0
  0
ARC
  5
7C0
330
2
100
AcDbEntity
  8
0
100
AcDbCircle
 10
454.2151571111083
 20
245.0519587653833
 30
0.0
 40
8.0
100
AcDbArc
 50
0.0
 51
55.33673899999975
  0
LINE
  5
7C1
330
2
100
AcDbEntity
  8
0
100
AcDbLine
 10
650.7758398210174
 20
181.4876277653833
 30
0.0
 11
650.7758398210174
 21
252.0052517653833
 31
0.0
  0
LINE
  5
7C2
330
2
100
AcDbEntity
  8
0
100
AcDbLine
 10
637.7758398210175
 20
211.7464317653833
 30
0.0
 11
592.7758398210174
 21
211.7464317653833
 31
0.0
  0
LINE
  5
7C3
330
2
100
AcDbEntity
  8
0
100
AcDbLine
 10
637.7758398210175
 20
221.7464317653833
 30
0.0
 11
592.7758398210174
 21
221.7464317653833
 31
0.0
  0
LINE
  5
7C4
330
2
100
AcDbEntity
  8
0
100
AcDbLine
 10
647.7758398210174
 20
200.7464317653833
 30
0.0
 11
592.7758398210174
 21
200.7464317653833
 31
0.0
  0
LINE
  5
7C5
330
2
100
AcDbEntity
  8
0
100
AcDbLine
 10
647.7758398210174
 20
232.7464317653832
 30
0.0
 11
592.7758398210174
 21
232.7464317653832
 31
0.0
  0
LINE
  5
7C6
330
2
100
AcDbEntity
  8
0
100
AcDbLine
 10
592.7758398210174
 20
200.7464317653833
 30
0.0
 11
592.7758398210174
 21
232.7464317653832
 31
0.0
  0
ARC
  5
7C7
330
2
100
AcDbEntity
  8
0
100
AcDbCircle
 10
653.7758398210175
 20
172.6946517653833
 30
0.0
 40
4.0
100
AcDbArc
 50
0.0
 51
73.61064899999971
  0
ARC
  5
7C8
330
2
100
AcDbEntity
  8
0
100
AcDbCircle
 10
655.7758398210174
 20
181.4876657653833
 30
0.0
 40
5.0
100
AcDbArc
 50
180.0
 51
253.6107940000003
  0
LINE
  5
7C9
330
2
100
AcDbEntity
  8
0
100
AcDbLine
 10
654.3650118210174
 20
176.6907987653833
 30
0.0
 11
654.9044408210175
 21
176.5321297653833
 31
0.0
  0
ARC
  5
7CA
330
2
100
AcDbEntity
  8
0
100
AcDbCircle
 10
637.7758398210175
 20
216.7464317653833
 30
0.0
 40
5.0
100
AcDbArc
 50
270.0
 51
90.0
  0
LINE
  5
7CB
330
2
100
AcDbEntity
  8
0
100
AcDbLine
 10
647.7758398210174
 20
234.2464317653833
 30
0.0
 11
647.7758398210174
 21
199.2464317653833
 31
0.0
  0
LINE
  5
7CC
330
2
100
AcDbEntity
  8
0
100
AcDbLine
 10
650.7758398210174
 20
199.2464317653833
 30
0.0
 11
647.7758398210174
 21
199.2464317653833
 31
0.0
  0
LINE
  5
7CD
330
2
100
AcDbEntity
  8
0
100
AcDbLine
 10
650.7758398210174
 20
234.2464317653833
 30
0.0
 11
647.7758398210174
 21
234.2464317653833
 31
0.0
  0
ARC
  5
7CE
330
2
100
AcDbEntity
  8
0
100
AcDbCircle
 10
655.7758398210174
 20
252.0052817653833
 30
0.0
 40
5.0
100
AcDbArc
 50
106.3898999999998
 51
180.0
  0
LINE
  5
7D0
330
2
100
AcDbEntity
  8
0
100
AcDbLine
 10
667.7758398210174
 20
278.0127127653833
 30
0.0
 11
667.7758398210174
 21
76.74643576538333
 31
0.0
  0
LINE
  5
7D1
330
2
100
AcDbEntity
  8
0
100
AcDbLine
 10
767.7758398210174
 20
132.5024597653833
 30
0.0
 11
767.7758398210174
 21
220.6568327653833
 31
0.0
  0
LINE
  5
7D2
330
2
100
AcDbEntity
  8
0
100
AcDbLine
 10
757.7758398210175
 20
278.0132017653833
 30
0.0
 11
757.7758398210175
 21
76.74643576538333
 31
0.0
  0
LINE
  5
7D3
330
2
100
AcDbEntity
  8
CENTER
100
AcDbLine
 10
712.7758398210175
 20
66.74643576538333
 30
0.0
 11
712.7758398210175
 21
291.7464317653833
 31
0.0
  0
ARC
  5
7D4
330
2
100
AcDbEntity
  8
0
100
AcDbCircle
 10
762.7758398210175
 20
132.5024367653833
 30
0.0
 40
5.0
100
AcDbArc
 50
286.1723019999999
 51
0.0
  0
LINE
  5
7D5
330
2
100
AcDbEntity
  8
0
100
AcDbLine
 10
785.6868508210175
 20
95.09461476538332
 30
0.0
 11
760.2826148210174
 21
99.3286537653833
 31
0.0
  0
LINE
  5
7D6
330
2
100
AcDbEntity
  8
0
100
AcDbLine
 10
785.2758398210174
 20
94.74643576538332
 30
0.0
 11
761.7758398210175
 21
94.74643576538332
 31
0.0
  0
LINE
  5
7D7
330
2
100
AcDbEntity
  8
0
100
AcDbLine
 10
742.7758398210174
 20
76.74643576538333
 30
0.0
 11
787.7758398210175
 21
76.74643576538333
 31
0.0
  0
LINE
  5
7D8
330
2
100
AcDbEntity
  8
0
100
AcDbLine
 10
742.7758398210174
 20
76.74643576538333
 30
0.0
 11
741.2758398210175
 21
78.24643576538332
 31
0.0
  0
LINE
  5
7D9
330
2
100
AcDbEntity
  8
0
100
AcDbLine
 10
682.7758398210175
 20
76.74643576538333
 30
0.0
 11
684.2758398210174
 21
78.24643576538332
 31
0.0
  0
LINE
  5
7DA
330
2
100
AcDbEntity
  8
HIDS
100
AcDbLine
 10
766.2758398210175
 20
94.74643576538332
 30
0.0
 11
766.2758398210175
 21
76.74643576538333
 31
0.0
  0
LINE
  5
7DB
330
2
100
AcDbEntity
  8
0
100
AcDbLine
 10
684.2758398210174
 20
78.24643576538332
 30
0.0
 11
741.2758398210175
 21
78.24643576538332
 31
0.0
  0
ARC
  5
7DC
330
2
100
AcDbEntity
  8
0
100
AcDbCircle
 10
663.7758398210174
 20
98.74639376538333
 30
0.0
 40
4.0
100
AcDbArc
 50
270.0
 51
0.0
  0
ARC
  5
7DD
330
2
100
AcDbEntity
  8
0
100
AcDbCircle
 10
664.7758398210174
 20
102.2878137653833
 30
0.0
 40
3.0
100
AcDbArc
 50
279.4625170000001
 51
0.0
  0
ARC
  5
7DE
330
2
100
AcDbEntity
  8
0
100
AcDbCircle
 10
662.7758398210175
 20
122.0904147653833
 30
0.0
 40
5.0
100
AcDbArc
 50
0.0
 51
73.82791899999978
  0
ARC
  5
7DF
330
2
100
AcDbEntity
  8
0
100
AcDbCircle
 10
665.7758398210175
 20
122.7250967653833
 30
0.0
 40
2.0
100
AcDbArc
 50
30.94791
 51
53.21712100000005
  0
ARC
  5
7E0
330
2
100
AcDbEntity
  8
0
100
AcDbCircle
 10
671.7636328210175
 20
130.7342177653833
 30
0.0
 40
8.0
100
AcDbArc
 50
211.0014039999998
 51
233.2169950000002
  0
LINE
  5
7E1
330
2
100
AcDbEntity
  8
0
100
AcDbLine
 10
661.3832618210174
 20
127.7002967653833
 30
0.0
 11
664.1684178210176
 21
126.8925727653833
 31
0.0
  0
ARC
  5
7E2
330
2
100
AcDbEntity
  8
0
100
AcDbCircle
 10
761.7758398210175
 20
98.74643576538332
 30
0.0
 40
4.0
100
AcDbArc
 50
180.0
 51
270.0
  0
ARC
  5
7E3
330
2
100
AcDbEntity
  8
0
100
AcDbCircle
 10
760.7758398210174
 20
102.2878557653833
 30
0.0
 40
3.0
100
AcDbArc
 50
180.0
 51
260.5379030000001
  0
ARC
  5
7E4
330
2
100
AcDbEntity
  8
0
100
AcDbCircle
 10
762.7758398210175
 20
122.0904567653833
 30
0.0
 40
5.0
100
AcDbArc
 50
106.172501
 51
180.0
  0
ARC
  5
7E5
330
2
100
AcDbEntity
  8
0
100
AcDbCircle
 10
759.7758398210174
 20
122.7250967653833
 30
0.0
 40
2.0
100
AcDbArc
 50
126.7828829999998
 51
149.0520939999995
  0
ARC
  5
7E6
330
2
100
AcDbEntity
  8
0
100
AcDbCircle
 10
753.7880468210174
 20
130.7342177653833
 30
0.0
 40
8.0
100
AcDbArc
 50
306.7830009999998
 51
328.9986000000002
  0
LINE
  5
7E7
330
2
100
AcDbEntity
  8
0
100
AcDbLine
 10
764.1684178210176
 20
127.7002967653833
 30
0.0
 11
761.3832618210174
 21
126.8925727653833
 31
0.0
  0
LINE
  5
7E8
330
2
100
AcDbEntity
  8
HIDS
100
AcDbLine
 10
779.2758398210175
 20
94.74643576538332
 30
0.0
 11
779.2758398210175
 21
76.74643576538333
 31
0.0
  0
LINE
  5
7E9
330
2
100
AcDbEntity
  8
0
100
AcDbLine
 10
787.7758398210175
 20
92.62861476538331
 30
0.0
 11
787.7758398210175
 21
76.74643576538333
 31
0.0
  0
LINE
  5
7EA
330
2
100
AcDbEntity
  8
CENTER
100
AcDbLine
 10
772.7758398210174
 20
99.74643576538335
 30
0.0
 11
772.7758398210174
 21
71.74643576538333
 31
0.0
  0
ARC
  5
7EB
330
2
100
AcDbEntity
  8
0
100
AcDbCircle
 10
785.2758398210174
 20
92.62861476538331
 30
0.0
 40
2.5
100
AcDbArc
 50
0.0
 51
80.53768199999993
  0
ARC
  5
7EC
330
2
100
AcDbEntity
  8
0
100
AcDbCircle
 10
785.2758398210174
 20
92.24643576538332
 30
0.0
 40
2.5
100
AcDbArc
 50
0.0
 51
90.0
  0
ARC
  5
7ED
330
2
100
AcDbEntity
  8
0
100
AcDbCircle
 10
771.7758398210174
 20
172.6946817653833
 30
0.0
 40
4.0
100
AcDbArc
 50
106.3899989999996
 51
180.0
  0
LINE
  5
7EE
330
2
100
AcDbEntity
  8
0
100
AcDbLine
 10
771.1866678210175
 20
256.8020807653833
 30
0.0
 11
761.3650118210174
 21
259.6907987653833
 31
0.0
  0
LINE
  5
7EF
330
2
100
AcDbEntity
  8
0
100
AcDbLine
 10
670.3502418210174
 20
249.2464317653833
 30
0.0
 11
755.0284648210174
 21
249.2464317653833
 31
0.0
  0
LINE
  5
7F0
330
2
100
AcDbEntity
  8
0
100
AcDbLine
 10
754.8282688210174
 20
281.0127287653833
 30
0.0
 11
712.7758398210175
 21
281.7464317653833
 31
0.0
  0
ARC
  5
7F2
330
2
100
AcDbEntity
  8
0
100
AcDbCircle
 10
662.7758398210175
 20
264.4876127653833
 30
0.0
 40
5.0
100
AcDbArc
 50
286.3897709999995
 51
0.0
  0
LINE
  5
7F3
330
2
100
AcDbEntity
  8
0
100
AcDbLine
 10
670.7234108210175
 20
281.0122557653833
 30
0.0
 11
712.7758398210175
 21
281.7464317653833
 31
0.0
  0
ARC
  5
7F4
330
2
100
AcDbEntity
  8
0
100
AcDbCircle
 10
670.7758398210175
 20
278.0127127653833
 30
0.0
 40
3.0
100
AcDbArc
 50
91.00060300000007
 51
180.0
  0
ARC
  5
7F5
330
2
100
AcDbEntity
  8
0
100
AcDbCircle
 10
762.7758398210175
 20
264.4876587653833
 30
0.0
 40
5.0
100
AcDbArc
 50
180.0
 51
253.6107940000003
  0
ARC
  5
7F6
330
2
100
AcDbEntity
  8
0
100
AcDbCircle
 10
754.7758398210175
 20
278.0131707653833
 30
0.0
 40
3.0
100
AcDbArc
 50
0.0
 51
89.00057999999992
  0
LINE
  5
7F7
330
2
100
AcDbEntity
  8
0
100
AcDbLine
 10
774.7758398210175
 20
181.4876277653833
 30
0.0
 11
774.7758398210175
 21
252.0052517653833
 31
0.0
  0
ARC
  5
7F8
330
2
100
AcDbEntity
  8
0
100
AcDbCircle
 10
769.7758398210175
 20
181.4876197653833
 30
0.0
 40
5.0
100
AcDbArc
 50
286.3896790000003
 51
0.0
  0
LINE
  5
7F9
330
2
100
AcDbEntity
  8
0
100
AcDbLine
 10
771.1866678210175
 20
176.6907987653833
 30
0.0
 11
770.6472388210174
 21
176.5321227653833
 31
0.0
  0
ARC
  5
7FA
330
2
100
AcDbEntity
  8
0
100
AcDbCircle
 10
769.7758398210175
 20
252.0052367653832
 30
0.0
 40
5.0
100
AcDbArc
 50
0.0
 51
73.61052699999977
  0
LINE
  5
7FC
330
2
100
AcDbEntity
  8
0
100
AcDbLine
 10
415.2151571111082
 20
567.4094184859066
 30
0.0
 11
415.2151571111082
 21
483.4094184859066
 31
0.0
  0
LINE
  5
7FD
330
2
100
AcDbEntity
  8
0
100
AcDbLine
 10
462.2153401111083
 20
525.4094184859066
 30
0.0
 11
461.4298781111083
 21
480.4094184859065
 31
0.0
  0
LINE
  5
7FE
330
2
100
AcDbEntity
  8
0
100
AcDbLine
 10
401.4138261111083
 20
455.4094184859065
 30
0.0
 11
401.4138261111083
 21
405.4094184859065
 31
0.0
  0
LINE
  5
7FF
330
2
100
AcDbEntity
  8
0
100
AcDbLine
 10
405.2151571111083
 20
405.4094184859065
 30
0.0
 11
405.2151571111083
 21
455.4094184859065
 31
0.0
  0
ARC
  5
800
330
2
100
AcDbEntity
  8
0
100
AcDbCircle
 10
447.3711631111083
 20
475.4094184859066
 30
0.0
 40
5.0
100
AcDbArc
 50
90.0
 51
163.8278349999998
  0
ARC
  5
801
330
2
100
AcDbEntity
  8
0
100
AcDbCircle
 10
444.6651991111083
 20
458.4094184859066
 30
0.0
 40
8.0
100
AcDbArc
 50
270.0
 51
339.5033819999998
  0
LINE
  5
802
330
2
100
AcDbEntity
  8
0
100
AcDbLine
 10
405.2151571111083
 20
450.4094184859066
 30
0.0
 11
444.6651991111083
 21
450.4094184859066
 31
0.0
  0
LINE
  5
803
330
2
100
AcDbEntity
  8
0
100
AcDbLine
 10
401.4138261111083
 20
455.4094184859065
 30
0.0
 11
405.2151571111083
 21
455.4094184859065
 31
0.0
  0
LINE
  5
804
330
2
100
AcDbEntity
  8
0
100
AcDbLine
 10
403.7151571111082
 20
463.4094184859065
 30
0.0
 11
403.7151571111082
 21
460.4094184859065
 31
0.0
  0
LINE
  5
805
330
2
100
AcDbEntity
  8
0
100
AcDbLine
 10
402.2151571111082
 20
460.4094184859065
 30
0.0
 11
402.2151571111082
 21
455.4094184859065
 31
0.0
  0
ARC
  5
806
330
2
100
AcDbEntity
  8
0
100
AcDbCircle
 10
433.7151571111083
 20
465.4094184859066
 30
0.0
 40
6.5
100
AcDbArc
 50
129.7151339999998
 51
51.24068799999973
  0
ARC
  5
808
330
2
100
AcDbEntity
  8
0
100
AcDbCircle
 10
421.4739461111084
 20
468.4094184859065
 30
0.0
 40
5.0
100
AcDbArc
 50
270.0
 51
343.6104600000002
  0
LINE
  5
80A
330
2
100
AcDbEntity
  8
0
100
AcDbLine
 10
436.9591451111083
 20
470.4094184859066
 30
0.0
 11
427.2739641111083
 21
470.4094184859066
 31
0.0
  0
LINE
  5
80B
330
2
100
AcDbEntity
  8
0
100
AcDbLine
 10
426.2707901111083
 20
466.9985904859067
 30
0.0
 11
427.2739641111083
 21
470.4094184859066
 31
0.0
  0
LINE
  5
80C
330
2
100
AcDbEntity
  8
0
100
AcDbLine
 10
441.7612991111083
 20
474.0168094859066
 30
0.0
 11
442.5690081111083
 21
476.8020574859066
 31
0.0
  0
ARC
  5
80D
330
2
100
AcDbEntity
  8
0
100
AcDbCircle
 10
436.9591451111083
 20
475.4094184859066
 30
0.0
 40
5.0
100
AcDbArc
 50
270.0
 51
343.827841
  0
LINE
  5
80E
330
2
100
AcDbEntity
  8
0
100
AcDbLine
 10
443.6151511111083
 20
480.4094184859065
 30
0.0
 11
443.6183551111082
 21
480.4205264859066
 31
0.0
  0
LINE
  5
80F
330
2
100
AcDbEntity
  8
0
100
AcDbLine
 10
452.1587301111082
 20
455.6082094859066
 30
0.0
 11
461.4298781111083
 21
480.4094184859065
 31
0.0
  0
ARC
  5
810
330
2
100
AcDbEntity
  8
0
100
AcDbCircle
 10
458.4817891111083
 20
483.4094184859066
 30
0.0
 40
3.0
100
AcDbArc
 50
270.0
 51
358.9999999999998
  0
ARC
  5
811
330
2
100
AcDbEntity
  8
0
100
AcDbCircle
 10
447.3711631111083
 20
575.4094184859066
 30
0.0
 40
5.0
100
AcDbArc
 50
196.1721650000001
 51
270.0
  0
ARC
  5
812
330
2
100
AcDbEntity
  8
0
100
AcDbCircle
 10
444.6651991111083
 20
592.4094184859066
 30
0.0
 40
8.0
100
AcDbArc
 50
20.49661800000011
 51
90.0
  0
ARC
  5
813
330
2
100
AcDbEntity
  8
0
100
AcDbCircle
 10
433.7151571111083
 20
585.4094184859065
 30
0.0
 40
6.5
100
AcDbArc
 50
308.7593120000002
 51
230.2848659999995
  0
LINE
  5
814
330
2
100
AcDbEntity
  8
CENTER
100
AcDbLine
 10
433.7151571111083
 20
575.0617624859066
 30
0.0
 11
433.7151571111083
 21
595.7570744859065
 31
0.0
  0
ARC
  5
815
330
2
100
AcDbEntity
  8
0
100
AcDbCircle
 10
421.4739461111084
 20
582.4094184859066
 30
0.0
 40
5.0
100
AcDbArc
 50
16.38953999999972
 51
90.0
  0
LINE
  5
816
330
2
100
AcDbEntity
  8
0
100
AcDbLine
 10
436.9591451111083
 20
580.4094184859065
 30
0.0
 11
427.2739641111083
 21
580.4094184859065
 31
0.0
  0
LINE
  5
817
330
2
100
AcDbEntity
  8
0
100
AcDbLine
 10
426.2707901111083
 20
583.8202454859064
 30
0.0
 11
427.2739641111083
 21
580.4094184859065
 31
0.0
  0
LINE
  5
818
330
2
100
AcDbEntity
  8
0
100
AcDbLine
 10
441.7612991111083
 20
576.8020574859066
 30
0.0
 11
442.5690081111083
 21
574.0168094859066
 31
0.0
  0
LINE
  5
819
330
2
100
AcDbEntity
  8
0
100
AcDbLine
 10
443.6151511111083
 20
570.4094184859066
 30
0.0
 11
443.6183551111082
 21
570.3983404859066
 31
0.0
  0
ARC
  5
81A
330
2
100
AcDbEntity
  8
0
100
AcDbCircle
 10
436.9591451111083
 20
575.4094184859066
 30
0.0
 40
5.0
100
AcDbArc
 50
16.17215899999997
 51
90.0
  0
LINE
  5
81B
330
2
100
AcDbEntity
  8
CENTER
100
AcDbLine
 10
423.3675011111083
 20
585.4094184859065
 30
0.0
 11
444.0628131111082
 21
585.4094184859065
 31
0.0
  0
LINE
  5
81C
330
2
100
AcDbEntity
  8
0
100
AcDbLine
 10
462.2153401111083
 20
525.4094184859066
 30
0.0
 11
461.4298781111083
 21
570.4094184859066
 31
0.0
  0
LINE
  5
81D
330
2
100
AcDbEntity
  8
0
100
AcDbLine
 10
452.1587301111082
 20
595.2106574859065
 30
0.0
 11
461.4298781111083
 21
570.4094184859066
 31
0.0
  0
ARC
  5
81E
330
2
100
AcDbEntity
  8
0
100
AcDbCircle
 10
458.4817891111083
 20
567.4094184859066
 30
0.0
 40
3.0
100
AcDbArc
 50
1.000000000000147
 51
90.0
  0
LINE
  5
8CF
330
2
100
AcDbEntity
  8
CENTER
100
AcDbLine
 10
328.3675011111083
 20
585.4094184859065
 30
0.0
 11
349.0628131111082
 21
585.4094184859065
 31
0.0
  0
LINE
  5
8D0
330
2
100
AcDbEntity
  8
CENTER
100
AcDbLine
 10
338.7151571111083
 20
575.0617624859066
 30
0.0
 11
338.7151571111083
 21
595.7570744859065
 31
0.0
  0
LINE
  5
8D1
330
2
100
AcDbEntity
  8
CENTER
100
AcDbLine
 10
328.3675011111083
 20
465.4094184859066
 30
0.0
 11
349.0628131111082
 21
465.4094184859066
 31
0.0
  0
LINE
  5
8D2
330
2
100
AcDbEntity
  8
CENTER
100
AcDbLine
 10
338.7151571111083
 20
455.0617624859066
 30
0.0
 11
338.7151571111083
 21
475.7570744859065
 31
0.0
  0
LINE
  5
8D3
330
2
100
AcDbEntity
  8
CENTER
100
AcDbLine
 10
423.3675011111083
 20
465.4094184859066
 30
0.0
 11
444.0628131111082
 21
465.4094184859066
 31
0.0
  0
LINE
  5
8D4
330
2
100
AcDbEntity
  8
CENTER
100
AcDbLine
 10
433.7151571111083
 20
455.0617624859066
 30
0.0
 11
433.7151571111083
 21
475.7570744859065
 31
0.0
  0
TEXT
  5
8F1
330
2
100
AcDbEntity
  8
TITLE
100
AcDbText
 10
496.0672801777599
 20
551.3864376398898
 30
0.0
 40
7.5
  1
HLMN-32R-1200~1800-T40T
 41
0.8
100
AcDbText
  0
TEXT
  5
8F2
330
2
100
AcDbEntity
  8
TITLE
100
AcDbText
 10
496.0672801777599
 20
539.3864376398899
 30
0.0
 40
7.5
  1
HLMN-32R-1200~1800-T40WT
 41
0.8
100
AcDbText
  0
TEXT
  5
8F3
330
2
100
AcDbEntity
  8
TITLE
100
AcDbText
 10
496.0672801777599
 20
527.3864376398899
 30
0.0
 40
7.5
  1
HLMN-32R-1200~1800-T60T
 41
0.8
100
AcDbText
  0
TEXT
  5
8F4
330
2
100
AcDbEntity
  8
TITLE
100
AcDbText
 10
496.0672801777599
 20
515.3864376398899
 30
0.0
 40
7.5
  1
HLMN-32R-1200~1800-T60WT
 41
0.8
100
AcDbText
  0
TEXT
  5
8F5
330
2
100
AcDbEntity
  8
TITLE
100
AcDbText
 10
496.0672801777599
 20
503.3864376398899
 30
0.0
 40
7.5
  1
HLMN-32R-600~900-T90T
 41
0.8
100
AcDbText
  0
TEXT
  5
8F6
330
2
100
AcDbEntity
  8
TITLE
100
AcDbText
 10
496.0672801777599
 20
491.3864376398898
 30
0.0
 40
7.5
  1
HLMN-32R-600~900-T90WT
 41
0.8
100
AcDbText
  0
TEXT
  5
8F7
330
2
100
AcDbEntity
  8
TITLE
100
AcDbText
 10
649.7316611233819
 20
491.3864376398898
 30
0.0
 40
7.5
  1
HLMN-32R-600~900-S90WT
 41
0.8
100
AcDbText
  0
TEXT
  5
8F8
330
2
100
AcDbEntity
  8
TITLE
100
AcDbText
 10
649.7316611233819
 20
551.3864376398898
 30
0.0
 40
7.5
  1
HLMN-32R-1200~1800-S40T
 41
0.8
100
AcDbText
  0
TEXT
  5
8F9
330
2
100
AcDbEntity
  8
TITLE
100
AcDbText
 10
649.7316611233819
 20
539.3864376398899
 30
0.0
 40
7.5
  1
HLMN-32R-1200~1800-S40WT
 41
0.8
100
AcDbText
  0
TEXT
  5
8FA
330
2
100
AcDbEntity
  8
TITLE
100
AcDbText
 10
649.7316611233819
 20
527.3864376398899
 30
0.0
 40
7.5
  1
HLMN-32R-1200~1800-S60T
 41
0.8
100
AcDbText
  0
TEXT
  5
8FB
330
2
100
AcDbEntity
  8
TITLE
100
AcDbText
 10
649.7316611233819
 20
515.3864376398899
 30
0.0
 40
7.5
  1
HLMN-32R-1200~1800-S60WT
 41
0.8
100
AcDbText
  0
TEXT
  5
8FC
330
2
100
AcDbEntity
  8
TITLE
100
AcDbText
 10
649.7316611233819
 20
503.3864376398899
 30
0.0
 40
7.5
  1
HLMN-32R-600~900-S90T
 41
0.8
100
AcDbText
  0
LINE
  5
BBB
330
2
100
AcDbEntity
  8
CENTER
100
AcDbLine
 10
226.0387130827668
 20
171.7464317653833
 30
0.0
 11
317.885346666533
 21
171.7464317653833
 31
0.0
  0
ARC
  5
1322
330
2
100
AcDbEntity
  8
0
100
AcDbCircle
 10
712.7758398210174
 20
171.7464317653833
 30
0.0
 40
63.5
100
AcDbArc
 50
167.5216944567993
 51
209.9866742701368
  0
ARC
  5
1323
330
2
100
AcDbEntity
  8
0
100
AcDbCircle
 10
712.7758398210174
 20
171.7464317653833
 30
0.0
 40
63.5
100
AcDbArc
 50
330.0133473936957
 51
12.47825543178493
  0
LINE
  5
1D0E
330
2
100
AcDbEntity
  8
CENTER
100
AcDbLine
 10
140.7151531111082
 20
560.7986444300142
 30
0.0
 11
140.7151531111082
 21
489.6594184859066
 31
0.0
  0
LINE
  5
1D0F
330
2
100
AcDbEntity
  8
0
100
AcDbLine
 10
164.3152511111081
 20
502.8094124859065
 30
0.0
 11
164.3152511111081
 21
542.9094184859065
 31
0.0
  0
LINE
  5
1D10
330
2
100
AcDbEntity
  8
0
100
AcDbLine
 10
113.7151461111082
 20
519.9094184859066
 30
0.0
 11
110.2151461111082
 21
523.4094184859066
 31
0.0
  0
LINE
  5
1D11
330
2
100
AcDbEntity
  8
0
100
AcDbLine
 10
113.7151461111082
 20
518.9094184859065
 30
0.0
 11
113.7151461111082
 21
531.9094184859066
 31
0.0
  0
LINE
  5
1D12
330
2
100
AcDbEntity
  8
0
100
AcDbLine
 10
165.7150461111084
 20
548.4094184859066
 30
0.0
 11
165.7150461111082
 21
502.4094184859065
 31
0.0
  0
LINE
  5
1D13
330
2
100
AcDbEntity
  8
0
100
AcDbLine
 10
117.1151401111083
 20
548.0094094859066
 30
0.0
 11
117.1151471111081
 21
507.9094184859066
 31
0.0
  0
LINE
  5
1D14
330
2
100
AcDbEntity
  8
0
100
AcDbLine
 10
115.7151461111082
 20
548.4094184859066
 30
0.0
 11
115.7151461111082
 21
502.4094184859065
 31
0.0
  0
LINE
  5
1D1F
330
2
100
AcDbEntity
  8
CENTER
100
AcDbLine
 10
140.7151531111082
 20
195.5527307653833
 30
0.0
 11
140.7151531111082
 21
246.6339297653833
 31
0.0
  0
LINE
  5
1D20
330
2
100
AcDbEntity
  8
0
100
AcDbLine
 10
115.7151461111082
 20
235.2464297653833
 30
0.0
 11
115.7151461111082
 21
207.2464317653833
 31
0.0
  0
LINE
  5
1D21
330
2
100
AcDbEntity
  8
0
100
AcDbLine
 10
165.7151531111082
 20
235.2464297653833
 30
0.0
 11
165.7151531111082
 21
207.2464317653833
 31
0.0
  0
LINE
  5
1D23
330
2
100
AcDbEntity
  8
0
100
AcDbLine
 10
110.2151611111082
 20
230.7464297653833
 30
0.0
 11
110.2151611111082
 21
222.7464297653833
 31
0.0
  0
LINE
  5
1D24
330
2
100
AcDbEntity
  8
0
100
AcDbLine
 10
113.7151611111082
 20
233.2464297653833
 30
0.0
 11
113.7151461111082
 21
217.2464317653833
 31
0.0
  0
LINE
  5
1D25
330
2
100
AcDbEntity
  8
0
100
AcDbLine
 10
117.2151461111081
 20
205.2464317653833
 30
0.0
 11
163.7151531111082
 21
205.2464317653833
 31
0.0
  0
LINE
  5
1D26
330
2
100
AcDbEntity
  8
0
100
AcDbLine
 10
113.7151461111082
 20
217.2464317653833
 30
0.0
 11
165.7151531111082
 21
217.2464317653833
 31
0.0
  0
LINE
  5
1D28
330
2
100
AcDbEntity
  8
0
100
AcDbLine
 10
115.7151461111082
 20
207.2464317653833
 30
0.0
 11
165.7151531111082
 21
207.2464317653833
 31
0.0
  0
LINE
  5
1D2A
330
2
100
AcDbEntity
  8
0
100
AcDbLine
 10
110.2151461111082
 20
222.7464297653833
 30
0.0
 11
113.7151461111082
 21
221.2464297653833
 31
0.0
  0
LINE
  5
1D2B
330
2
100
AcDbEntity
  8
0
100
AcDbLine
 10
117.2151461111081
 20
205.2464317653833
 30
0.0
 11
117.2151461111081
 21
203.7464317653832
 31
0.0
  0
LINE
  5
1D2C
330
2
100
AcDbEntity
  8
0
100
AcDbLine
 10
115.7151461111082
 20
207.2464317653833
 30
0.0
 11
117.7151461111082
 21
205.2464317653833
 31
0.0
  0
LINE
  5
1D2D
330
2
100
AcDbEntity
  8
0
100
AcDbLine
 10
163.2151531111083
 20
205.2464317653833
 30
0.0
 11
163.2151531111083
 21
203.7464317653832
 31
0.0
  0
LINE
  5
1D2E
330
2
100
AcDbEntity
  8
0
100
AcDbLine
 10
163.7151531111082
 20
205.2464317653833
 30
0.0
 11
165.7151531111082
 21
207.2464317653833
 31
0.0
  0
LINE
  5
1D32
330
2
100
AcDbEntity
  8
CENTER
100
AcDbLine
 10
102.7713971111082
 20
226.7464297653833
 30
0.0
 11
174.6674560748463
 21
226.7464297653833
 31
0.0
  0
LINE
  5
1D33
330
2
100
AcDbEntity
  8
0
100
AcDbLine
 10
163.3152511111081
 20
501.8094124859065
 30
0.0
 11
123.2151461111081
 21
501.8094124859065
 31
0.0
  0
LINE
  5
1D34
330
2
100
AcDbEntity
  8
0
100
AcDbLine
 10
117.7151461111082
 20
500.4094184859066
 30
0.0
 11
163.7150461111082
 21
500.4094184859066
 31
0.0
  0
LINE
  5
1D35
330
2
100
AcDbEntity
  8
0
100
AcDbLine
 10
123.2151465396793
 20
235.2464297653833
 30
0.0
 11
165.7151601111083
 21
235.2464297653833
 31
0.0
  0
LINE
  5
1D36
330
2
100
AcDbEntity
  8
0
100
AcDbLine
 10
120.5530619271337
 20
236.2464297653833
 30
0.0
 11
164.7151531111082
 21
236.2464297653833
 31
0.0
  0
LINE
  5
1D37
330
2
100
AcDbEntity
  8
0
100
AcDbLine
 10
110.2151611111082
 20
230.7464297653833
 30
0.0
 11
113.7151611111082
 21
232.2464297653833
 31
0.0
  0
LINE
  5
1D38
330
2
100
AcDbEntity
  8
0
100
AcDbLine
 10
123.2151465396793
 20
233.7464297653832
 30
0.0
 11
123.2151465396793
 21
235.7464297653832
 31
0.0
  0
ARC
  5
1D39
330
2
100
AcDbEntity
  8
0
100
AcDbCircle
 10
121.3221638647012
 20
234.7525424896295
 30
0.0
 40
1.3
100
AcDbArc
 50
5.000000000000026
 51
74.11914999172198
  0
LINE
  5
1D3A
330
2
100
AcDbEntity
  8
0
100
AcDbLine
 10
115.7151461111082
 20
235.2464297653833
 30
0.0
 11
116.7151461111082
 21
236.2464297653833
 31
0.0
  0
LINE
  5
1D3B
330
2
100
AcDbEntity
  8
0
100
AcDbLine
 10
116.7151465396793
 20
236.2464297653831
 30
0.0
 11
115.7151461111082
 21
235.2464297653833
 31
0.0
  0
ARC
  5
1D3C
330
2
100
AcDbEntity
  8
0
100
AcDbCircle
 10
117.1081423575153
 20
234.7525424896295
 30
0.0
 40
1.3
100
AcDbArc
 50
105.880850008278
 51
174.9999999999999
  0
SPLINE
  5
1D3D
330
2
100
AcDbEntity
  8
0
100
AcDbSpline
210
0.0
220
0.0
230
1.0
 70
     8
 71
     3
 72
    11
 73
     7
 74
     0
 42
0.0000000001
 43
0.0000000001
 40
0.0
 40
0.0
 40
0.0
 40
0.0
 40
0.4601364636755307
 40
1.04988694485363
 40
1.713742833862792
 40
2.320347933405154
 40
2.320347933405154
 40
2.320347933405154
 40
2.320347933405179
 10
118.9276531106534
 20
234.8294297653832
 30
0.0
 10
118.9052354535454
 20
234.9844532050631
 30
0.0
 10
118.8540853983122
 20
235.3381680229806
 30
0.0
 10
118.4182002367786
 20
235.7628956945823
 30
0.0
 10
117.8131495217712
 20
235.9820828745481
 30
0.0
 10
117.3879648975953
 20
235.9130915749374
 30
0.0
 10
117.1854132879443
 20
235.8988713027608
 30
0.0
  0
SPLINE
  5
1D3E
330
2
100
AcDbEntity
  8
0
100
AcDbSpline
210
0.0
220
0.0
230
1.0
 70
     8
 71
     3
 72
    11
 73
     7
 74
     0
 42
0.0000000001
 43
0.0000000001
 40
0.0
 40
0.0
 40
0.0
 40
0.0
 40
0.4601364636755307
 40
1.04988694485363
 40
1.713742833862792
 40
2.320347933405154
 40
2.320347933405154
 40
2.320347933405154
 40
2.320347933405179
 10
119.5026531115634
 20
234.8294297653832
 30
0.0
 10
119.5250707686711
 20
234.9844532050631
 30
0.0
 10
119.5762208239045
 20
235.3381680229806
 30
0.0
 10
120.0121059854382
 20
235.7628956945823
 30
0.0
 10
120.6171567004455
 20
235.9820828745481
 30
0.0
 10
121.0423413246214
 20
235.9130915749374
 30
0.0
 10
121.2448929342724
 20
235.8988713027608
 30
0.0
  0
LINE
  5
1D3F
330
2
100
AcDbEntity
  8
0
100
AcDbLine
 10
123.2151465396793
 20
233.7464297653832
 30
0.0
 11
115.7151465396793
 21
233.7464297653832
 31
0.0
  0
LINE
  5
1D40
330
2
100
AcDbEntity
  8
0
100
AcDbLine
 10
119.5026531115634
 20
234.8294297653832
 30
0.0
 11
118.9276531106534
 21
234.8294297653832
 31
0.0
  0
LINE
  5
1D41
330
2
100
AcDbEntity
  8
0
100
AcDbLine
 10
115.7151531111082
 20
233.7464297653832
 30
0.0
 11
115.8130892499962
 21
234.8658449552015
 31
0.0
  0
ARC
  5
1D42
330
2
100
AcDbEntity
  8
0
100
AcDbCircle
 10
114.7151611111082
 20
233.2464297653833
 30
0.0
 40
1.0
100
AcDbArc
 50
90.0
 51
180.0
  0
LINE
  5
1D43
330
2
100
AcDbEntity
  8
0
100
AcDbLine
 10
114.7151461111082
 20
234.2464297653833
 30
0.0
 11
115.7151461111082
 21
234.2464297653833
 31
0.0
  0
LINE
  5
1D44
330
2
100
AcDbEntity
  8
0
100
AcDbLine
 10
122.7151531111082
 20
233.7464297653832
 30
0.0
 11
122.6172169722206
 21
234.8658449552015
 31
0.0
  0
LINE
  5
1D45
330
2
100
AcDbEntity
  8
0
100
AcDbLine
 10
123.2151465396793
 20
235.7464297653832
 30
0.0
 11
122.1601305007286
 21
235.7464297653832
 31
0.0
  0
LINE
  5
1D46
330
2
100
AcDbEntity
  8
0
100
AcDbLine
 10
121.2448929342724
 20
235.8988713027608
 30
0.0
 11
121.2651531111084
 21
236.1098480482224
 31
0.0
  0
LINE
  5
1D47
330
2
100
AcDbEntity
  8
0
100
AcDbLine
 10
116.7151461111082
 20
236.2464297653833
 30
0.0
 11
117.8772442950828
 21
236.2464297653833
 31
0.0
  0
LINE
  5
1D48
330
2
100
AcDbEntity
  8
0
100
AcDbLine
 10
117.1854132879443
 20
235.8988713027608
 30
0.0
 11
117.1651531111083
 21
236.1098480482224
 31
0.0
  0
ARC
  5
1D49
330
2
100
AcDbEntity
  8
0
100
AcDbCircle
 10
119.2151531111082
 20
227.3464297653832
 30
0.0
 40
9.0
100
AcDbArc
 50
74.11914999172198
 51
105.880850008278
  0
LINE
  5
1D4A
330
2
100
AcDbEntity
  8
0
100
AcDbLine
 10
123.7151465396793
 20
236.2464297653831
 30
0.0
 11
123.2151465396793
 21
235.7464297653832
 31
0.0
  0
CIRCLE
  5
1D4B
330
2
100
AcDbEntity
  8
0
100
AcDbCircle
 10
119.2151761111083
 20
503.9094184859066
 30
0.0
 40
3.500000000000028
  0
ARC
  5
1D4C
330
2
100
AcDbEntity
  8
0
100
AcDbCircle
 10
119.2151761111083
 20
503.9094184859066
 30
0.0
 40
4.0
100
AcDbArc
 50
0.0
 51
90.0
  0
LINE
  5
1D4D
330
2
100
AcDbEntity
  8
0
100
AcDbLine
 10
115.7151461111082
 20
502.4094184859065
 30
0.0
 11
117.7151461111082
 21
500.4094184859066
 31
0.0
  0
LINE
  5
1D4E
330
2
100
AcDbEntity
  8
0
100
AcDbLine
 10
115.7151461111082
 20
502.4094184859065
 30
0.0
 11
117.7151461111082
 21
500.4094184859066
 31
0.0
  0
ARC
  5
1D4F
330
2
100
AcDbEntity
  8
0
100
AcDbCircle
 10
119.2151761111083
 20
503.9094184859066
 30
0.0
 40
2.049999999999998
100
AcDbArc
 50
0.0
 51
8.061960083981649
  0
ARC
  5
1D50
330
2
100
AcDbEntity
  8
0
100
AcDbCircle
 10
119.2151761111083
 20
503.9094184859066
 30
0.0
 40
2.049999999999998
100
AcDbArc
 50
351.9380399160183
 51
0.0
  0
ARC
  5
1D51
330
2
100
AcDbEntity
  8
0
100
AcDbCircle
 10
117.1854761111082
 20
501.8797184859066
 30
0.0
 40
1.742199999999999
100
AcDbArc
 50
359.9986903345002
 51
90.00130966549322
  0
ARC
  5
1D52
330
2
100
AcDbEntity
  8
0
100
AcDbCircle
 10
119.2151761111083
 20
503.9094184859066
 30
0.0
 40
2.049999999999998
100
AcDbArc
 50
261.9380399160178
 51
270.0
  0
ARC
  5
1D53
330
2
100
AcDbEntity
  8
0
100
AcDbCircle
 10
119.2151761111083
 20
503.9094184859066
 30
0.0
 40
2.049999999999998
100
AcDbArc
 50
90.0
 51
98.06196008398211
  0
LINE
  5
1D54
330
2
100
AcDbEntity
  8
0
100
AcDbLine
 10
119.2151761111083
 20
507.9094184859066
 30
0.0
 11
115.7151761111083
 21
507.9094184859066
 31
0.0
  0
ARC
  5
1D55
330
2
100
AcDbEntity
  8
0
100
AcDbCircle
 10
117.1854761111082
 20
505.9391184859065
 30
0.0
 40
1.742199999999999
100
AcDbArc
 50
269.9986903345002
 51
0.0013096654997424
  0
ARC
  5
1D56
330
2
100
AcDbEntity
  8
0
100
AcDbCircle
 10
119.2151761111083
 20
503.9094184859066
 30
0.0
 40
2.049999999999998
100
AcDbArc
 50
171.9380399160183
 51
180.0
  0
ARC
  5
1D57
330
2
100
AcDbEntity
  8
0
100
AcDbCircle
 10
119.2151761111083
 20
503.9094184859066
 30
0.0
 40
2.049999999999998
100
AcDbArc
 50
180.0
 51
188.0619600839816
  0
ARC
  5
1D58
330
2
100
AcDbEntity
  8
0
100
AcDbCircle
 10
119.2151761111083
 20
503.9094184859066
 30
0.0
 40
2.049999999999998
100
AcDbArc
 50
270.0
 51
278.061960083982
  0
ARC
  5
1D59
330
2
100
AcDbEntity
  8
0
100
AcDbCircle
 10
119.2151761111083
 20
503.9094184859066
 30
0.0
 40
2.049999999999998
100
AcDbArc
 50
81.93803991601789
 51
90.0
  0
ARC
  5
1D5A
330
2
100
AcDbEntity
  8
0
100
AcDbCircle
 10
121.2448761111083
 20
501.8797184859066
 30
0.0
 40
1.742199999999999
100
AcDbArc
 50
89.99869033450025
 51
180.0013096654997
  0
ARC
  5
1D5B
330
2
100
AcDbEntity
  8
0
100
AcDbCircle
 10
121.2448761111083
 20
505.9391184859065
 30
0.0
 40
1.742199999999999
100
AcDbArc
 50
179.9986903345002
 51
270.0013096654932
  0
LINE
  5
1D5C
330
2
100
AcDbEntity
  8
0
100
AcDbLine
 10
123.2151461111081
 20
503.9094184859066
 30
0.0
 11
123.2151461111081
 21
500.4096174859066
 31
0.0
  0
LINE
  5
1D5D
330
2
100
AcDbEntity
  8
0
100
AcDbLine
 10
114.7151461111082
 20
517.9094184859065
 30
0.0
 11
115.7151461111082
 21
517.9094184859065
 31
0.0
  0
ARC
  5
1D5E
330
2
100
AcDbEntity
  8
0
100
AcDbCircle
 10
114.7151461111082
 20
518.9094184859065
 30
0.0
 40
1.0
100
AcDbArc
 50
180.0
 51
270.0
  0
LINE
  5
1D5F
330
2
100
AcDbEntity
  8
0
100
AcDbLine
 10
164.7151601111083
 20
236.2464297653833
 30
0.0
 11
165.7151601111083
 21
235.2464297653833
 31
0.0
  0
LINE
  5
1D61
330
2
100
AcDbEntity
  8
0
100
AcDbLine
 10
165.7150461111082
 20
502.4094184859065
 30
0.0
 11
163.7150461111082
 21
500.4094184859066
 31
0.0
  0
LINE
  5
1D62
330
2
100
AcDbEntity
  8
0
100
AcDbLine
 10
165.7150461111082
 20
502.4094184859065
 30
0.0
 11
163.7150461111082
 21
500.4094184859066
 31
0.0
  0
LINE
  5
1D63
330
2
100
AcDbEntity
  8
0
100
AcDbLine
 10
165.7152451111082
 20
502.4094184859065
 30
0.0
 11
163.7150461111082
 21
500.4094184859066
 31
0.0
  0
LINE
  5
1D64
330
2
100
AcDbEntity
  8
0
100
AcDbLine
 10
163.3152511111081
 20
501.8094124859065
 30
0.0
 11
164.3152511111081
 21
502.8094124859065
 31
0.0
  0
LINE
  5
1D9F
330
2
100
AcDbEntity
  8
0
100
AcDbLine
 10
117.7151461111082
 20
550.4094184859066
 30
0.0
 11
163.7150461111084
 21
550.4094184859066
 31
0.0
  0
LINE
  5
1DA0
330
2
100
AcDbEntity
  8
0
100
AcDbLine
 10
118.1151471111081
 20
549.0094094859066
 30
0.0
 11
158.2150461111084
 21
549.0094094859065
 31
0.0
  0
ARC
  5
1DA1
330
2
100
AcDbEntity
  8
0
100
AcDbCircle
 10
162.2152451111082
 20
546.9094184859065
 30
0.0
 40
4.0
100
AcDbArc
 50
180.0
 51
270.0
  0
LINE
  5
1DA2
330
2
100
AcDbEntity
  8
0
100
AcDbLine
 10
110.2151461111082
 20
527.4094184859065
 30
0.0
 11
113.7151461111082
 21
530.9094184859065
 31
0.0
  0
LINE
  5
1DA3
330
2
100
AcDbEntity
  8
0
100
AcDbLine
 10
110.2151461111082
 20
527.4094184859065
 30
0.0
 11
110.2151461111082
 21
523.4094184859066
 31
0.0
  0
LINE
  5
1DA4
330
2
100
AcDbEntity
  8
0
100
AcDbLine
 10
114.7151461111082
 20
532.9094184859066
 30
0.0
 11
115.7151461111082
 21
532.9094184859066
 31
0.0
  0
ARC
  5
1DA5
330
2
100
AcDbEntity
  8
0
100
AcDbCircle
 10
114.7151611111082
 20
531.9094184859066
 30
0.0
 40
1.0
100
AcDbArc
 50
90.0
 51
180.0
  0
LINE
  5
1DA6
330
2
100
AcDbEntity
  8
0
100
AcDbLine
 10
117.1151401111083
 20
548.0094094859066
 30
0.0
 11
118.1151471111081
 21
549.0094094859066
 31
0.0
  0
LINE
  5
1DA7
330
2
100
AcDbEntity
  8
0
100
AcDbLine
 10
115.7151461111082
 20
548.4094184859066
 30
0.0
 11
117.7151461111082
 21
550.4094184859066
 31
0.0
  0
ARC
  5
1DA8
330
2
100
AcDbEntity
  8
0
100
AcDbCircle
 10
164.2449451111085
 20
544.8797184859065
 30
0.0
 40
1.742199999999999
100
AcDbArc
 50
89.99869033450025
 51
180.0013096654997
  0
ARC
  5
1DA9
330
2
100
AcDbEntity
  8
0
100
AcDbCircle
 10
160.1855451111084
 20
544.8797184859065
 30
0.0
 40
1.742199999999999
100
AcDbArc
 50
359.9986903345002
 51
90.00130966549322
  0
CIRCLE
  5
1DAA
330
2
100
AcDbEntity
  8
0
100
AcDbCircle
 10
162.2152451111082
 20
546.9094184859065
 30
0.0
 40
3.500000000000028
  0
ARC
  5
1DAB
330
2
100
AcDbEntity
  8
0
100
AcDbCircle
 10
162.2152451111082
 20
546.9094184859065
 30
0.0
 40
2.049999999999998
100
AcDbArc
 50
261.9380399160178
 51
270.0
  0
ARC
  5
1DAC
330
2
100
AcDbEntity
  8
0
100
AcDbCircle
 10
162.2152451111082
 20
546.9094184859065
 30
0.0
 40
2.049999999999998
100
AcDbArc
 50
270.0
 51
278.061960083982
  0
LINE
  5
1DAD
330
2
100
AcDbEntity
  8
0
100
AcDbLine
 10
162.2150461111084
 20
542.9094184859065
 30
0.0
 11
165.7150461111084
 21
542.9094184859065
 31
0.0
  0
ARC
  5
1DAE
330
2
100
AcDbEntity
  8
0
100
AcDbCircle
 10
162.2152451111082
 20
546.9094184859065
 30
0.0
 40
2.049999999999998
100
AcDbArc
 50
180.0
 51
188.0619600839816
  0
ARC
  5
1DAF
330
2
100
AcDbEntity
  8
0
100
AcDbCircle
 10
160.1855451111084
 20
548.9391184859065
 30
0.0
 40
1.742199999999999
100
AcDbArc
 50
269.9986903345002
 51
0.0013096654997424
  0
ARC
  5
1DB0
330
2
100
AcDbEntity
  8
0
100
AcDbCircle
 10
162.2152451111082
 20
546.9094184859065
 30
0.0
 40
2.049999999999998
100
AcDbArc
 50
90.0
 51
98.06196008398211
  0
ARC
  5
1DB1
330
2
100
AcDbEntity
  8
0
100
AcDbCircle
 10
162.2152451111082
 20
546.9094184859065
 30
0.0
 40
2.049999999999998
100
AcDbArc
 50
81.93803991601789
 51
90.0
  0
ARC
  5
1DB2
330
2
100
AcDbEntity
  8
0
100
AcDbCircle
 10
162.2152451111082
 20
546.9094184859065
 30
0.0
 40
2.049999999999998
100
AcDbArc
 50
0.0
 51
8.061960083981649
  0
ARC
  5
1DB3
330
2
100
AcDbEntity
  8
0
100
AcDbCircle
 10
162.2152451111082
 20
546.9094184859065
 30
0.0
 40
2.049999999999998
100
AcDbArc
 50
351.9380399160183
 51
0.0
  0
ARC
  5
1DB4
330
2
100
AcDbEntity
  8
0
100
AcDbCircle
 10
164.2449451111085
 20
548.9391184859065
 30
0.0
 40
1.742199999999999
100
AcDbArc
 50
179.9986903345002
 51
270.0013096654932
  0
ARC
  5
1DB5
330
2
100
AcDbEntity
  8
0
100
AcDbCircle
 10
162.2152451111082
 20
546.9094184859065
 30
0.0
 40
2.049999999999998
100
AcDbArc
 50
171.9380399160183
 51
180.0
  0
LINE
  5
1DB6
330
2
100
AcDbEntity
  8
0
100
AcDbLine
 10
158.2150461111084
 20
546.9094184859065
 30
0.0
 11
158.2150461111084
 21
550.4094184859066
 31
0.0
  0
LINE
  5
1DB7
330
2
100
AcDbEntity
  8
0
100
AcDbLine
 10
165.7150461111084
 20
548.4094184859066
 30
0.0
 11
163.7150461111084
 21
550.4094184859066
 31
0.0
  0
LINE
  5
1DB8
330
2
100
AcDbEntity
  8
0
100
AcDbLine
 10
163.7150461111084
 20
550.4094184859066
 30
0.0
 11
165.7150461111084
 21
548.4094184859066
 31
0.0
  0
LINE
  5
1E14
330
2
100
AcDbEntity
  8
0
100
AcDbLine
 10
115.2151531111083
 20
517.9094184859065
 30
0.0
 11
115.2151531111083
 21
478.4094184859066
 31
0.0
  0
ENDSEC
  0
SECTION
  2
OBJECTS
  0
DICTIONARY
  5
7
330
0
100
AcDbDictionary
  3
ACAD_GROUP
350
75
  3
ACAD_LAYOUT
350
61
  3
ACAD_MLINESTYLE
350
76
  3
ACAD_PLOTSETTINGS
350
77
  3
ACAD_PLOTSTYLENAME
350
6
  3
ACADDIM
350
480
  3
ACDBHEADERROUNDTRIPXREC
350
1E9B
  3
ACDBVARIABLEDICTIONARY
350
102
  3
DWGPROPS
350
3D2
  0
DICTIONARY
  5
1EBC
330
2
100
AcDbDictionary
280
     1
  3
ACAD_LAYOUTSELFREF
360
1EBD
  0
DICTIONARY
  5
1EBE
330
1E95
100
AcDbDictionary
280
     1
  3
ACAD_LAYOUTSELFREF
360
1EBF
  0
DICTIONARY
  5
75
102
{ACAD_REACTORS
330
7
102
}
330
7
100
AcDbDictionary
  0
DICTIONARY
  5
61
102
{ACAD_REACTORS
330
7
102
}
330
7
100
AcDbDictionary
  0
DICTIONARY
  5
76
102
{ACAD_REACTORS
330
7
102
}
330
7
100
AcDbDictionary
  3
STANDARD
350
78
  0
DICTIONARY
  5
77
102
{ACAD_REACTORS
330
7
102
}
330
7
100
AcDbDictionary
  0
ACDBDICTIONARYWDFLT
  5
6
102
{ACAD_REACTORS
330
7
102
}
330
7
100
AcDbDictionary
281
     1
  3
Normal
350
5
100
AcDbDictionaryWithDefault
340
5
  0
XRECORD
  5
480
102
{ACAD_REACTORS
330
7
102
}
330
7
100
AcDbXrecord
 90
   990106
  3

 60
     0
 61
     0
 62
     1
 63
     3
 64
     1
 65
     0
 66
     0
 67
     3
 68
     1
 69
     0
 70
     0
 71
     0
 72
     0
 40
0.0
170
     2
340
0
  0
DICTIONARY
  5
1E9B
102
{ACAD_REACTORS
330
7
102
}
330
7
100
AcDbDictionary
  3
CEPSNTYPE
350
1EA5
  3
DIMSTYLEDATA
350
1EA9
  3
FINGERPRINTGUID
350
1EA6
  3
HYPERLINKBASE
350
1E9E
  3
INSUNITS
350
1EA4
  3
LAYOUTDICT
350
1EA0
  3
LWETCUNION
350
1EA3
  3
PLOTSETDICT
350
1EA1
  3
PLOTSTYLNAMDICT
350
1EA2
  3
PSVPSCALE
350
1EA8
  3
PUCSBASE
350
1EAC
  3
PUCSORGBACK
350
1EB2
  3
PUCSORGBOTTOM
350
1EAE
  3
PUCSORGFRONT
350
1EB1
  3
PUCSORGLEFT
350
1EAF
  3
PUCSORGRIGHT
350
1EB0
  3
PUCSORGTOP
350
1EAD
  3
PUCSORTHOREF
350
1EAA
  3
PUCSORTHOVIEW
350
1EAB
  3
STYLESHEET
350
1E9F
  3
TSTACKALIGN
350
1E9C
  3
TSTACKSIZE
350
1E9D
  3
UCSBASE
350
1EB5
  3
UCSORGBACK
350
1EBB
  3
UCSORGBOTTOM
350
1EB7
  3
UCSORGFRONT
350
1EBA
  3
UCSORGLEFT
350
1EB8
  3
UCSORGRIGHT
350
1EB9
  3
UCSORGTOP
350
1EB6
  3
UCSORTHOREF
350
1EB3
  3
UCSORTHOVIEW
350
1EB4
  3
VERSIONGUID
350
1EA7
  0
DICTIONARY
  5
102
102
{ACAD_REACTORS
330
7
102
}
330
7
100
AcDbDictionary
  3
DIMASSOC
350
103
  0
XRECORD
  5
3D2
102
{ACAD_REACTORS
330
7
102
}
330
7
100
AcDbXrecord
  1
DWGPROPS COOKIE
  2

  3

  4

  6

  7

  8

  9

300
=
301
=
302
=
303
=
304
=
305
=
306
=
307
=
308
=
309
=
 40
0.5353330671296296
 41
2452052.431989363
 42
2453406.550756377
  1

 90
        0
  0
XRECORD
  5
1EBD
102
{ACAD_REACTORS
330
1EBC
102
}
330
1EBC
100
AcDbXrecord
340
2
  0
XRECORD
  5
1EBF
102
{ACAD_REACTORS
330
1EBE
102
}
330
1EBE
100
AcDbXrecord
340
1E95
  0
MLINESTYLE
  5
78
102
{ACAD_REACTORS
330
76
102
}
330
76
100
AcDbMlineStyle
  2
STANDARD
 70
     0
  3

 62
     0
 51
90.0
 52
90.0
 71
     2
 49
0.5
 62
   256
  6
BYLAYER
 49
-0.5
 62
   256
  6
BYLAYER
  0
ACDBPLACEHOLDER
  5
5
102
{ACAD_REACTORS
330
6
102
}
330
6
100
AcDbPlaceHolder
280
     0
  0
XRECORD
  5
1EA5
102
{ACAD_REACTORS
330
1E9B
102
}
330
1E9B
100
AcDbXrecord
 90
        0
  0
XRECORD
  5
1EA9
102
{ACAD_REACTORS
330
1E9B
102
}
330
1E9B
100
AcDbXrecord
1000
DSTYLE
1002
{
1070
   179
 70
     2
1070
   277
 70
     6
1002
}
  0
XRECORD
  5
1EA6
102
{ACAD_REACTORS
330
1E9B
102
}
330
1E9B
100
AcDbXrecord
  1
{6385560B-F4B1-4644-A7C2-A3E32AC3D232}
  0
XRECORD
  5
1E9E
102
{ACAD_REACTORS
330
1E9B
102
}
330
1E9B
100
AcDbXrecord
  1

  0
XRECORD
  5
1EA4
102
{ACAD_REACTORS
330
1E9B
102
}
330
1E9B
100
AcDbXrecord
 90
        0
  0
XRECORD
  5
1EA0
102
{ACAD_REACTORS
330
1E9B
102
}
330
1E9B
100
AcDbXrecord
340
61
  0
XRECORD
  5
1EA3
102
{ACAD_REACTORS
330
1E9B
102
}
330
1E9B
100
AcDbXrecord
 90
    10781
  0
XRECORD
  5
1EA1
102
{ACAD_REACTORS
330
1E9B
102
}
330
1E9B
100
AcDbXrecord
340
77
  0
XRECORD
  5
1EA2
102
{ACAD_REACTORS
330
1E9B
102
}
330
1E9B
100
AcDbXrecord
340
6
  0
XRECORD
  5
1EA8
102
{ACAD_REACTORS
330
1E9B
102
}
330
1E9B
100
AcDbXrecord
 40
0.0
  0
XRECORD
  5
1EAC
102
{ACAD_REACTORS
330
1E9B
102
}
330
1E9B
100
AcDbXrecord
340
0
  0
XRECORD
  5
1EB2
102
{ACAD_REACTORS
330
1E9B
102
}
330
1E9B
100
AcDbXrecord
 10
0.0
 20
0.0
 30
0.0
  0
XRECORD
  5
1EAE
102
{ACAD_REACTORS
330
1E9B
102
}
330
1E9B
100
AcDbXrecord
 10
0.0
 20
0.0
 30
0.0
  0
XRECORD
  5
1EB1
102
{ACAD_REACTORS
330
1E9B
102
}
330
1E9B
100
AcDbXrecord
 10
0.0
 20
0.0
 30
0.0
  0
XRECORD
  5
1EAF
102
{ACAD_REACTORS
330
1E9B
102
}
330
1E9B
100
AcDbXrecord
 10
0.0
 20
0.0
 30
0.0
  0
XRECORD
  5
1EB0
102
{ACAD_REACTORS
330
1E9B
102
}
330
1E9B
100
AcDbXrecord
 10
0.0
 20
0.0
 30
0.0
  0
XRECORD
  5
1EAD
102
{ACAD_REACTORS
330
1E9B
102
}
330
1E9B
100
AcDbXrecord
 10
0.0
 20
0.0
 30
0.0
  0
XRECORD
  5
1EAA
102
{ACAD_REACTORS
330
1E9B
102
}
330
1E9B
100
AcDbXrecord
340
0
  0
XRECORD
  5
1EAB
102
{ACAD_REACTORS
330
1E9B
102
}
330
1E9B
100
AcDbXrecord
 70
     0
  0
XRECORD
  5
1E9F
102
{ACAD_REACTORS
330
1E9B
102
}
330
1E9B
100
AcDbXrecord
  1
Sekkei.ctb
  0
XRECORD
  5
1E9C
102
{ACAD_REACTORS
330
1E9B
102
}
330
1E9B
100
AcDbXrecord
 90
        1
  0
XRECORD
  5
1E9D
102
{ACAD_REACTORS
330
1E9B
102
}
330
1E9B
100
AcDbXrecord
 90
       70
  0
XRECORD
  5
1EB5
102
{ACAD_REACTORS
330
1E9B
102
}
330
1E9B
100
AcDbXrecord
340
0
  0
XRECORD
  5
1EBB
102
{ACAD_REACTORS
330
1E9B
102
}
330
1E9B
100
AcDbXrecord
 10
0.0
 20
0.0
 30
0.0
  0
XRECORD
  5
1EB7
102
{ACAD_REACTORS
330
1E9B
102
}
330
1E9B
100
AcDbXrecord
 10
0.0
 20
0.0
 30
0.0
  0
XRECORD
  5
1EBA
102
{ACAD_REACTORS
330
1E9B
102
}
330
1E9B
100
AcDbXrecord
 10
0.0
 20
0.0
 30
0.0
  0
XRECORD
  5
1EB8
102
{ACAD_REACTORS
330
1E9B
102
}
330
1E9B
100
AcDbXrecord
 10
0.0
 20
0.0
 30
0.0
  0
XRECORD
  5
1EB9
102
{ACAD_REACTORS
330
1E9B
102
}
330
1E9B
100
AcDbXrecord
 10
0.0
 20
0.0
 30
0.0
  0
XRECORD
  5
1EB6
102
{ACAD_REACTORS
330
1E9B
102
}
330
1E9B
100
AcDbXrecord
 10
0.0
 20
0.0
 30
0.0
  0
XRECORD
  5
1EB3
102
{ACAD_REACTORS
330
1E9B
102
}
330
1E9B
100
AcDbXrecord
340
0
  0
XRECORD
  5
1EB4
102
{ACAD_REACTORS
330
1E9B
102
}
330
1E9B
100
AcDbXrecord
 70
     0
  0
XRECORD
  5
1EA7
102
{ACAD_REACTORS
330
1E9B
102
}
330
1E9B
100
AcDbXrecord
  1
{197E86A1-F683-4110-B824-C165F4209360}
  0
DICTIONARYVAR
  5
103
102
{ACAD_REACTORS
330
102
102
}
330
102
100
DictionaryVariables
280
     0
  1
1
  0
ENDSEC
  0
EOF
