  0
SECTION
  2
HEADER
  9
$CLAYER
  8
1
  9
$LTSCALE
 40
3.0
  0
ENDSEC
  0
SECTION
  2
TABLES
  0
TABLE
  2
LTYPE
 70
     4
  0
LTYPE
  2
CONTINUOUS
  3
solid line
 70
    64
 72
    65
 73
     0
 40
0.0
  0
LTYPE
  2
DASHED
  3
__ __ __ __ __ __ __ __ __ __ __ __ __ __ __
 70
    64
 72
    65
 73
     2
 40
0.75
 49
0.5
 49
-0.25
  0
LTYPE
  2
CENTER
  3
____ _ ____ _ ____ _ ____ _ ____ _ ____ _ ____
 70
    64
 72
    65
 73
     4
 40
2.0
 49
1.25
 49
-0.25
 49
0.25
 49
-0.25
  0
LTYPE
  2
PHANTOM
  3
_____ _ _ _____ _ _ _____ _ _ _____ _ _ ____
 70
    64
 72
    65
 73
     6
 40
2.5
 49
1.25
 49
-0.25
 49
0.25
 49
-0.25
 49
0.25
 49
-0.25
  0
ENDTAB
  0
TABLE
  2
LAYER
 70
     1
  0
LAYER
  2
0
 70
    64
 62
     7
  6
CONTINUOUS
  0
ENDTAB
  0
TABLE
  2
STYLE
 70
     1
  0
STYLE
  2
STANDARD
 70
     0
 40
0.000000
 41
1.000000
 50
0.000000
 71
     0
 42
3.000000
  3
txt
  4
BIGFONT
  0
ENDTAB
  0
ENDSEC
  0
SECTION
  2
BLOCKS
  0
ENDSEC
  0
SECTION
  2
ENTITIES
  0
LINE
  8
0
  6
CENTER
 10
314.603638
 20
507.977509
 11
314.603638
 21
281.642487
  0
LINE
  8
0
  6
CONTINUOUS
 10
390.603821
 20
413.429169
 11
389.818359
 21
458.429169
  0
LINE
  8
0
  6
CONTINUOUS
 10
256.153564
 20
488.429169
 11
314.603638
 21
488.429169
  0
LINE
  8
0
  6
CONTINUOUS
 10
380.547211
 20
483.230408
 11
389.818359
 21
458.429169
  0
ARC
  8
0
  6
CONTINUOUS
 10
373.053680
 20
480.429169
 40
8.000000
 50
20.496618
 51
90.000000
  0
LINE
  8
0
  6
CONTINUOUS
 10
390.603821
 20
413.429169
 11
389.818359
 21
368.429169
  0
LINE
  8
0
  6
CONTINUOUS
 10
256.153564
 20
338.429169
 11
298.603638
 21
338.429169
  0
LINE
  8
0
  6
CONTINUOUS
 10
380.547211
 20
343.627960
 11
389.818359
 21
368.429169
  0
ARC
  8
0
  6
CONTINUOUS
 10
373.053680
 20
346.429169
 40
8.000000
 50
-90.000000
 51
-20.496618
  0
LINE
  8
0
  6
CONTINUOUS
 10
248.660034
 20
483.230408
 11
239.605240
 21
459.007904
  0
ARC
  8
0
  6
CONTINUOUS
 10
256.153564
 20
480.429169
 40
8.000000
 50
90.000000
 51
159.503387
  0
LINE
  8
0
  6
CONTINUOUS
 10
248.660034
 20
343.627960
 11
239.605240
 21
367.850464
  0
ARC
  8
0
  6
CONTINUOUS
 10
256.153564
 20
346.429169
 40
8.000000
 50
200.496613
 51
270.000000
  0
LINE
  8
0
  6
CONTINUOUS
 10
241.940262
 20
458.429169
 11
386.870270
 21
458.429169
  0
LINE
  8
0
  6
CONTINUOUS
 10
386.870270
 20
368.429169
 11
241.940262
 21
368.429169
  0
LINE
  8
0
  6
CONTINUOUS
 10
314.603638
 20
475.429169
 11
349.862427
 21
475.429169
  0
ARC
  8
0
  6
CONTINUOUS
 10
386.870270
 20
455.429169
 40
3.000000
 50
1.000000
 51
90.000000
  0
ARC
  8
0
  6
CONTINUOUS
 10
386.870270
 20
371.429169
 40
3.000000
 50
270.000000
 51
359.000000
  0
LINE
  8
0
  6
CONTINUOUS
 10
343.603638
 20
455.429169
 11
343.603638
 21
371.429169
  0
LINE
  8
0
  6
CONTINUOUS
 10
285.603638
 20
455.429169
 11
285.603638
 21
371.429169
  0
LINE
  8
0
  6
CONTINUOUS
 10
226.603638
 20
477.429169
 11
226.603638
 21
349.429169
  0
LINE
  8
0
  6
CONTINUOUS
 10
229.175964
 20
477.429169
 11
226.603638
 21
477.429169
  0
LINE
  8
0
  6
CONTINUOUS
 10
354.659271
 20
471.839996
 11
355.662445
 21
468.429169
  0
ARC
  8
0
  6
CONTINUOUS
 10
349.862427
 20
470.429169
 40
5.000000
 50
16.389540
 51
90.000000
  0
LINE
  8
0
  6
CONTINUOUS
 10
370.149780
 20
464.821808
 11
370.957489
 21
462.036560
  0
LINE
  8
0
  6
CONTINUOUS
 10
365.347626
 20
468.429169
 11
355.662445
 21
468.429169
  0
LINE
  8
0
  6
CONTINUOUS
 10
314.603638
 20
475.429169
 11
279.344818
 21
475.429169
  0
LINE
  8
0
  6
CONTINUOUS
 10
314.603638
 20
351.429169
 11
349.862427
 21
351.429169
  0
LINE
  8
0
  6
CONTINUOUS
 10
314.603638
 20
351.429169
 11
279.344818
 21
351.429169
  0
LINE
  8
0
  6
CONTINUOUS
 10
314.603638
 20
488.429169
 11
373.053680
 21
488.429169
  0
LINE
  8
0
  6
CONTINUOUS
 10
333.603638
 20
293.429169
 11
298.603638
 21
293.429169
  0
LINE
  8
0
  6
CONTINUOUS
 10
298.603638
 20
348.429169
 11
298.603638
 21
293.429169
  0
LINE
  8
0
  6
CONTINUOUS
 10
330.603638
 20
348.429169
 11
330.603638
 21
343.429169
  0
LINE
  8
0
  6
CONTINUOUS
 10
297.103638
 20
348.429169
 11
332.103638
 21
348.429169
  0
LINE
  8
0
  6
CONTINUOUS
 10
297.103638
 20
351.429169
 11
297.103638
 21
348.429169
  0
LINE
  8
0
  6
CONTINUOUS
 10
332.103638
 20
351.429169
 11
332.103638
 21
348.429169
  0
LINE
  8
0
  6
CONTINUOUS
 10
333.603638
 20
293.429169
 11
333.603638
 21
343.429169
  0
LINE
  8
0
  6
CONTINUOUS
 10
329.802307
 20
343.429169
 11
333.603638
 21
343.429169
  0
LINE
  8
0
  6
CONTINUOUS
 10
329.802307
 20
343.429169
 11
329.802307
 21
293.429169
  0
LINE
  8
0
  6
CONTINUOUS
 10
333.603638
 20
338.429169
 11
373.053680
 21
338.429169
  0
LINE
  8
0
  6
CENTER
 10
352.227295
 20
473.429169
 11
371.164795
 21
473.429169
  0
LINE
  8
0
  6
CENTER
 10
362.103638
 20
464.276825
 11
362.103638
 21
483.776825
  0
ARC
  8
0
  6
CONTINUOUS
 10
362.103638
 20
473.429169
 40
6.500000
 50
-51.240688
 51
230.284866
  0
ARC
  8
0
  6
CONTINUOUS
 10
267.103638
 20
473.429169
 40
6.500000
 50
-50.284863
 51
231.240692
  0
LINE
  8
0
  6
CENTER
 10
267.103638
 20
464.276825
 11
267.103638
 21
483.776825
  0
LINE
  8
0
  6
CENTER
 10
276.979950
 20
473.429169
 11
258.042450
 21
473.429169
  0
LINE
  8
0
  6
CENTER
 10
-21.359375
 20
413.429169
 11
402.024658
 21
413.429169
  0
LINE
  8
0
  6
CONTINUOUS
 10
234.005585
 20
473.723267
 11
237.110641
 21
462.135071
  0
ARC
  8
0
  6
CONTINUOUS
 10
241.940262
 20
463.429169
 40
5.000000
 50
195.000000
 51
270.000000
  0
ARC
  8
0
  6
CONTINUOUS
 10
229.175964
 20
472.429169
 40
5.000000
 50
15.000000
 51
90.000000
  0
LINE
  8
0
  6
CONTINUOUS
 10
229.175964
 20
349.429169
 11
226.603638
 21
349.429169
  0
LINE
  8
0
  6
CONTINUOUS
 10
234.005585
 20
353.135071
 11
237.110641
 21
364.723267
  0
ARC
  8
0
  6
CONTINUOUS
 10
229.175964
 20
354.429169
 40
5.000000
 50
-90.000000
 51
-15.000000
  0
ARC
  8
0
  6
CONTINUOUS
 10
241.940262
 20
363.429169
 40
5.000000
 50
-270.000000
 51
-195.000000
  0
LINE
  8
0
  6
CONTINUOUS
 10
238.603439
 20
413.429169
 11
239.337463
 21
455.481537
  0
LINE
  8
0
  6
CONTINUOUS
 10
238.603439
 20
413.429169
 11
239.337463
 21
371.376831
  0
ARC
  8
0
  6
CONTINUOUS
 10
242.337006
 20
455.429169
 40
3.000000
 50
90.000000
 51
179.000000
  0
ARC
  8
0
  6
CONTINUOUS
 10
242.337006
 20
371.429169
 40
3.000000
 50
-179.000000
 51
-90.000000
  0
ARC
  8
0
  6
CONTINUOUS
 10
365.347626
 20
463.429169
 40
5.000000
 50
16.172159
 51
90.000000
  0
ARC
  8
0
  6
CONTINUOUS
 10
375.759644
 20
463.429169
 40
5.000000
 50
196.172165
 51
270.000000
  0
LINE
  8
0
  6
CONTINUOUS
 10
372.003632
 20
458.429169
 11
372.006836
 21
458.418091
  0
ARC
  8
0
  6
CONTINUOUS
 10
279.344818
 20
470.429169
 40
5.000000
 50
90.000000
 51
163.610458
  0
LINE
  8
0
  6
CONTINUOUS
 10
274.548004
 20
471.839996
 11
273.544800
 21
468.429169
  0
LINE
  8
0
  6
CONTINUOUS
 10
259.057495
 20
464.821808
 11
258.249786
 21
462.036560
  0
LINE
  8
0
  6
CONTINUOUS
 10
263.859650
 20
468.429169
 11
273.544800
 21
468.429169
  0
ARC
  8
0
  6
CONTINUOUS
 10
263.859650
 20
463.429169
 40
5.000000
 50
90.000000
 51
163.827835
  0
ARC
  8
0
  6
CONTINUOUS
 10
253.447632
 20
463.429169
 40
5.000000
 50
-90.000000
 51
-16.172159
  0
LINE
  8
0
  6
CONTINUOUS
 10
257.203644
 20
458.429169
 11
257.200409
 21
458.418091
  0
ARC
  8
0
  6
CONTINUOUS
 10
267.103638
 20
353.429169
 40
6.500000
 50
-231.240692
 51
50.284863
  0
LINE
  8
0
  6
CENTER
 10
276.979950
 20
353.429169
 11
258.042450
 21
353.429169
  0
ARC
  8
0
  6
CONTINUOUS
 10
279.344818
 20
356.429169
 40
5.000000
 50
196.389542
 51
270.000000
  0
LINE
  8
0
  6
CONTINUOUS
 10
274.548004
 20
355.018341
 11
273.544800
 21
358.429169
  0
LINE
  8
0
  6
CONTINUOUS
 10
259.057495
 20
362.036560
 11
258.249786
 21
364.821808
  0
LINE
  8
0
  6
CONTINUOUS
 10
263.859650
 20
358.429169
 11
273.544800
 21
358.429169
  0
ARC
  8
0
  6
CONTINUOUS
 10
263.859650
 20
363.429169
 40
5.000000
 50
-163.827835
 51
-90.000000
  0
ARC
  8
0
  6
CONTINUOUS
 10
253.447632
 20
363.429169
 40
5.000000
 50
16.172159
 51
90.000000
  0
LINE
  8
0
  6
CONTINUOUS
 10
257.203644
 20
368.429169
 11
257.200409
 21
368.440277
  0
LINE
  8
0
  6
CENTER
 10
267.103638
 20
362.581512
 11
267.103638
 21
343.081512
  0
LINE
  8
0
  6
CONTINUOUS
 10
354.659271
 20
355.018341
 11
355.662445
 21
358.429169
  0
ARC
  8
0
  6
CONTINUOUS
 10
349.862427
 20
356.429169
 40
5.000000
 50
-90.000000
 51
-16.389540
  0
LINE
  8
0
  6
CONTINUOUS
 10
370.149780
 20
362.036560
 11
370.957489
 21
364.821808
  0
LINE
  8
0
  6
CONTINUOUS
 10
365.347626
 20
358.429169
 11
355.662445
 21
358.429169
  0
LINE
  8
0
  6
CENTER
 10
352.227295
 20
353.429169
 11
371.164795
 21
353.429169
  0
LINE
  8
0
  6
CENTER
 10
362.103638
 20
362.581512
 11
362.103638
 21
343.081512
  0
ARC
  8
0
  6
CONTINUOUS
 10
362.103638
 20
353.429169
 40
6.500000
 50
-230.284866
 51
51.240688
  0
ARC
  8
0
  6
CONTINUOUS
 10
365.347626
 20
363.429169
 40
5.000000
 50
-90.000000
 51
-16.172159
  0
ARC
  8
0
  6
CONTINUOUS
 10
375.759644
 20
363.429169
 40
5.000000
 50
-270.000000
 51
-196.172165
  0
LINE
  8
0
  6
CONTINUOUS
 10
372.003632
 20
368.429169
 11
372.006836
 21
368.440277
  0
LINE
  8
0
  6
CENTER
 10
314.603638
 20
234.242493
 11
314.603638
 21
4.738370
  0
LINE
  8
0
  6
CENTER
 10
250.719025
 20
155.371246
 11
367.288635
 21
155.371246
  0
LINE
  8
0
  6
CENTER
 10
362.103638
 20
40.646690
 11
362.103638
 21
6.781950
  0
LINE
  8
0
  6
CENTER
 10
267.103638
 20
40.646690
 11
267.103638
 21
6.490010
  0
LINE
  8
0
  6
CONTINUOUS
 10
238.603638
 20
15.371250
 11
390.603638
 21
15.371250
  0
LINE
  8
0
  6
CONTINUOUS
 10
238.603638
 20
33.371250
 11
390.603638
 21
33.371250
  0
LINE
  8
0
  6
CONTINUOUS
 10
390.603638
 20
183.676804
 11
390.603638
 21
15.371250
  0
LINE
  8
0
  6
CONTINUOUS
 10
238.603638
 20
178.871246
 11
238.603638
 21
183.676804
  0
LINE
  8
0
  6
CONTINUOUS
 10
288.100220
 20
220.371246
 11
341.107025
 21
220.371246
  0
LINE
  8
0
  6
CONTINUOUS
 10
233.603638
 20
174.371246
 11
226.603638
 21
174.371246
  0
LINE
  8
0
  6
CONTINUOUS
 10
233.603638
 20
46.371250
 11
226.603638
 21
46.371250
  0
LINE
  8
0
  6
CONTINUOUS
 10
387.153625
 20
190.256866
 11
345.657043
 21
218.951309
  0
LINE
  8
0
  6
CONTINUOUS
 10
242.053589
 20
190.256866
 11
283.550232
 21
218.951309
  0
ARC
  8
0
  6
CONTINUOUS
 10
341.107025
 20
212.371246
 40
8.000000
 50
55.336689
 51
90.000000
  0
ARC
  8
0
  6
CONTINUOUS
 10
382.603638
 20
183.676773
 40
8.000000
 50
0.000000
 51
55.336739
  0
ARC
  8
0
  6
CONTINUOUS
 10
288.100220
 20
212.371246
 40
8.000000
 50
90.000000
 51
124.663696
  0
ARC
  8
0
  6
CONTINUOUS
 10
246.603638
 20
183.676849
 40
8.000000
 50
124.663803
 51
180.000000
  0
LINE
  8
0
  6
CONTINUOUS
 10
238.603638
 20
41.871250
 11
238.603638
 21
15.371250
  0
ARC
  8
0
  6
CONTINUOUS
 10
233.603607
 20
179.371246
 40
5.000000
 50
-90.000000
 51
0.000000
  0
LINE
  8
0
  6
CONTINUOUS
 10
238.603638
 20
41.871250
 11
238.603638
 21
178.871246
  0
ARC
  8
0
  6
CONTINUOUS
 10
233.603653
 20
41.371231
 40
5.000000
 50
0.000000
 51
90.000000
  0
LINE
  8
0
  6
DASHED
 10
260.603638
 20
33.371250
 11
260.603638
 21
15.371250
  0
LINE
  8
0
  6
DASHED
 10
273.603638
 20
33.371250
 11
273.603638
 21
15.371250
  0
LINE
  8
0
  6
DASHED
 10
355.603638
 20
33.371250
 11
355.603638
 21
15.371250
  0
LINE
  8
0
  6
DASHED
 10
368.603638
 20
33.371250
 11
368.603638
 21
15.371250
  0
CIRCLE
  8
0
  6
CONTINUOUS
 10
314.603638
 20
155.371246
 40
39.000000
  0
ARC
  8
0
  6
CONTINUOUS
 10
314.603638
 20
155.371246
 40
44.000000
 50
12.523240
 51
167.476898
  0
ARC
  8
0
  6
CONTINUOUS
 10
289.103638
 20
96.371246
 40
29.000000
 50
167.476898
 51
270.000000
  0
ARC
  8
0
  6
CONTINUOUS
 10
340.103638
 20
96.371246
 40
29.000000
 50
-90.000000
 51
12.523240
  0
ARC
  8
0
  6
CONTINUOUS
 10
289.103638
 20
96.371246
 40
31.900000
 50
167.476898
 51
270.000000
  0
ARC
  8
0
  6
CONTINUOUS
 10
340.103638
 20
96.371246
 40
31.900000
 50
-90.000000
 51
12.523240
  0
ARC
  8
0
  6
CONTINUOUS
 10
314.603638
 20
155.371246
 40
41.099998
 50
-192.523102
 51
12.523240
  0
LINE
  8
0
  6
CONTINUOUS
 10
257.962646
 20
103.288254
 11
271.650421
 21
164.911957
  0
LINE
  8
0
  6
CONTINUOUS
 10
260.793640
 20
102.659439
 11
274.481445
 21
164.283127
  0
LINE
  8
0
  6
CONTINUOUS
 10
289.103638
 20
64.471252
 11
340.103638
 21
64.471252
  0
LINE
  8
0
  6
CONTINUOUS
 10
340.103638
 20
67.371246
 11
289.103638
 21
67.371246
  0
LINE
  8
0
  6
CONTINUOUS
 10
357.556824
 20
164.912033
 11
371.244629
 21
103.288315
  0
LINE
  8
0
  6
CONTINUOUS
 10
354.725830
 20
164.283203
 11
368.413635
 21
102.659492
  0
LINE
  8
0
  6
CONTINUOUS
 10
302.376617
 20
79.371246
 11
297.436218
 21
79.371246
  0
LINE
  8
0
  6
CONTINUOUS
 10
305.103638
 20
87.646652
 11
305.103638
 21
79.371246
  0
LINE
  8
0
  6
CONTINUOUS
 10
309.853638
 20
90.652496
 11
309.853638
 21
93.621246
  0
LINE
  8
0
  6
CONTINUOUS
 10
319.353638
 20
90.652496
 11
319.353638
 21
93.621246
  0
LINE
  8
0
  6
CONTINUOUS
 10
313.675842
 20
91.877113
 11
313.675842
 21
80.929848
  0
LINE
  8
0
  6
CONTINUOUS
 10
315.457245
 20
91.877113
 11
315.457245
 21
80.929848
  0
LINE
  8
0
  6
CONTINUOUS
 10
324.808838
 20
91.877113
 11
324.808838
 21
80.855629
  0
LINE
  8
0
  6
CONTINUOUS
 10
326.441620
 20
86.032387
 11
326.441620
 21
80.855629
  0
LINE
  8
0
  6
CONTINUOUS
 10
302.849640
 20
91.728668
 11
298.272034
 21
91.728668
  0
LINE
  8
0
  6
CONTINUOUS
 10
298.272034
 20
91.728668
 11
297.199432
 21
90.398674
  0
LINE
  8
0
  6
CONTINUOUS
 10
297.328430
 20
93.621246
 11
295.603638
 21
91.412781
  0
LINE
  8
0
  6
CONTINUOUS
 10
297.199432
 20
82.189087
 11
298.289246
 21
81.041168
  0
LINE
  8
0
  6
CONTINUOUS
 10
295.603638
 20
81.220367
 11
297.436218
 21
79.371246
  0
LINE
  8
0
  6
CONTINUOUS
 10
295.603638
 20
91.412781
 11
295.603638
 21
81.220367
  0
LINE
  8
0
  6
CONTINUOUS
 10
297.199432
 20
90.398674
 11
297.199432
 21
82.189087
  0
LINE
  8
0
  6
CONTINUOUS
 10
303.730621
 20
90.877113
 11
302.831635
 21
91.728668
  0
LINE
  8
0
  6
CONTINUOUS
 10
303.716431
 20
93.621246
 11
305.103638
 21
92.081665
  0
LINE
  8
0
  6
CONTINUOUS
 10
303.730621
 20
90.652496
 11
305.103638
 21
90.652496
  0
LINE
  8
0
  6
CONTINUOUS
 10
297.328430
 20
93.621246
 11
303.716431
 21
93.621246
  0
LINE
  8
0
  6
CONTINUOUS
 10
301.244232
 20
87.646652
 11
305.103638
 21
87.646652
  0
LINE
  8
0
  6
CONTINUOUS
 10
303.730621
 20
86.088051
 11
301.244232
 21
86.088051
  0
LINE
  8
0
  6
CONTINUOUS
 10
300.761841
 20
81.041168
 11
298.289246
 21
81.041168
  0
LINE
  8
0
  6
CONTINUOUS
 10
303.730621
 20
84.603668
 11
303.730621
 21
85.791168
  0
ARC
  8
0
  6
CONTINUOUS
 10
300.761841
 20
84.009911
 40
2.968750
 50
-89.999786
 51
0.000109
  0
LINE
  8
0
  6
CONTINUOUS
 10
303.730621
 20
80.507172
 11
303.730621
 21
79.371246
  0
LINE
  8
0
  6
CONTINUOUS
 10
305.103638
 20
92.081665
 11
305.103638
 21
90.652496
  0
LINE
  8
0
  6
CONTINUOUS
 10
303.730621
 20
86.088051
 11
303.730621
 21
84.009911
  0
LINE
  8
0
  6
CONTINUOUS
 10
301.244232
 20
87.646652
 11
301.244232
 21
86.088051
  0
LINE
  8
0
  6
CONTINUOUS
 10
303.730621
 20
79.371246
 11
305.103638
 21
79.371246
  0
LINE
  8
0
  6
CONTINUOUS
 10
303.730621
 20
80.507172
 11
302.376617
 21
79.371246
  0
LINE
  8
0
  6
CONTINUOUS
 10
315.457245
 20
80.929848
 11
316.050842
 21
80.929848
  0
LINE
  8
0
  6
CONTINUOUS
 10
312.970825
 20
80.929848
 11
312.970825
 21
79.371246
  0
LINE
  8
0
  6
CONTINUOUS
 10
316.050842
 20
80.929848
 11
316.050842
 21
79.371246
  0
LINE
  8
0
  6
CONTINUOUS
 10
318.362640
 20
90.652496
 11
319.353638
 21
90.652496
  0
LINE
  8
0
  6
CONTINUOUS
 10
309.853638
 20
90.652496
 11
310.908234
 21
90.652496
  0
LINE
  8
0
  6
CONTINUOUS
 10
309.853638
 20
93.621246
 11
319.353638
 21
93.621246
  0
LINE
  8
0
  6
CONTINUOUS
 10
312.970825
 20
79.371246
 11
316.050842
 21
79.371246
  0
LINE
  8
0
  6
CONTINUOUS
 10
312.970825
 20
80.929848
 11
313.675842
 21
80.929848
  0
ARC
  8
0
  6
CONTINUOUS
 10
329.799835
 20
89.817528
 40
3.803712
 50
-73.981873
 51
90.003510
  0
ARC
  8
0
  6
CONTINUOUS
 10
329.799835
 20
89.817528
 40
2.320524
 50
-82.585274
 51
62.411850
  0
LINE
  8
0
  6
CONTINUOUS
 10
324.103638
 20
93.621246
 11
329.799835
 21
93.621246
  0
LINE
  8
0
  6
CONTINUOUS
 10
330.099426
 20
87.516411
 11
326.441620
 21
87.516411
  0
LINE
  8
0
  6
CONTINUOUS
 10
324.103638
 20
93.621246
 11
324.103638
 21
91.877113
  0
LINE
  8
0
  6
CONTINUOUS
 10
326.441620
 20
91.877113
 11
326.441620
 21
87.516411
  0
LINE
  8
0
  6
CONTINUOUS
 10
330.849426
 20
86.161507
 11
333.203827
 21
80.855629
  0
LINE
  8
0
  6
CONTINUOUS
 10
329.482239
 20
86.032387
 11
331.710236
 21
80.855629
  0
LINE
  8
0
  6
CONTINUOUS
 10
324.103638
 20
80.855629
 11
324.808838
 21
80.855629
  0
LINE
  8
0
  6
CONTINUOUS
 10
326.441620
 20
80.855629
 11
327.091034
 21
80.855629
  0
LINE
  8
0
  6
CONTINUOUS
 10
327.091034
 20
79.371246
 11
324.103638
 21
79.371246
  0
LINE
  8
0
  6
CONTINUOUS
 10
331.414246
 20
80.855629
 11
331.710236
 21
80.855629
  0
LINE
  8
0
  6
CONTINUOUS
 10
333.203827
 20
80.855629
 11
333.603638
 21
80.855629
  0
LINE
  8
0
  6
CONTINUOUS
 10
331.414246
 20
79.371246
 11
333.603638
 21
79.371246
  0
LINE
  8
0
  6
CONTINUOUS
 10
333.603638
 20
80.855629
 11
333.603638
 21
79.371246
  0
LINE
  8
0
  6
CONTINUOUS
 10
331.414246
 20
80.855629
 11
331.414246
 21
79.371246
  0
LINE
  8
0
  6
CONTINUOUS
 10
327.091034
 20
80.855629
 11
327.091034
 21
79.371246
  0
LINE
  8
0
  6
CONTINUOUS
 10
324.103638
 20
80.855629
 11
324.103638
 21
79.371246
  0
LINE
  8
0
  6
CONTINUOUS
 10
311.418427
 20
91.877113
 11
310.908234
 21
90.652496
  0
LINE
  8
0
  6
CONTINUOUS
 10
317.932434
 20
91.877113
 11
318.362640
 21
90.652496
  0
LINE
  8
0
  6
CONTINUOUS
 10
315.457245
 20
91.877113
 11
317.932434
 21
91.877113
  0
LINE
  8
0
  6
CONTINUOUS
 10
313.675842
 20
91.877113
 11
311.418427
 21
91.877113
  0
LINE
  8
0
  6
CONTINUOUS
 10
326.441620
 20
86.032387
 11
329.482239
 21
86.032387
  0
LINE
  8
0
  6
CONTINUOUS
 10
324.103638
 20
91.877113
 11
324.808838
 21
91.877113
  0
LINE
  8
0
  6
CONTINUOUS
 10
326.441620
 20
91.877113
 11
330.874634
 21
91.874222
  0
LINE
  8
0
  6
CONTINUOUS
 10
303.730621
 20
90.877113
 11
303.730621
 21
90.652496
  0
ARC
  8
0
  6
CONTINUOUS
 10
418.312439
 20
110.371246
 40
185.208893
 50
166.001907
 51
193.998093
  0
LINE
  8
0
  6
CONTINUOUS
 10
252.603638
 20
31.304689
 11
252.603638
 21
15.371250
  0
LINE
  8
0
  6
CONTINUOUS
 10
376.603638
 20
31.304689
 11
376.603638
 21
15.371250
  0
LINE
  8
0
  6
CONTINUOUS
 10
338.361023
 20
38.371250
 11
290.846222
 21
38.371250
  0
LINE
  8
0
  6
CONTINUOUS
 10
289.603638
 20
37.435371
 11
289.603638
 21
34.371250
  0
LINE
  8
0
  6
CONTINUOUS
 10
340.482239
 20
37.492569
 11
343.139221
 21
34.835709
  0
LINE
  8
0
  6
CONTINUOUS
 10
288.725037
 20
37.492569
 11
286.068237
 21
34.835751
  0
LINE
  8
0
  6
CONTINUOUS
 10
339.603638
 20
37.435371
 11
339.603638
 21
34.371250
  0
ARC
  8
0
  6
CONTINUOUS
 10
282.532623
 20
38.371250
 40
5.000000
 50
270.000000
 51
315.000092
  0
ARC
  8
0
  6
CONTINUOUS
 10
290.846222
 20
35.371250
 40
3.000000
 50
90.000000
 51
135.000305
  0
ARC
  8
0
  6
CONTINUOUS
 10
288.603638
 20
34.371250
 40
1.000000
 50
-90.000000
 51
0.000000
  0
ARC
  8
0
  6
CONTINUOUS
 10
346.674622
 20
38.371250
 40
5.000000
 50
225.000000
 51
270.000000
  0
ARC
  8
0
  6
CONTINUOUS
 10
338.361023
 20
35.371250
 40
3.000000
 50
45.000160
 51
90.000000
  0
ARC
  8
0
  6
CONTINUOUS
 10
340.603638
 20
34.371250
 40
1.000000
 50
180.000000
 51
270.000000
  0
LINE
  8
0
  6
CONTINUOUS
 10
325.603638
 20
150.371292
 11
325.603638
 21
160.371292
  0
LINE
  8
0
  6
CONTINUOUS
 10
333.603638
 20
150.371307
 11
333.603638
 21
160.371307
  0
LINE
  8
0
  6
CONTINUOUS
 10
333.603638
 20
150.371307
 11
325.603638
 21
150.371292
  0
LINE
  8
0
  6
CONTINUOUS
 10
333.603638
 20
160.371307
 11
325.603638
 21
160.371292
  0
ARC
  8
0
  6
CONTINUOUS
 10
314.603638
 20
155.371246
 40
16.000000
 50
18.209900
 51
341.790100
  0
LINE
  8
0
  6
CENTER
 10
587.468750
 20
0.251250
 11
587.468750
 21
238.982498
  0
LINE
  8
0
  6
CENTER
 10
506.881378
 20
110.371246
 11
663.696350
 21
110.371246
  0
LINE
  8
0
  6
CENTER
 10
452.818756
 20
155.371246
 11
658.166382
 21
155.371246
  0
LINE
  8
0
  6
CENTER
 10
647.468750
 20
41.969990
 11
647.468750
 21
4.070870
  0
LINE
  8
0
  6
CENTER
 10
527.468750
 20
41.969990
 11
527.468750
 21
4.070870
  0
LINE
  8
0
  6
CONTINUOUS
 10
512.468750
 20
15.371250
 11
557.468750
 21
15.371250
  0
LINE
  8
0
  6
CONTINUOUS
 10
617.468750
 20
15.371250
 11
662.468750
 21
15.371250
  0
LINE
  8
0
  6
CONTINUOUS
 10
659.968750
 20
33.371250
 11
636.468750
 21
33.371250
  0
LINE
  8
0
  6
CONTINUOUS
 10
514.968750
 20
33.371250
 11
538.468750
 21
33.371250
  0
LINE
  8
0
  6
CONTINUOUS
 10
632.468750
 20
216.638016
 11
632.468750
 21
15.371250
  0
LINE
  8
0
  6
CONTINUOUS
 10
542.468750
 20
203.112457
 11
542.468750
 21
216.637527
  0
LINE
  8
0
  6
CONTINUOUS
 10
662.468750
 20
31.253429
 11
662.468750
 21
15.371250
  0
LINE
  8
0
  6
CONTINUOUS
 10
512.468750
 20
31.253429
 11
512.468750
 21
15.371250
  0
LINE
  8
0
  6
CONTINUOUS
 10
558.968750
 20
16.871250
 11
615.968750
 21
16.871250
  0
LINE
  8
0
  6
CONTINUOUS
 10
629.521179
 20
219.637543
 11
587.468750
 21
220.371246
  0
LINE
  8
0
  6
CONTINUOUS
 10
545.416321
 20
219.637070
 11
587.468750
 21
220.371246
  0
LINE
  8
0
  6
CONTINUOUS
 10
525.468750
 20
120.112442
 11
525.468750
 21
190.630066
  0
LINE
  8
0
  6
CONTINUOUS
 10
649.468750
 20
120.112442
 11
649.468750
 21
190.630066
  0
LINE
  8
0
  6
CONTINUOUS
 10
532.468750
 20
71.127251
 11
532.468750
 21
159.281647
  0
LINE
  8
0
  6
CONTINUOUS
 10
642.468750
 20
71.127274
 11
642.468750
 21
159.281647
  0
LINE
  8
0
  6
DASHED
 10
653.968750
 20
33.371250
 11
653.968750
 21
15.371250
  0
LINE
  8
0
  6
DASHED
 10
640.968750
 20
33.371250
 11
640.968750
 21
15.371250
  0
LINE
  8
0
  6
DASHED
 10
533.968750
 20
33.371250
 11
533.968750
 21
15.371250
  0
LINE
  8
0
  6
DASHED
 10
520.968750
 20
33.371250
 11
520.968750
 21
15.371250
  0
ARC
  8
0
  6
CONTINUOUS
 10
545.468750
 20
216.637527
 40
3.000000
 50
91.000603
 51
180.000000
  0
ARC
  8
0
  6
CONTINUOUS
 10
629.468750
 20
216.637985
 40
3.000000
 50
0.000000
 51
89.000580
  0
LINE
  8
0
  6
CONTINUOUS
 10
538.879578
 20
198.315613
 11
529.057922
 21
195.426865
  0
LINE
  8
0
  6
CONTINUOUS
 10
529.057922
 20
115.315613
 11
529.597351
 21
115.156944
  0
LINE
  8
0
  6
CONTINUOUS
 10
536.076172
 20
66.325111
 11
538.861328
 21
65.517387
  0
LINE
  8
0
  6
CONTINUOUS
 10
514.557739
 20
33.719410
 11
539.961975
 21
37.953449
  0
LINE
  8
0
  6
CONTINUOUS
 10
660.379761
 20
33.719429
 11
634.975525
 21
37.953468
  0
LINE
  8
0
  6
CONTINUOUS
 10
638.861328
 20
66.325111
 11
636.076172
 21
65.517387
  0
LINE
  8
0
  6
CONTINUOUS
 10
645.879578
 20
115.315613
 11
645.340149
 21
115.156937
  0
LINE
  8
0
  6
CONTINUOUS
 10
645.879578
 20
195.426895
 11
636.057922
 21
198.315613
  0
LINE
  8
0
  6
CONTINUOUS
 10
545.043152
 20
187.871246
 11
629.721375
 21
187.871246
  0
ARC
  8
0
  6
CONTINUOUS
 10
530.468750
 20
190.630096
 40
5.000000
 50
106.389900
 51
180.000000
  0
ARC
  8
0
  6
CONTINUOUS
 10
644.468750
 20
190.630051
 40
5.000000
 50
0.000000
 51
73.610527
  0
ARC
  8
0
  6
CONTINUOUS
 10
530.468750
 20
120.112480
 40
5.000000
 50
180.000000
 51
253.610794
  0
ARC
  8
0
  6
CONTINUOUS
 10
644.468750
 20
120.112434
 40
5.000000
 50
-73.610321
 51
0.000000
  0
ARC
  8
0
  6
CONTINUOUS
 10
637.468750
 20
71.127251
 40
5.000000
 50
-73.827698
 51
0.000000
  0
ARC
  8
0
  6
CONTINUOUS
 10
537.468750
 20
71.127289
 40
5.000000
 50
180.000000
 51
253.828201
  0
LINE
  8
0
  6
CONTINUOUS
 10
542.468750
 20
203.112457
 11
542.468750
 21
15.371250
  0
ARC
  8
0
  6
CONTINUOUS
 10
537.468750
 20
203.112427
 40
5.000000
 50
-73.610229
 51
0.000000
  0
ARC
  8
0
  6
CONTINUOUS
 10
528.468750
 20
111.319466
 40
4.000000
 50
0.000000
 51
73.610649
  0
ARC
  8
0
  6
CONTINUOUS
 10
537.468750
 20
60.715229
 40
5.000000
 50
0.000000
 51
73.827919
  0
ARC
  8
0
  6
CONTINUOUS
 10
637.468750
 20
60.715271
 40
5.000000
 50
106.172501
 51
180.000000
  0
ARC
  8
0
  6
CONTINUOUS
 10
646.468750
 20
111.319496
 40
4.000000
 50
106.389999
 51
180.000000
  0
ARC
  8
0
  6
CONTINUOUS
 10
637.468750
 20
203.112473
 40
5.000000
 50
180.000000
 51
253.610794
  0
ARC
  8
0
  6
CONTINUOUS
 10
539.468750
 20
40.912628
 40
3.000000
 50
-80.537483
 51
0.000000
  0
ARC
  8
0
  6
CONTINUOUS
 10
538.468750
 20
37.371208
 40
4.000000
 50
-90.000000
 51
0.000000
  0
ARC
  8
0
  6
CONTINUOUS
 10
514.968750
 20
30.871269
 40
2.500000
 50
90.000000
 51
180.000000
  0
LINE
  8
0
  6
CONTINUOUS
 10
557.468750
 20
15.371250
 11
558.968750
 21
16.871250
  0
LINE
  8
0
  6
CONTINUOUS
 10
617.468750
 20
15.371250
 11
615.968750
 21
16.871250
  0
ARC
  8
0
  6
CONTINUOUS
 10
635.468750
 20
40.912670
 40
3.000000
 50
180.000000
 51
260.537903
  0
ARC
  8
0
  6
CONTINUOUS
 10
636.468750
 20
37.371250
 40
4.000000
 50
180.000000
 51
270.000000
  0
ARC
  8
0
  6
CONTINUOUS
 10
659.968750
 20
30.871250
 40
2.500000
 50
0.000000
 51
90.000000
  0
LINE
  8
0
  6
CONTINUOUS
 10
467.468750
 20
139.371246
 11
467.468750
 21
171.371246
  0
LINE
  8
0
  6
CONTINUOUS
 10
522.468750
 20
171.371246
 11
467.468750
 21
171.371246
  0
LINE
  8
0
  6
CONTINUOUS
 10
522.468750
 20
139.371246
 11
467.468750
 21
139.371246
  0
LINE
  8
0
  6
CONTINUOUS
 10
522.468750
 20
172.871246
 11
522.468750
 21
137.871246
  0
LINE
  8
0
  6
CONTINUOUS
 10
525.468750
 20
172.871246
 11
522.468750
 21
172.871246
  0
LINE
  8
0
  6
CONTINUOUS
 10
525.468750
 20
137.871246
 11
522.468750
 21
137.871246
  0
ARC
  8
0
  6
CONTINUOUS
 10
512.468750
 20
155.371246
 40
5.000000
 50
-90.000000
 51
90.000000
  0
LINE
  8
0
  6
CONTINUOUS
 10
512.468750
 20
160.371246
 11
467.468750
 21
160.371246
  0
LINE
  8
0
  6
CONTINUOUS
 10
512.468750
 20
150.371246
 11
467.468750
 21
150.371246
  0
ARC
  8
0
  6
CONTINUOUS
 10
514.968750
 20
31.253450
 40
2.500000
 50
99.462753
 51
180.000000
  0
ARC
  8
0
  6
CONTINUOUS
 10
659.968750
 20
31.253429
 40
2.500000
 50
0.000000
 51
80.537682
  0
LINE
  8
0
  6
CONTINUOUS
 10
226.603638
 20
174.371246
 11
226.603638
 21
46.371250
  0
ARC
  8
0
  6
CONTINUOUS
 10
587.468750
 20
110.371246
 40
64.000000
 50
165.638489
 51
210.753525
  0
ARC
  8
0
  6
CONTINUOUS
 10
587.468750
 20
110.371246
 40
64.000000
 50
-30.753519
 51
14.361512
  0
ARC
  8
0
  6
CONTINUOUS
 10
546.456543
 20
69.359032
 40
8.000000
 50
211.001404
 51
233.216995
  0
ARC
  8
0
  6
CONTINUOUS
 10
540.468750
 20
61.349911
 40
2.000000
 50
30.947910
 51
53.217121
  0
ARC
  8
0
  6
CONTINUOUS
 10
628.480957
 20
69.359032
 40
8.000000
 50
-53.216999
 51
-31.001400
  0
ARC
  8
0
  6
CONTINUOUS
 10
634.468750
 20
61.349911
 40
2.000000
 50
126.782883
 51
149.052094
  0
LINE
  8
0
  6
CENTER
 10
-21.238125
 20
97.371246
 11
271.489990
 21
97.371246
  0
LINE
  8
0
  6
CENTER
 10
140.544693
 20
110.371246
 11
271.489990
 21
110.371246
  0
LINE
  8
0
  6
CONTINUOUS
 10
218.103638
 20
351.429169
 11
218.103638
 21
475.429169
  0
LINE
  8
0
  6
CONTINUOUS
 10
172.103638
 20
458.429169
 11
215.667252
 21
459.950470
  0
LINE
  8
0
  6
CONTINUOUS
 10
172.103638
 20
368.429169
 11
215.667252
 21
366.907898
  0
LINE
  8
0
  6
CONTINUOUS
 10
172.103638
 20
462.441193
 11
172.103638
 21
364.417175
  0
LINE
  8
0
  6
CONTINUOUS
 10
220.103638
 20
477.429169
 11
226.603638
 21
477.429169
  0
LINE
  8
0
  6
CONTINUOUS
 10
220.103638
 20
349.429169
 11
226.603638
 21
349.429169
  0
LINE
  8
0
  6
CONTINUOUS
 10
210.960632
 20
437.429169
 11
218.075607
 21
437.429169
  0
LINE
  8
0
  6
CONTINUOUS
 10
211.565781
 20
389.429169
 11
218.075607
 21
389.429169
  0
LINE
  8
0
  6
CONTINUOUS
 10
210.960632
 20
435.224670
 11
210.960632
 21
391.512085
  0
LINE
  8
0
  6
CONTINUOUS
 10
163.103638
 20
456.429169
 11
163.103638
 21
442.429169
  0
LINE
  8
0
  6
CONTINUOUS
 10
53.103634
 20
458.429169
 11
172.103638
 21
458.429169
  0
LINE
  8
0
  6
CONTINUOUS
 10
53.103634
 20
368.429169
 11
172.103638
 21
368.429169
  0
LINE
  8
0
  6
CONTINUOUS
 10
53.103634
 20
442.429169
 11
163.103638
 21
442.429169
  0
LINE
  8
0
  6
CONTINUOUS
 10
53.103634
 20
384.429169
 11
163.103638
 21
384.429169
  0
ARC
  8
0
  6
CONTINUOUS
 10
165.103638
 20
456.429199
 40
2.000000
 50
90.000000
 51
180.000000
  0
ARC
  8
0
  6
CONTINUOUS
 10
165.103638
 20
370.429169
 40
2.000000
 50
180.000000
 51
270.000000
  0
LINE
  8
0
  6
CONTINUOUS
 10
172.103638
 20
458.429169
 11
172.103638
 21
368.429169
  0
ARC
  8
0
  6
CONTINUOUS
 10
220.103638
 20
475.429169
 40
2.000000
 50
90.000000
 51
180.000000
  0
ARC
  8
0
  6
CONTINUOUS
 10
220.103638
 20
351.429169
 40
2.000000
 50
180.000000
 51
270.000000
  0
ARC
  8
0
  6
CONTINUOUS
 10
215.580002
 20
462.448944
 40
2.500000
 50
272.000000
 51
359.895721
  0
ARC
  8
0
  6
CONTINUOUS
 10
215.580002
 20
364.409424
 40
2.500000
 50
0.104292
 51
88.000000
  0
LINE
  8
0
  6
CONTINUOUS
 10
218.103638
 20
460.035522
 11
218.075607
 21
460.034546
  0
LINE
  8
0
  6
CONTINUOUS
 10
172.603333
 20
462.958618
 11
218.103638
 21
464.547546
  0
LINE
  8
0
  6
CONTINUOUS
 10
172.103638
 20
462.441193
 11
172.603333
 21
462.958618
  0
LINE
  8
0
  6
CONTINUOUS
 10
172.603333
 20
363.899719
 11
218.103638
 21
362.310822
  0
LINE
  8
0
  6
CONTINUOUS
 10
172.103638
 20
364.417175
 11
172.603333
 21
363.899719
  0
LINE
  8
0
  6
CONTINUOUS
 10
163.103638
 20
140.371246
 11
163.103638
 21
54.371231
  0
LINE
  8
0
  6
CONTINUOUS
 10
53.103634
 20
142.371246
 11
172.103638
 21
142.371246
  0
LINE
  8
0
  6
CONTINUOUS
 10
53.103634
 20
52.371250
 11
172.103638
 21
52.371250
  0
LINE
  8
0
  6
CONTINUOUS
 10
53.103634
 20
131.780548
 11
162.065948
 21
131.780548
  0
LINE
  8
0
  6
CONTINUOUS
 10
53.103634
 20
62.961948
 11
162.065948
 21
62.961948
  0
ARC
  8
0
  6
CONTINUOUS
 10
165.103638
 20
140.371277
 40
2.000000
 50
90.000000
 51
180.000000
  0
ARC
  8
0
  6
CONTINUOUS
 10
165.103638
 20
54.371250
 40
2.000000
 50
180.000000
 51
270.000000
  0
LINE
  8
0
  6
CONTINUOUS
 10
220.103638
 20
174.371353
 11
226.603638
 21
174.371353
  0
LINE
  8
0
  6
CONTINUOUS
 10
220.103638
 20
46.371151
 11
226.603638
 21
46.371151
  0
LINE
  8
0
  6
CONTINUOUS
 10
172.103638
 20
142.371246
 11
218.103638
 21
143.977600
  0
LINE
  8
0
  6
CONTINUOUS
 10
226.603638
 20
50.468067
 11
172.103638
 21
52.371250
  0
ARC
  8
0
  6
CONTINUOUS
 10
220.103653
 20
172.371368
 40
2.000000
 50
90.000000
 51
180.000000
  0
ARC
  8
0
  6
CONTINUOUS
 10
220.103638
 20
48.371151
 40
2.000000
 50
180.260773
 51
270.000000
  0
LINE
  8
0
  6
CONTINUOUS
 10
172.103638
 20
142.371246
 11
172.103638
 21
52.371250
  0
LINE
  8
0
  6
CONTINUOUS
 10
217.371399
 20
150.139023
 11
211.656891
 21
144.424500
  0
LINE
  8
0
  6
CONTINUOUS
 10
172.103638
 20
76.865250
 11
216.103638
 21
76.865250
  0
LINE
  8
0
  6
CONTINUOUS
 10
172.103638
 20
61.852249
 11
226.603638
 21
61.852249
  0
LINE
  8
0
  6
CONTINUOUS
 10
218.671600
 20
69.804253
 11
226.603638
 21
69.804253
  0
LINE
  8
0
  6
CONTINUOUS
 10
218.103638
 20
71.018982
 11
218.103638
 21
172.371368
  0
ARC
  8
0
  6
CONTINUOUS
 10
215.603683
 20
48.350670
 40
2.500000
 50
0.260773
 51
88.000000
  0
ARC
  8
0
  6
CONTINUOUS
 10
215.603638
 20
151.906784
 40
2.500000
 50
-45.000000
 51
0.000000
  0
ARC
  8
0
  6
CONTINUOUS
 10
209.889114
 20
146.192276
 40
2.500000
 50
272.000000
 51
315.000000
  0
LINE
  8
0
  6
CONTINUOUS
 10
43.603634
 20
458.429169
 11
53.103634
 21
458.429169
  0
LINE
  8
0
  6
CONTINUOUS
 10
53.103634
 20
442.429169
 11
43.603634
 21
442.429169
  0
LINE
  8
0
  6
CONTINUOUS
 10
43.603634
 20
368.429169
 11
53.103634
 21
368.429169
  0
LINE
  8
0
  6
CONTINUOUS
 10
53.103634
 20
368.429169
 11
53.103634
 21
406.563141
  0
LINE
  8
0
  6
CONTINUOUS
 10
53.103634
 20
384.429169
 11
43.603634
 21
384.429169
  0
LINE
  8
0
  6
CONTINUOUS
 10
46.603634
 20
407.429169
 11
46.603634
 21
419.429169
  0
LINE
  8
0
  6
CONTINUOUS
 10
53.603634
 20
407.429169
 11
53.603634
 21
419.429169
  0
LINE
  8
0
  6
CONTINUOUS
 10
47.603634
 20
420.429169
 11
52.603634
 21
420.429169
  0
LINE
  8
0
  6
CONTINUOUS
 10
52.603634
 20
406.429169
 11
47.603634
 21
406.429169
  0
ARC
  8
0
  6
CONTINUOUS
 10
52.603634
 20
419.429169
 40
1.000000
 50
0.000000
 51
90.000000
  0
ARC
  8
0
  6
CONTINUOUS
 10
47.603634
 20
419.429169
 40
1.000000
 50
90.000000
 51
180.000000
  0
ARC
  8
0
  6
CONTINUOUS
 10
47.603634
 20
407.429169
 40
1.000000
 50
180.000000
 51
270.000000
  0
ARC
  8
0
  6
CONTINUOUS
 10
52.603634
 20
407.429169
 40
1.000000
 50
-90.000000
 51
0.000000
  0
LINE
  8
0
  6
CONTINUOUS
 10
51.103634
 20
409.929169
 11
51.103634
 21
416.929169
  0
LINE
  8
0
  6
CONTINUOUS
 10
49.103634
 20
409.929169
 11
49.103634
 21
416.929169
  0
ARC
  8
0
  6
CONTINUOUS
 10
50.103634
 20
416.929169
 40
1.000000
 50
90.000000
 51
180.000000
  0
ARC
  8
0
  6
CONTINUOUS
 10
50.103634
 20
416.929169
 40
1.000000
 50
0.000000
 51
90.000000
  0
ARC
  8
0
  6
CONTINUOUS
 10
50.103634
 20
409.929169
 40
1.000000
 50
180.000000
 51
270.000000
  0
ARC
  8
0
  6
CONTINUOUS
 10
50.103634
 20
409.929169
 40
1.000000
 50
-90.000000
 51
0.000000
  0
LINE
  8
0
  6
CONTINUOUS
 10
53.103634
 20
420.295197
 11
53.103634
 21
458.429169
  0
LINE
  8
0
  6
CONTINUOUS
 10
43.603634
 20
460.429169
 11
43.603634
 21
366.429169
  0
LINE
  8
0
  6
CONTINUOUS
 10
43.603634
 20
442.429169
 11
-0.371398
 21
442.429169
  0
LINE
  8
0
  6
CONTINUOUS
 10
43.603634
 20
384.429169
 11
-0.371398
 21
384.429169
  0
LINE
  8
0
  6
CONTINUOUS
 10
1.103612
 20
460.429169
 11
43.603634
 21
460.429169
  0
LINE
  8
0
  6
CONTINUOUS
 10
1.103612
 20
366.429169
 11
43.603634
 21
366.429169
  0
ARC
  8
0
  6
CONTINUOUS
 10
1.103642
 20
455.429169
 40
5.000000
 50
90.000000
 51
180.000000
  0
ARC
  8
0
  6
CONTINUOUS
 10
1.103612
 20
371.429169
 40
5.000000
 50
180.000000
 51
270.000000
  0
LINE
  8
0
  6
CONTINUOUS
 10
-3.896358
 20
455.429169
 11
-3.896388
 21
371.429169
  0
LINE
  8
0
  6
CONTINUOUS
 10
43.603634
 20
142.371246
 11
53.103634
 21
142.371246
  0
LINE
  8
0
  6
CONTINUOUS
 10
53.103634
 20
131.780548
 11
43.603634
 21
131.780548
  0
LINE
  8
0
  6
CONTINUOUS
 10
43.603634
 20
52.371250
 11
53.103634
 21
52.371250
  0
LINE
  8
0
  6
CONTINUOUS
 10
53.103634
 20
62.961960
 11
43.603634
 21
62.961960
  0
LINE
  8
0
  6
CONTINUOUS
 10
43.603634
 20
144.371246
 11
43.603634
 21
50.371250
  0
LINE
  8
0
  6
CONTINUOUS
 10
43.603634
 20
126.371246
 11
-0.371398
 21
126.371246
  0
LINE
  8
0
  6
CONTINUOUS
 10
43.603634
 20
68.371246
 11
-0.371398
 21
68.371246
  0
LINE
  8
0
  6
CONTINUOUS
 10
53.603634
 20
143.871246
 11
53.603634
 21
142.371246
  0
LINE
  8
0
  6
CONTINUOUS
 10
46.603634
 20
143.871246
 11
46.603634
 21
142.371246
  0
LINE
  8
0
  6
CONTINUOUS
 10
46.603634
 20
143.871246
 11
53.603634
 21
143.871246
  0
LINE
  8
0
  6
CONTINUOUS
 10
51.003620
 20
156.871246
 11
51.003620
 21
143.871246
  0
LINE
  8
0
  6
CONTINUOUS
 10
49.203621
 20
157.496246
 11
49.203621
 21
143.871246
  0
LINE
  8
0
  6
CONTINUOUS
 10
47.403622
 20
155.433746
 11
47.403622
 21
143.871246
  0
LINE
  8
0
  6
CONTINUOUS
 10
52.803631
 20
156.246246
 11
52.803631
 21
143.871246
  0
LINE
  8
0
  6
CONTINUOUS
 10
49.203621
 20
157.496246
 11
51.003620
 21
156.871246
  0
LINE
  8
0
  6
CONTINUOUS
 10
47.403622
 20
155.433746
 11
49.203621
 21
156.058746
  0
LINE
  8
0
  6
CONTINUOUS
 10
52.803631
 20
156.246246
 11
51.004631
 21
155.798553
  0
LINE
  8
0
  6
CONTINUOUS
 10
1.103612
 20
144.371246
 11
43.603634
 21
144.371246
  0
LINE
  8
0
  6
CONTINUOUS
 10
1.103612
 20
50.371250
 11
43.603634
 21
50.371250
  0
ARC
  8
0
  6
CONTINUOUS
 10
1.103642
 20
139.371246
 40
5.000000
 50
90.000000
 51
180.000000
  0
ARC
  8
0
  6
CONTINUOUS
 10
1.103612
 20
55.371250
 40
5.000000
 50
180.000000
 51
270.000000
  0
LINE
  8
0
  6
CONTINUOUS
 10
-3.896358
 20
139.371246
 11
-3.896388
 21
55.371239
  0
LINE
  8
0
  6
CONTINUOUS
 10
53.103634
 20
52.371250
 11
53.103634
 21
142.371246
  0
ARC
  8
0
  6
CONTINUOUS
 10
43.603634
 20
374.159332
 40
4.500000
 50
0.000000
 51
90.000000
  0
ARC
  8
0
  6
CONTINUOUS
 10
43.603634
 20
374.159332
 40
3.000000
 50
0.000000
 51
90.000000
  0
ARC
  8
0
  6
CONTINUOUS
 10
43.603634
 20
374.159332
 40
1.500000
 50
0.000000
 51
90.000000
  0
LINE
  8
0
  6
CONTINUOUS
 10
45.103634
 20
374.159332
 11
45.103634
 21
369.143738
  0
LINE
  8
0
  6
CONTINUOUS
 10
46.603634
 20
374.159332
 11
46.603634
 21
369.659332
  0
LINE
  8
0
  6
CONTINUOUS
 10
48.103634
 20
374.159332
 11
48.103634
 21
369.659332
  0
LINE
  8
0
  6
CONTINUOUS
 10
45.103634
 20
369.159332
 11
46.603634
 21
369.659332
  0
LINE
  8
0
  6
CONTINUOUS
 10
46.603634
 20
370.159332
 11
48.103634
 21
369.659332
  0
ARC
  8
0
  6
CONTINUOUS
 10
43.603634
 20
125.900650
 40
4.500000
 50
0.000000
 51
90.000000
  0
ARC
  8
0
  6
CONTINUOUS
 10
43.603634
 20
125.900650
 40
3.000000
 50
0.000000
 51
90.000000
  0
ARC
  8
0
  6
CONTINUOUS
 10
43.603634
 20
125.900650
 40
1.500000
 50
0.000000
 51
90.000000
  0
LINE
  8
0
  6
CONTINUOUS
 10
45.103634
 20
125.900650
 11
45.103634
 21
120.885048
  0
LINE
  8
0
  6
CONTINUOUS
 10
46.603634
 20
125.900650
 11
46.603634
 21
121.400650
  0
LINE
  8
0
  6
CONTINUOUS
 10
48.103634
 20
125.900650
 11
48.103634
 21
121.400650
  0
LINE
  8
0
  6
CONTINUOUS
 10
45.103634
 20
120.900650
 11
46.603634
 21
121.400650
  0
LINE
  8
0
  6
CONTINUOUS
 10
46.603634
 20
121.900650
 11
48.103634
 21
121.400650
  0
LINE
  8
0
  6
CONTINUOUS
 10
163.103638
 20
384.429169
 11
163.103638
 21
370.429169
  0
TEXT
  8
0
 10
-21.000000
 20
0.000000
 40
4.000000
 41
1.000000
  1
HLMN-32R-1200~1800-T40W
 50
0.000000
  0
ENDSEC
  0
EOF
