  0
SECTION
  2
HEADER
  9
$CLAYER
  8
1
  9
$LTSCALE
 40
3.0
  0
ENDSEC
  0
SECTION
  2
TABLES
  0
TABLE
  2
LTYPE
 70
     4
  0
LTYPE
  2
CONTINUOUS
  3
solid line
 70
    64
 72
    65
 73
     0
 40
0.0
  0
LTYPE
  2
DASHED
  3
__ __ __ __ __ __ __ __ __ __ __ __ __ __ __
 70
    64
 72
    65
 73
     2
 40
0.75
 49
0.5
 49
-0.25
  0
LTYPE
  2
CENTER
  3
____ _ ____ _ ____ _ ____ _ ____ _ ____ _ ____
 70
    64
 72
    65
 73
     4
 40
2.0
 49
1.25
 49
-0.25
 49
0.25
 49
-0.25
  0
LTYPE
  2
PHANTOM
  3
_____ _ _ _____ _ _ _____ _ _ _____ _ _ ____
 70
    64
 72
    65
 73
     6
 40
2.5
 49
1.25
 49
-0.25
 49
0.25
 49
-0.25
 49
0.25
 49
-0.25
  0
ENDTAB
  0
TABLE
  2
LAYER
 70
     1
  0
LAYER
  2
0
 70
    64
 62
     7
  6
CONTINUOUS
  0
ENDTAB
  0
TABLE
  2
STYLE
 70
     1
  0
STYLE
  2
STANDARD
 70
     0
 40
0.000000
 41
1.000000
 50
0.000000
 71
     0
 42
3.000000
  3
txt
  4
BIGFONT
  0
ENDTAB
  0
ENDSEC
  0
SECTION
  2
BLOCKS
  0
ENDSEC
  0
SECTION
  2
ENTITIES
  0
LINE
  8
0
  6
CENTER
 10
312.894867
 20
533.909973
 11
312.894867
 21
307.575012
  0
LINE
  8
0
  6
CONTINUOUS
 10
388.895081
 20
439.361694
 11
388.109619
 21
484.361694
  0
LINE
  8
0
  6
CONTINUOUS
 10
254.444824
 20
514.361694
 11
312.894867
 21
514.361694
  0
LINE
  8
0
  6
CONTINUOUS
 10
378.838470
 20
509.162903
 11
388.109619
 21
484.361694
  0
ARC
  8
0
  6
CONTINUOUS
 10
371.344940
 20
506.361694
 40
8.000000
 50
20.496618
 51
90.000000
  0
LINE
  8
0
  6
CONTINUOUS
 10
388.895081
 20
439.361694
 11
388.109619
 21
394.361694
  0
LINE
  8
0
  6
CONTINUOUS
 10
254.444824
 20
364.361694
 11
296.894867
 21
364.361694
  0
LINE
  8
0
  6
CONTINUOUS
 10
378.838470
 20
369.560455
 11
388.109619
 21
394.361694
  0
ARC
  8
0
  6
CONTINUOUS
 10
371.344940
 20
372.361694
 40
8.000000
 50
-90.000000
 51
-20.496618
  0
LINE
  8
0
  6
CONTINUOUS
 10
246.951279
 20
509.162903
 11
237.896500
 21
484.940399
  0
ARC
  8
0
  6
CONTINUOUS
 10
254.444824
 20
506.361694
 40
8.000000
 50
90.000000
 51
159.503387
  0
LINE
  8
0
  6
CONTINUOUS
 10
246.951279
 20
369.560455
 11
237.896500
 21
393.782959
  0
ARC
  8
0
  6
CONTINUOUS
 10
254.444824
 20
372.361694
 40
8.000000
 50
200.496613
 51
270.000000
  0
LINE
  8
0
  6
CONTINUOUS
 10
240.231522
 20
484.361694
 11
385.161499
 21
484.361694
  0
LINE
  8
0
  6
CONTINUOUS
 10
385.161499
 20
394.361694
 11
240.231522
 21
394.361694
  0
LINE
  8
0
  6
CONTINUOUS
 10
312.894867
 20
501.361694
 11
348.153687
 21
501.361694
  0
ARC
  8
0
  6
CONTINUOUS
 10
385.161499
 20
481.361694
 40
3.000000
 50
1.000000
 51
90.000000
  0
ARC
  8
0
  6
CONTINUOUS
 10
385.161499
 20
397.361694
 40
3.000000
 50
270.000000
 51
359.000000
  0
LINE
  8
0
  6
CONTINUOUS
 10
341.894867
 20
481.361694
 11
341.894867
 21
397.361694
  0
LINE
  8
0
  6
CONTINUOUS
 10
283.894867
 20
481.361694
 11
283.894867
 21
397.361694
  0
LINE
  8
0
  6
CONTINUOUS
 10
224.894882
 20
503.361694
 11
224.894882
 21
375.361694
  0
LINE
  8
0
  6
CONTINUOUS
 10
227.467209
 20
503.361694
 11
224.894882
 21
503.361694
  0
LINE
  8
0
  6
CONTINUOUS
 10
352.950531
 20
497.772522
 11
353.953705
 21
494.361694
  0
ARC
  8
0
  6
CONTINUOUS
 10
348.153687
 20
496.361694
 40
5.000000
 50
16.389540
 51
90.000000
  0
LINE
  8
0
  6
CONTINUOUS
 10
368.441010
 20
490.754303
 11
369.248749
 21
487.969055
  0
LINE
  8
0
  6
CONTINUOUS
 10
363.638885
 20
494.361694
 11
353.953705
 21
494.361694
  0
LINE
  8
0
  6
CONTINUOUS
 10
312.894867
 20
501.361694
 11
277.636078
 21
501.361694
  0
LINE
  8
0
  6
CONTINUOUS
 10
312.894867
 20
377.361694
 11
348.153687
 21
377.361694
  0
LINE
  8
0
  6
CONTINUOUS
 10
312.894867
 20
377.361694
 11
277.636078
 21
377.361694
  0
LINE
  8
0
  6
CONTINUOUS
 10
312.894867
 20
514.361694
 11
371.344940
 21
514.361694
  0
LINE
  8
0
  6
CONTINUOUS
 10
331.894867
 20
319.361694
 11
296.894867
 21
319.361694
  0
LINE
  8
0
  6
CONTINUOUS
 10
296.894867
 20
374.361694
 11
296.894867
 21
319.361694
  0
LINE
  8
0
  6
CONTINUOUS
 10
328.894867
 20
374.361694
 11
328.894867
 21
369.361694
  0
LINE
  8
0
  6
CONTINUOUS
 10
295.394867
 20
374.361694
 11
330.394867
 21
374.361694
  0
LINE
  8
0
  6
CONTINUOUS
 10
295.394867
 20
377.361694
 11
295.394867
 21
374.361694
  0
LINE
  8
0
  6
CONTINUOUS
 10
330.394867
 20
377.361694
 11
330.394867
 21
374.361694
  0
LINE
  8
0
  6
CONTINUOUS
 10
331.894867
 20
319.361694
 11
331.894867
 21
369.361694
  0
LINE
  8
0
  6
CONTINUOUS
 10
328.093567
 20
369.361694
 11
331.894867
 21
369.361694
  0
LINE
  8
0
  6
CONTINUOUS
 10
328.093567
 20
369.361694
 11
328.093567
 21
319.361694
  0
LINE
  8
0
  6
CONTINUOUS
 10
331.894867
 20
364.361694
 11
371.344940
 21
364.361694
  0
LINE
  8
0
  6
CENTER
 10
350.518555
 20
499.361694
 11
369.456055
 21
499.361694
  0
LINE
  8
0
  6
CENTER
 10
360.394867
 20
490.209351
 11
360.394867
 21
509.709351
  0
ARC
  8
0
  6
CONTINUOUS
 10
360.394867
 20
499.361694
 40
6.500000
 50
-51.240688
 51
230.284866
  0
ARC
  8
0
  6
CONTINUOUS
 10
265.394867
 20
499.361694
 40
6.500000
 50
-50.284863
 51
231.240692
  0
LINE
  8
0
  6
CENTER
 10
265.394867
 20
490.209351
 11
265.394867
 21
509.709351
  0
LINE
  8
0
  6
CENTER
 10
275.271210
 20
499.361694
 11
256.333710
 21
499.361694
  0
LINE
  8
0
  6
CENTER
 10
-23.068125
 20
439.361694
 11
400.315918
 21
439.361694
  0
LINE
  8
0
  6
CONTINUOUS
 10
232.296844
 20
499.655762
 11
235.401886
 21
488.067596
  0
ARC
  8
0
  6
CONTINUOUS
 10
240.231522
 20
489.361694
 40
5.000000
 50
195.000000
 51
270.000000
  0
ARC
  8
0
  6
CONTINUOUS
 10
227.467209
 20
498.361694
 40
5.000000
 50
15.000000
 51
90.000000
  0
LINE
  8
0
  6
CONTINUOUS
 10
227.467209
 20
375.361694
 11
224.894882
 21
375.361694
  0
LINE
  8
0
  6
CONTINUOUS
 10
232.296844
 20
379.067596
 11
235.401886
 21
390.655762
  0
ARC
  8
0
  6
CONTINUOUS
 10
227.467209
 20
380.361694
 40
5.000000
 50
-90.000000
 51
-15.000000
  0
ARC
  8
0
  6
CONTINUOUS
 10
240.231522
 20
389.361694
 40
5.000000
 50
-270.000000
 51
-195.000000
  0
LINE
  8
0
  6
CONTINUOUS
 10
236.894684
 20
439.361694
 11
237.628708
 21
481.414032
  0
LINE
  8
0
  6
CONTINUOUS
 10
236.894684
 20
439.361694
 11
237.628708
 21
397.309326
  0
ARC
  8
0
  6
CONTINUOUS
 10
240.628250
 20
481.361694
 40
3.000000
 50
90.000000
 51
179.000000
  0
ARC
  8
0
  6
CONTINUOUS
 10
240.628250
 20
397.361694
 40
3.000000
 50
-179.000000
 51
-90.000000
  0
ARC
  8
0
  6
CONTINUOUS
 10
363.638885
 20
489.361694
 40
5.000000
 50
16.172159
 51
90.000000
  0
ARC
  8
0
  6
CONTINUOUS
 10
374.050873
 20
489.361694
 40
5.000000
 50
196.172165
 51
270.000000
  0
LINE
  8
0
  6
CONTINUOUS
 10
370.294891
 20
484.361694
 11
370.298096
 21
484.350586
  0
ARC
  8
0
  6
CONTINUOUS
 10
277.636078
 20
496.361694
 40
5.000000
 50
90.000000
 51
163.610458
  0
LINE
  8
0
  6
CONTINUOUS
 10
272.839233
 20
497.772522
 11
271.836060
 21
494.361694
  0
LINE
  8
0
  6
CONTINUOUS
 10
257.348755
 20
490.754303
 11
256.541016
 21
487.969055
  0
LINE
  8
0
  6
CONTINUOUS
 10
262.150879
 20
494.361694
 11
271.836060
 21
494.361694
  0
ARC
  8
0
  6
CONTINUOUS
 10
262.150879
 20
489.361694
 40
5.000000
 50
90.000000
 51
163.827835
  0
ARC
  8
0
  6
CONTINUOUS
 10
251.738876
 20
489.361694
 40
5.000000
 50
-90.000000
 51
-16.172159
  0
LINE
  8
0
  6
CONTINUOUS
 10
255.494888
 20
484.361694
 11
255.491669
 21
484.350586
  0
ARC
  8
0
  6
CONTINUOUS
 10
265.394867
 20
379.361694
 40
6.500000
 50
-231.240692
 51
50.284863
  0
LINE
  8
0
  6
CENTER
 10
275.271210
 20
379.361694
 11
256.333710
 21
379.361694
  0
ARC
  8
0
  6
CONTINUOUS
 10
277.636078
 20
382.361694
 40
5.000000
 50
196.389542
 51
270.000000
  0
LINE
  8
0
  6
CONTINUOUS
 10
272.839233
 20
380.950836
 11
271.836060
 21
384.361694
  0
LINE
  8
0
  6
CONTINUOUS
 10
257.348755
 20
387.969055
 11
256.541016
 21
390.754303
  0
LINE
  8
0
  6
CONTINUOUS
 10
262.150879
 20
384.361694
 11
271.836060
 21
384.361694
  0
ARC
  8
0
  6
CONTINUOUS
 10
262.150879
 20
389.361694
 40
5.000000
 50
-163.827835
 51
-90.000000
  0
ARC
  8
0
  6
CONTINUOUS
 10
251.738876
 20
389.361694
 40
5.000000
 50
16.172159
 51
90.000000
  0
LINE
  8
0
  6
CONTINUOUS
 10
255.494888
 20
394.361694
 11
255.491669
 21
394.372772
  0
LINE
  8
0
  6
CENTER
 10
265.394867
 20
388.514008
 11
265.394867
 21
369.014008
  0
LINE
  8
0
  6
CONTINUOUS
 10
352.950531
 20
380.950836
 11
353.953705
 21
384.361694
  0
ARC
  8
0
  6
CONTINUOUS
 10
348.153687
 20
382.361694
 40
5.000000
 50
-90.000000
 51
-16.389540
  0
LINE
  8
0
  6
CONTINUOUS
 10
368.441010
 20
387.969055
 11
369.248749
 21
390.754303
  0
LINE
  8
0
  6
CONTINUOUS
 10
363.638885
 20
384.361694
 11
353.953705
 21
384.361694
  0
LINE
  8
0
  6
CENTER
 10
350.518555
 20
379.361694
 11
369.456055
 21
379.361694
  0
LINE
  8
0
  6
CENTER
 10
360.394867
 20
388.514008
 11
360.394867
 21
369.014008
  0
ARC
  8
0
  6
CONTINUOUS
 10
360.394867
 20
379.361694
 40
6.500000
 50
-230.284866
 51
51.240688
  0
ARC
  8
0
  6
CONTINUOUS
 10
363.638885
 20
389.361694
 40
5.000000
 50
-90.000000
 51
-16.172159
  0
ARC
  8
0
  6
CONTINUOUS
 10
374.050873
 20
389.361694
 40
5.000000
 50
-270.000000
 51
-196.172165
  0
LINE
  8
0
  6
CONTINUOUS
 10
370.294891
 20
394.361694
 11
370.298096
 21
394.372772
  0
LINE
  8
0
  6
CENTER
 10
312.894867
 20
239.298752
 11
312.894867
 21
9.794620
  0
LINE
  8
0
  6
CENTER
 10
249.010284
 20
160.427505
 11
365.579895
 21
160.427505
  0
LINE
  8
0
  6
CENTER
 10
360.394867
 20
45.702942
 11
360.394867
 21
11.838200
  0
LINE
  8
0
  6
CENTER
 10
265.394867
 20
45.702942
 11
265.394867
 21
11.546260
  0
LINE
  8
0
  6
CONTINUOUS
 10
236.894882
 20
20.427500
 11
388.894867
 21
20.427500
  0
LINE
  8
0
  6
CONTINUOUS
 10
236.894882
 20
38.427502
 11
388.894867
 21
38.427502
  0
LINE
  8
0
  6
CONTINUOUS
 10
388.894867
 20
188.733063
 11
388.894867
 21
20.427500
  0
LINE
  8
0
  6
CONTINUOUS
 10
236.894882
 20
183.927505
 11
236.894882
 21
188.733063
  0
LINE
  8
0
  6
CONTINUOUS
 10
286.391479
 20
225.427505
 11
339.398285
 21
225.427505
  0
LINE
  8
0
  6
CONTINUOUS
 10
231.894882
 20
179.427505
 11
224.894882
 21
179.427505
  0
LINE
  8
0
  6
CONTINUOUS
 10
231.894882
 20
51.427502
 11
224.894882
 21
51.427502
  0
LINE
  8
0
  6
CONTINUOUS
 10
385.444885
 20
195.313126
 11
343.948273
 21
224.007553
  0
LINE
  8
0
  6
CONTINUOUS
 10
240.344849
 20
195.313126
 11
281.841492
 21
224.007553
  0
ARC
  8
0
  6
CONTINUOUS
 10
339.398285
 20
217.427505
 40
8.000000
 50
55.336689
 51
90.000000
  0
ARC
  8
0
  6
CONTINUOUS
 10
380.894867
 20
188.733017
 40
8.000000
 50
0.000000
 51
55.336739
  0
ARC
  8
0
  6
CONTINUOUS
 10
286.391479
 20
217.427505
 40
8.000000
 50
90.000000
 51
124.663696
  0
ARC
  8
0
  6
CONTINUOUS
 10
244.894882
 20
188.733093
 40
8.000000
 50
124.663803
 51
180.000000
  0
LINE
  8
0
  6
CONTINUOUS
 10
236.894882
 20
46.927502
 11
236.894882
 21
20.427500
  0
ARC
  8
0
  6
CONTINUOUS
 10
231.894867
 20
184.427505
 40
5.000000
 50
-90.000000
 51
0.000000
  0
LINE
  8
0
  6
CONTINUOUS
 10
236.894882
 20
46.927502
 11
236.894882
 21
183.927505
  0
ARC
  8
0
  6
CONTINUOUS
 10
231.894897
 20
46.427479
 40
5.000000
 50
0.000000
 51
90.000000
  0
LINE
  8
0
  6
DASHED
 10
258.894867
 20
38.427502
 11
258.894867
 21
20.427500
  0
LINE
  8
0
  6
DASHED
 10
271.894867
 20
38.427502
 11
271.894867
 21
20.427500
  0
LINE
  8
0
  6
DASHED
 10
353.894867
 20
38.427502
 11
353.894867
 21
20.427500
  0
LINE
  8
0
  6
DASHED
 10
366.894867
 20
38.427502
 11
366.894867
 21
20.427500
  0
CIRCLE
  8
0
  6
CONTINUOUS
 10
312.894867
 20
160.427505
 40
39.000000
  0
ARC
  8
0
  6
CONTINUOUS
 10
312.894867
 20
160.427505
 40
44.000000
 50
12.523240
 51
167.476898
  0
ARC
  8
0
  6
CONTINUOUS
 10
287.394867
 20
101.427498
 40
29.000000
 50
167.476898
 51
270.000000
  0
ARC
  8
0
  6
CONTINUOUS
 10
338.394867
 20
101.427498
 40
29.000000
 50
-90.000000
 51
12.523240
  0
ARC
  8
0
  6
CONTINUOUS
 10
287.394867
 20
101.427498
 40
31.900000
 50
167.476898
 51
270.000000
  0
ARC
  8
0
  6
CONTINUOUS
 10
338.394867
 20
101.427498
 40
31.900000
 50
-90.000000
 51
12.523240
  0
ARC
  8
0
  6
CONTINUOUS
 10
312.894867
 20
160.427505
 40
41.099998
 50
-192.523102
 51
12.523240
  0
LINE
  8
0
  6
CONTINUOUS
 10
256.253876
 20
108.344505
 11
269.941681
 21
169.968201
  0
LINE
  8
0
  6
CONTINUOUS
 10
259.084869
 20
107.715683
 11
272.772675
 21
169.339386
  0
LINE
  8
0
  6
CONTINUOUS
 10
287.394867
 20
69.527496
 11
338.394867
 21
69.527496
  0
LINE
  8
0
  6
CONTINUOUS
 10
338.394867
 20
72.427498
 11
287.394867
 21
72.427498
  0
LINE
  8
0
  6
CONTINUOUS
 10
355.848083
 20
169.968277
 11
369.535889
 21
108.344566
  0
LINE
  8
0
  6
CONTINUOUS
 10
353.017090
 20
169.339462
 11
366.704895
 21
107.715736
  0
LINE
  8
0
  6
CONTINUOUS
 10
300.667877
 20
84.427498
 11
295.727478
 21
84.427498
  0
LINE
  8
0
  6
CONTINUOUS
 10
303.394867
 20
92.702904
 11
303.394867
 21
84.427498
  0
LINE
  8
0
  6
CONTINUOUS
 10
308.144867
 20
95.708748
 11
308.144867
 21
98.677498
  0
LINE
  8
0
  6
CONTINUOUS
 10
317.644867
 20
95.708748
 11
317.644867
 21
98.677498
  0
LINE
  8
0
  6
CONTINUOUS
 10
311.967072
 20
96.933357
 11
311.967072
 21
85.986099
  0
LINE
  8
0
  6
CONTINUOUS
 10
313.748474
 20
96.933357
 11
313.748474
 21
85.986099
  0
LINE
  8
0
  6
CONTINUOUS
 10
323.100067
 20
96.933357
 11
323.100067
 21
85.911880
  0
LINE
  8
0
  6
CONTINUOUS
 10
324.732880
 20
91.088638
 11
324.732880
 21
85.911880
  0
LINE
  8
0
  6
CONTINUOUS
 10
301.140869
 20
96.784920
 11
296.563293
 21
96.784920
  0
LINE
  8
0
  6
CONTINUOUS
 10
296.563293
 20
96.784920
 11
295.490692
 21
95.454926
  0
LINE
  8
0
  6
CONTINUOUS
 10
295.619690
 20
98.677498
 11
293.894867
 21
96.469032
  0
LINE
  8
0
  6
CONTINUOUS
 10
295.490692
 20
87.245338
 11
296.580475
 21
86.097420
  0
LINE
  8
0
  6
CONTINUOUS
 10
293.894867
 20
86.276619
 11
295.727478
 21
84.427498
  0
LINE
  8
0
  6
CONTINUOUS
 10
293.894867
 20
96.469032
 11
293.894867
 21
86.276619
  0
LINE
  8
0
  6
CONTINUOUS
 10
295.490692
 20
95.454926
 11
295.490692
 21
87.245338
  0
LINE
  8
0
  6
CONTINUOUS
 10
302.021881
 20
95.933357
 11
301.122894
 21
96.784920
  0
LINE
  8
0
  6
CONTINUOUS
 10
302.007690
 20
98.677498
 11
303.394867
 21
97.137917
  0
LINE
  8
0
  6
CONTINUOUS
 10
302.021881
 20
95.708748
 11
303.394867
 21
95.708748
  0
LINE
  8
0
  6
CONTINUOUS
 10
295.619690
 20
98.677498
 11
302.007690
 21
98.677498
  0
LINE
  8
0
  6
CONTINUOUS
 10
299.535492
 20
92.702904
 11
303.394867
 21
92.702904
  0
LINE
  8
0
  6
CONTINUOUS
 10
302.021881
 20
91.144302
 11
299.535492
 21
91.144302
  0
LINE
  8
0
  6
CONTINUOUS
 10
299.053070
 20
86.097420
 11
296.580475
 21
86.097420
  0
LINE
  8
0
  6
CONTINUOUS
 10
302.021881
 20
89.659920
 11
302.021881
 21
90.847420
  0
ARC
  8
0
  6
CONTINUOUS
 10
299.053070
 20
89.066162
 40
2.968750
 50
-89.999786
 51
0.000109
  0
LINE
  8
0
  6
CONTINUOUS
 10
302.021881
 20
85.563423
 11
302.021881
 21
84.427498
  0
LINE
  8
0
  6
CONTINUOUS
 10
303.394867
 20
97.137917
 11
303.394867
 21
95.708748
  0
LINE
  8
0
  6
CONTINUOUS
 10
302.021881
 20
91.144302
 11
302.021881
 21
89.066162
  0
LINE
  8
0
  6
CONTINUOUS
 10
299.535492
 20
92.702904
 11
299.535492
 21
91.144302
  0
LINE
  8
0
  6
CONTINUOUS
 10
302.021881
 20
84.427498
 11
303.394867
 21
84.427498
  0
LINE
  8
0
  6
CONTINUOUS
 10
302.021881
 20
85.563423
 11
300.667877
 21
84.427498
  0
LINE
  8
0
  6
CONTINUOUS
 10
313.748474
 20
85.986099
 11
314.342072
 21
85.986099
  0
LINE
  8
0
  6
CONTINUOUS
 10
311.262085
 20
85.986099
 11
311.262085
 21
84.427498
  0
LINE
  8
0
  6
CONTINUOUS
 10
314.342072
 20
85.986099
 11
314.342072
 21
84.427498
  0
LINE
  8
0
  6
CONTINUOUS
 10
316.653870
 20
95.708748
 11
317.644867
 21
95.708748
  0
LINE
  8
0
  6
CONTINUOUS
 10
308.144867
 20
95.708748
 11
309.199493
 21
95.708748
  0
LINE
  8
0
  6
CONTINUOUS
 10
308.144867
 20
98.677498
 11
317.644867
 21
98.677498
  0
LINE
  8
0
  6
CONTINUOUS
 10
311.262085
 20
84.427498
 11
314.342072
 21
84.427498
  0
LINE
  8
0
  6
CONTINUOUS
 10
311.262085
 20
85.986099
 11
311.967072
 21
85.986099
  0
ARC
  8
0
  6
CONTINUOUS
 10
328.091095
 20
94.873779
 40
3.803712
 50
-73.981873
 51
90.003510
  0
ARC
  8
0
  6
CONTINUOUS
 10
328.091095
 20
94.873779
 40
2.320524
 50
-82.585274
 51
62.411850
  0
LINE
  8
0
  6
CONTINUOUS
 10
322.394867
 20
98.677498
 11
328.091095
 21
98.677498
  0
LINE
  8
0
  6
CONTINUOUS
 10
328.390686
 20
92.572662
 11
324.732880
 21
92.572662
  0
LINE
  8
0
  6
CONTINUOUS
 10
322.394867
 20
98.677498
 11
322.394867
 21
96.933357
  0
LINE
  8
0
  6
CONTINUOUS
 10
324.732880
 20
96.933357
 11
324.732880
 21
92.572662
  0
LINE
  8
0
  6
CONTINUOUS
 10
329.140686
 20
91.217758
 11
331.495087
 21
85.911880
  0
LINE
  8
0
  6
CONTINUOUS
 10
327.773468
 20
91.088638
 11
330.001495
 21
85.911880
  0
LINE
  8
0
  6
CONTINUOUS
 10
322.394867
 20
85.911880
 11
323.100067
 21
85.911880
  0
LINE
  8
0
  6
CONTINUOUS
 10
324.732880
 20
85.911880
 11
325.382294
 21
85.911880
  0
LINE
  8
0
  6
CONTINUOUS
 10
325.382294
 20
84.427498
 11
322.394867
 21
84.427498
  0
LINE
  8
0
  6
CONTINUOUS
 10
329.705475
 20
85.911880
 11
330.001495
 21
85.911880
  0
LINE
  8
0
  6
CONTINUOUS
 10
331.495087
 20
85.911880
 11
331.894867
 21
85.911880
  0
LINE
  8
0
  6
CONTINUOUS
 10
329.705475
 20
84.427498
 11
331.894867
 21
84.427498
  0
LINE
  8
0
  6
CONTINUOUS
 10
331.894867
 20
85.911880
 11
331.894867
 21
84.427498
  0
LINE
  8
0
  6
CONTINUOUS
 10
329.705475
 20
85.911880
 11
329.705475
 21
84.427498
  0
LINE
  8
0
  6
CONTINUOUS
 10
325.382294
 20
85.911880
 11
325.382294
 21
84.427498
  0
LINE
  8
0
  6
CONTINUOUS
 10
322.394867
 20
85.911880
 11
322.394867
 21
84.427498
  0
LINE
  8
0
  6
CONTINUOUS
 10
309.709686
 20
96.933357
 11
309.199493
 21
95.708748
  0
LINE
  8
0
  6
CONTINUOUS
 10
316.223694
 20
96.933357
 11
316.653870
 21
95.708748
  0
LINE
  8
0
  6
CONTINUOUS
 10
313.748474
 20
96.933357
 11
316.223694
 21
96.933357
  0
LINE
  8
0
  6
CONTINUOUS
 10
311.967072
 20
96.933357
 11
309.709686
 21
96.933357
  0
LINE
  8
0
  6
CONTINUOUS
 10
324.732880
 20
91.088638
 11
327.773468
 21
91.088638
  0
LINE
  8
0
  6
CONTINUOUS
 10
322.394867
 20
96.933357
 11
323.100067
 21
96.933357
  0
LINE
  8
0
  6
CONTINUOUS
 10
324.732880
 20
96.933357
 11
329.165894
 21
96.930473
  0
LINE
  8
0
  6
CONTINUOUS
 10
302.021881
 20
95.933357
 11
302.021881
 21
95.708748
  0
ARC
  8
0
  6
CONTINUOUS
 10
416.603668
 20
115.427498
 40
185.208893
 50
166.001907
 51
193.998093
  0
LINE
  8
0
  6
CONTINUOUS
 10
250.894882
 20
36.360939
 11
250.894882
 21
20.427500
  0
LINE
  8
0
  6
CONTINUOUS
 10
374.894867
 20
36.360939
 11
374.894867
 21
20.427500
  0
LINE
  8
0
  6
CONTINUOUS
 10
336.652283
 20
43.427502
 11
289.137482
 21
43.427502
  0
LINE
  8
0
  6
CONTINUOUS
 10
287.894867
 20
42.491619
 11
287.894867
 21
39.427502
  0
LINE
  8
0
  6
CONTINUOUS
 10
338.773468
 20
42.548820
 11
341.430481
 21
39.891960
  0
LINE
  8
0
  6
CONTINUOUS
 10
287.016296
 20
42.548820
 11
284.359497
 21
39.891998
  0
LINE
  8
0
  6
CONTINUOUS
 10
337.894867
 20
42.491619
 11
337.894867
 21
39.427502
  0
ARC
  8
0
  6
CONTINUOUS
 10
280.823883
 20
43.427502
 40
5.000000
 50
270.000000
 51
315.000092
  0
ARC
  8
0
  6
CONTINUOUS
 10
289.137482
 20
40.427502
 40
3.000000
 50
90.000000
 51
135.000305
  0
ARC
  8
0
  6
CONTINUOUS
 10
286.894867
 20
39.427502
 40
1.000000
 50
-90.000000
 51
0.000000
  0
ARC
  8
0
  6
CONTINUOUS
 10
344.965881
 20
43.427502
 40
5.000000
 50
225.000000
 51
270.000000
  0
ARC
  8
0
  6
CONTINUOUS
 10
336.652283
 20
40.427502
 40
3.000000
 50
45.000160
 51
90.000000
  0
ARC
  8
0
  6
CONTINUOUS
 10
338.894867
 20
39.427502
 40
1.000000
 50
180.000000
 51
270.000000
  0
LINE
  8
0
  6
CONTINUOUS
 10
323.894867
 20
155.427536
 11
323.894867
 21
165.427536
  0
LINE
  8
0
  6
CONTINUOUS
 10
331.894867
 20
155.427567
 11
331.894867
 21
165.427567
  0
LINE
  8
0
  6
CONTINUOUS
 10
331.894867
 20
155.427567
 11
323.894867
 21
155.427536
  0
LINE
  8
0
  6
CONTINUOUS
 10
331.894867
 20
165.427567
 11
323.894867
 21
165.427536
  0
ARC
  8
0
  6
CONTINUOUS
 10
312.894867
 20
160.427505
 40
16.000000
 50
18.209900
 51
341.790100
  0
LINE
  8
0
  6
CENTER
 10
622.894897
 20
5.307500
 11
622.894897
 21
244.038757
  0
LINE
  8
0
  6
CENTER
 10
542.307495
 20
115.427498
 11
699.122498
 21
115.427498
  0
LINE
  8
0
  6
CENTER
 10
488.244873
 20
160.427505
 11
693.592529
 21
160.427505
  0
LINE
  8
0
  6
CENTER
 10
682.894897
 20
47.026241
 11
682.894897
 21
9.127120
  0
LINE
  8
0
  6
CENTER
 10
562.894897
 20
47.026241
 11
562.894897
 21
9.127120
  0
LINE
  8
0
  6
CONTINUOUS
 10
547.894897
 20
20.427500
 11
592.894897
 21
20.427500
  0
LINE
  8
0
  6
CONTINUOUS
 10
652.894897
 20
20.427500
 11
697.894897
 21
20.427500
  0
LINE
  8
0
  6
CONTINUOUS
 10
695.394897
 20
38.427502
 11
671.894897
 21
38.427502
  0
LINE
  8
0
  6
CONTINUOUS
 10
550.394897
 20
38.427502
 11
573.894897
 21
38.427502
  0
LINE
  8
0
  6
CONTINUOUS
 10
667.894897
 20
221.694260
 11
667.894897
 21
20.427500
  0
LINE
  8
0
  6
CONTINUOUS
 10
577.894897
 20
208.168701
 11
577.894897
 21
221.693787
  0
LINE
  8
0
  6
CONTINUOUS
 10
697.894897
 20
36.309681
 11
697.894897
 21
20.427500
  0
LINE
  8
0
  6
CONTINUOUS
 10
547.894897
 20
36.309681
 11
547.894897
 21
20.427500
  0
LINE
  8
0
  6
CONTINUOUS
 10
594.394897
 20
21.927500
 11
651.394897
 21
21.927500
  0
LINE
  8
0
  6
CONTINUOUS
 10
664.947266
 20
224.693802
 11
622.894897
 21
225.427505
  0
LINE
  8
0
  6
CONTINUOUS
 10
580.842468
 20
224.693314
 11
622.894897
 21
225.427505
  0
LINE
  8
0
  6
CONTINUOUS
 10
560.894897
 20
125.168694
 11
560.894897
 21
195.686325
  0
LINE
  8
0
  6
CONTINUOUS
 10
684.894897
 20
125.168694
 11
684.894897
 21
195.686325
  0
LINE
  8
0
  6
CONTINUOUS
 10
567.894897
 20
76.183502
 11
567.894897
 21
164.337906
  0
LINE
  8
0
  6
CONTINUOUS
 10
677.894897
 20
76.183517
 11
677.894897
 21
164.337906
  0
LINE
  8
0
  6
DASHED
 10
689.394897
 20
38.427502
 11
689.394897
 21
20.427500
  0
LINE
  8
0
  6
DASHED
 10
676.394897
 20
38.427502
 11
676.394897
 21
20.427500
  0
LINE
  8
0
  6
DASHED
 10
569.394897
 20
38.427502
 11
569.394897
 21
20.427500
  0
LINE
  8
0
  6
DASHED
 10
556.394897
 20
38.427502
 11
556.394897
 21
20.427500
  0
ARC
  8
0
  6
CONTINUOUS
 10
580.894897
 20
221.693787
 40
3.000000
 50
91.000603
 51
180.000000
  0
ARC
  8
0
  6
CONTINUOUS
 10
664.894897
 20
221.694244
 40
3.000000
 50
0.000000
 51
89.000580
  0
LINE
  8
0
  6
CONTINUOUS
 10
574.305664
 20
203.371857
 11
564.484070
 21
200.483124
  0
LINE
  8
0
  6
CONTINUOUS
 10
564.484070
 20
120.371864
 11
565.023499
 21
120.213196
  0
LINE
  8
0
  6
CONTINUOUS
 10
571.502258
 20
71.381363
 11
574.287476
 21
70.573639
  0
LINE
  8
0
  6
CONTINUOUS
 10
549.983887
 20
38.775661
 11
575.388062
 21
43.009701
  0
LINE
  8
0
  6
CONTINUOUS
 10
695.805908
 20
38.775681
 11
670.401672
 21
43.009720
  0
LINE
  8
0
  6
CONTINUOUS
 10
674.287476
 20
71.381363
 11
671.502258
 21
70.573639
  0
LINE
  8
0
  6
CONTINUOUS
 10
681.305664
 20
120.371864
 11
680.766296
 21
120.213188
  0
LINE
  8
0
  6
CONTINUOUS
 10
681.305664
 20
200.483139
 11
671.484070
 21
203.371857
  0
LINE
  8
0
  6
CONTINUOUS
 10
580.469299
 20
192.927505
 11
665.147461
 21
192.927505
  0
ARC
  8
0
  6
CONTINUOUS
 10
565.894897
 20
195.686340
 40
5.000000
 50
106.389900
 51
180.000000
  0
ARC
  8
0
  6
CONTINUOUS
 10
679.894897
 20
195.686295
 40
5.000000
 50
0.000000
 51
73.610527
  0
ARC
  8
0
  6
CONTINUOUS
 10
565.894897
 20
125.168732
 40
5.000000
 50
180.000000
 51
253.610794
  0
ARC
  8
0
  6
CONTINUOUS
 10
679.894897
 20
125.168686
 40
5.000000
 50
-73.610321
 51
0.000000
  0
ARC
  8
0
  6
CONTINUOUS
 10
672.894897
 20
76.183502
 40
5.000000
 50
-73.827698
 51
0.000000
  0
ARC
  8
0
  6
CONTINUOUS
 10
572.894897
 20
76.183540
 40
5.000000
 50
180.000000
 51
253.828201
  0
LINE
  8
0
  6
CONTINUOUS
 10
577.894897
 20
208.168701
 11
577.894897
 21
20.427500
  0
ARC
  8
0
  6
CONTINUOUS
 10
572.894897
 20
208.168686
 40
5.000000
 50
-73.610229
 51
0.000000
  0
ARC
  8
0
  6
CONTINUOUS
 10
563.894897
 20
116.375717
 40
4.000000
 50
0.000000
 51
73.610649
  0
ARC
  8
0
  6
CONTINUOUS
 10
572.894897
 20
65.771477
 40
5.000000
 50
0.000000
 51
73.827919
  0
ARC
  8
0
  6
CONTINUOUS
 10
672.894897
 20
65.771523
 40
5.000000
 50
106.172501
 51
180.000000
  0
ARC
  8
0
  6
CONTINUOUS
 10
681.894897
 20
116.375748
 40
4.000000
 50
106.389999
 51
180.000000
  0
ARC
  8
0
  6
CONTINUOUS
 10
672.894897
 20
208.168716
 40
5.000000
 50
180.000000
 51
253.610794
  0
ARC
  8
0
  6
CONTINUOUS
 10
574.894897
 20
45.968880
 40
3.000000
 50
-80.537483
 51
0.000000
  0
ARC
  8
0
  6
CONTINUOUS
 10
573.894897
 20
42.427460
 40
4.000000
 50
-90.000000
 51
0.000000
  0
ARC
  8
0
  6
CONTINUOUS
 10
550.394897
 20
35.927521
 40
2.500000
 50
90.000000
 51
180.000000
  0
LINE
  8
0
  6
CONTINUOUS
 10
592.894897
 20
20.427500
 11
594.394897
 21
21.927500
  0
LINE
  8
0
  6
CONTINUOUS
 10
652.894897
 20
20.427500
 11
651.394897
 21
21.927500
  0
ARC
  8
0
  6
CONTINUOUS
 10
670.894897
 20
45.968922
 40
3.000000
 50
180.000000
 51
260.537903
  0
ARC
  8
0
  6
CONTINUOUS
 10
671.894897
 20
42.427502
 40
4.000000
 50
180.000000
 51
270.000000
  0
ARC
  8
0
  6
CONTINUOUS
 10
695.394897
 20
35.927502
 40
2.500000
 50
0.000000
 51
90.000000
  0
LINE
  8
0
  6
CONTINUOUS
 10
502.894867
 20
144.427505
 11
502.894867
 21
176.427505
  0
LINE
  8
0
  6
CONTINUOUS
 10
557.894897
 20
176.427505
 11
502.894867
 21
176.427505
  0
LINE
  8
0
  6
CONTINUOUS
 10
557.894897
 20
144.427505
 11
502.894867
 21
144.427505
  0
LINE
  8
0
  6
CONTINUOUS
 10
557.894897
 20
177.927505
 11
557.894897
 21
142.927505
  0
LINE
  8
0
  6
CONTINUOUS
 10
560.894897
 20
177.927505
 11
557.894897
 21
177.927505
  0
LINE
  8
0
  6
CONTINUOUS
 10
560.894897
 20
142.927505
 11
557.894897
 21
142.927505
  0
ARC
  8
0
  6
CONTINUOUS
 10
547.894897
 20
160.427505
 40
5.000000
 50
-90.000000
 51
90.000000
  0
LINE
  8
0
  6
CONTINUOUS
 10
547.894897
 20
165.427505
 11
502.894867
 21
165.427505
  0
LINE
  8
0
  6
CONTINUOUS
 10
547.894897
 20
155.427505
 11
502.894867
 21
155.427505
  0
ARC
  8
0
  6
CONTINUOUS
 10
550.394897
 20
36.309700
 40
2.500000
 50
99.462753
 51
180.000000
  0
ARC
  8
0
  6
CONTINUOUS
 10
695.394897
 20
36.309681
 40
2.500000
 50
0.000000
 51
80.537682
  0
LINE
  8
0
  6
CONTINUOUS
 10
224.894882
 20
179.427505
 11
224.894882
 21
51.427502
  0
ARC
  8
0
  6
CONTINUOUS
 10
622.894897
 20
115.427498
 40
64.000000
 50
165.638489
 51
210.753525
  0
ARC
  8
0
  6
CONTINUOUS
 10
622.894897
 20
115.427498
 40
64.000000
 50
-30.753519
 51
14.361512
  0
ARC
  8
0
  6
CONTINUOUS
 10
581.882690
 20
74.415283
 40
8.000000
 50
211.001404
 51
233.216995
  0
ARC
  8
0
  6
CONTINUOUS
 10
575.894897
 20
66.406158
 40
2.000000
 50
30.947910
 51
53.217121
  0
ARC
  8
0
  6
CONTINUOUS
 10
663.907104
 20
74.415283
 40
8.000000
 50
-53.216999
 51
-31.001400
  0
ARC
  8
0
  6
CONTINUOUS
 10
669.894897
 20
66.406158
 40
2.000000
 50
126.782883
 51
149.052094
  0
LINE
  8
0
  6
CENTER
 10
-22.946875
 20
102.427498
 11
269.781250
 21
102.427498
  0
LINE
  8
0
  6
CENTER
 10
138.835938
 20
115.427498
 11
269.781250
 21
115.427498
  0
LINE
  8
0
  6
CONTINUOUS
 10
216.394882
 20
377.361694
 11
216.394882
 21
501.361694
  0
LINE
  8
0
  6
CONTINUOUS
 10
170.394882
 20
484.361694
 11
213.958496
 21
485.882965
  0
LINE
  8
0
  6
CONTINUOUS
 10
170.394882
 20
394.361694
 11
213.958496
 21
392.840393
  0
LINE
  8
0
  6
CONTINUOUS
 10
170.394882
 20
488.373688
 11
170.394882
 21
390.349670
  0
LINE
  8
0
  6
CONTINUOUS
 10
218.394882
 20
503.361694
 11
224.894882
 21
503.361694
  0
LINE
  8
0
  6
CONTINUOUS
 10
218.394882
 20
375.361694
 11
224.894882
 21
375.361694
  0
LINE
  8
0
  6
CONTINUOUS
 10
209.251877
 20
463.361694
 11
216.366867
 21
463.361694
  0
LINE
  8
0
  6
CONTINUOUS
 10
209.857025
 20
415.361694
 11
216.366867
 21
415.361694
  0
LINE
  8
0
  6
CONTINUOUS
 10
209.251877
 20
461.157166
 11
209.251877
 21
417.444611
  0
LINE
  8
0
  6
CONTINUOUS
 10
161.394882
 20
482.361694
 11
161.394882
 21
468.361694
  0
LINE
  8
0
  6
CONTINUOUS
 10
51.394882
 20
484.361694
 11
170.394882
 21
484.361694
  0
LINE
  8
0
  6
CONTINUOUS
 10
51.394882
 20
394.361694
 11
170.394882
 21
394.361694
  0
LINE
  8
0
  6
CONTINUOUS
 10
104.394875
 20
468.361694
 11
161.394882
 21
468.361694
  0
LINE
  8
0
  6
CONTINUOUS
 10
104.394875
 20
410.361694
 11
161.394882
 21
410.361694
  0
ARC
  8
0
  6
CONTINUOUS
 10
163.394882
 20
482.361694
 40
2.000000
 50
90.000000
 51
180.000000
  0
ARC
  8
0
  6
CONTINUOUS
 10
163.394882
 20
396.361694
 40
2.000000
 50
180.000000
 51
270.000000
  0
LINE
  8
0
  6
CONTINUOUS
 10
170.394882
 20
484.361694
 11
170.394882
 21
394.361694
  0
ARC
  8
0
  6
CONTINUOUS
 10
218.394882
 20
501.361694
 40
2.000000
 50
90.000000
 51
180.000000
  0
ARC
  8
0
  6
CONTINUOUS
 10
218.394882
 20
377.361694
 40
2.000000
 50
180.000000
 51
270.000000
  0
ARC
  8
0
  6
CONTINUOUS
 10
213.871246
 20
488.381439
 40
2.500000
 50
272.000000
 51
359.895721
  0
ARC
  8
0
  6
CONTINUOUS
 10
213.871246
 20
390.341919
 40
2.500000
 50
0.104292
 51
88.000000
  0
LINE
  8
0
  6
CONTINUOUS
 10
216.394882
 20
485.968048
 11
216.366867
 21
485.967072
  0
LINE
  8
0
  6
CONTINUOUS
 10
170.894577
 20
488.891144
 11
216.394882
 21
490.480042
  0
LINE
  8
0
  6
CONTINUOUS
 10
170.394882
 20
488.373688
 11
170.894577
 21
488.891144
  0
LINE
  8
0
  6
CONTINUOUS
 10
170.894577
 20
389.832245
 11
216.394882
 21
388.243317
  0
LINE
  8
0
  6
CONTINUOUS
 10
170.394882
 20
390.349670
 11
170.894577
 21
389.832245
  0
LINE
  8
0
  6
CONTINUOUS
 10
161.394882
 20
145.427505
 11
161.394882
 21
59.427479
  0
LINE
  8
0
  6
CONTINUOUS
 10
51.394882
 20
147.427505
 11
170.394882
 21
147.427505
  0
LINE
  8
0
  6
CONTINUOUS
 10
51.394882
 20
57.427502
 11
170.394882
 21
57.427502
  0
LINE
  8
0
  6
CONTINUOUS
 10
51.394882
 20
136.836807
 11
160.357208
 21
136.836807
  0
LINE
  8
0
  6
CONTINUOUS
 10
51.394882
 20
68.018204
 11
160.357208
 21
68.018204
  0
ARC
  8
0
  6
CONTINUOUS
 10
163.394882
 20
145.427521
 40
2.000000
 50
90.000000
 51
180.000000
  0
ARC
  8
0
  6
CONTINUOUS
 10
163.394882
 20
59.427502
 40
2.000000
 50
180.000000
 51
270.000000
  0
LINE
  8
0
  6
CONTINUOUS
 10
218.394882
 20
179.427597
 11
224.894882
 21
179.427597
  0
LINE
  8
0
  6
CONTINUOUS
 10
218.394882
 20
51.427402
 11
224.894882
 21
51.427402
  0
LINE
  8
0
  6
CONTINUOUS
 10
170.394882
 20
147.427505
 11
216.394882
 21
149.033859
  0
LINE
  8
0
  6
CONTINUOUS
 10
224.894882
 20
55.524319
 11
170.394882
 21
57.427502
  0
ARC
  8
0
  6
CONTINUOUS
 10
218.394897
 20
177.427628
 40
2.000000
 50
90.000000
 51
180.000000
  0
ARC
  8
0
  6
CONTINUOUS
 10
218.394882
 20
53.427402
 40
2.000000
 50
180.260773
 51
270.000000
  0
LINE
  8
0
  6
CONTINUOUS
 10
170.394882
 20
147.427505
 11
170.394882
 21
57.427502
  0
LINE
  8
0
  6
CONTINUOUS
 10
215.662643
 20
155.195267
 11
209.948135
 21
149.480759
  0
LINE
  8
0
  6
CONTINUOUS
 10
170.394882
 20
81.921501
 11
214.394882
 21
81.921501
  0
LINE
  8
0
  6
CONTINUOUS
 10
170.394882
 20
66.908501
 11
224.894882
 21
66.908501
  0
LINE
  8
0
  6
CONTINUOUS
 10
216.962845
 20
74.860497
 11
224.894882
 21
74.860497
  0
LINE
  8
0
  6
CONTINUOUS
 10
216.394882
 20
76.075233
 11
216.394882
 21
177.427628
  0
ARC
  8
0
  6
CONTINUOUS
 10
213.894928
 20
53.406921
 40
2.500000
 50
0.260773
 51
88.000000
  0
ARC
  8
0
  6
CONTINUOUS
 10
213.894882
 20
156.963028
 40
2.500000
 50
-45.000000
 51
0.000000
  0
ARC
  8
0
  6
CONTINUOUS
 10
208.180374
 20
151.248520
 40
2.500000
 50
272.000000
 51
315.000000
  0
LINE
  8
0
  6
CONTINUOUS
 10
41.894882
 20
484.361694
 11
51.394882
 21
484.361694
  0
LINE
  8
0
  6
CONTINUOUS
 10
42.394871
 20
468.361694
 11
41.894882
 21
468.361694
  0
LINE
  8
0
  6
CONTINUOUS
 10
41.894882
 20
394.361694
 11
51.394882
 21
394.361694
  0
LINE
  8
0
  6
CONTINUOUS
 10
51.394882
 20
394.361694
 11
51.394882
 21
408.361664
  0
LINE
  8
0
  6
CONTINUOUS
 10
42.394871
 20
410.361694
 11
41.894882
 21
410.361694
  0
LINE
  8
0
  6
CONTINUOUS
 10
51.394882
 20
470.361664
 11
51.394882
 21
484.361694
  0
LINE
  8
0
  6
CONTINUOUS
 10
41.894882
 20
486.361694
 11
41.894882
 21
392.361694
  0
LINE
  8
0
  6
CONTINUOUS
 10
41.894882
 20
468.361694
 11
-2.080148
 21
468.361694
  0
LINE
  8
0
  6
CONTINUOUS
 10
41.894882
 20
410.361694
 11
-2.080148
 21
410.361694
  0
LINE
  8
0
  6
CONTINUOUS
 10
-0.605138
 20
486.361694
 11
41.894882
 21
486.361694
  0
LINE
  8
0
  6
CONTINUOUS
 10
-0.605138
 20
392.361694
 11
41.894882
 21
392.361694
  0
ARC
  8
0
  6
CONTINUOUS
 10
-0.605108
 20
481.361694
 40
5.000000
 50
90.000000
 51
180.000000
  0
ARC
  8
0
  6
CONTINUOUS
 10
-0.605138
 20
397.361694
 40
5.000000
 50
180.000000
 51
270.000000
  0
LINE
  8
0
  6
CONTINUOUS
 10
-5.605108
 20
481.361694
 11
-5.605138
 21
397.361664
  0
LINE
  8
0
  6
CONTINUOUS
 10
41.894882
 20
147.427505
 11
51.394882
 21
147.427505
  0
LINE
  8
0
  6
CONTINUOUS
 10
51.394882
 20
136.836807
 11
41.894882
 21
136.836807
  0
LINE
  8
0
  6
CONTINUOUS
 10
41.894882
 20
57.427502
 11
51.394882
 21
57.427502
  0
LINE
  8
0
  6
CONTINUOUS
 10
51.394882
 20
68.018211
 11
41.894882
 21
68.018211
  0
LINE
  8
0
  6
CONTINUOUS
 10
41.894882
 20
149.427505
 11
41.894882
 21
55.427502
  0
LINE
  8
0
  6
CONTINUOUS
 10
41.894882
 20
131.427505
 11
-2.080148
 21
131.427505
  0
LINE
  8
0
  6
CONTINUOUS
 10
41.894882
 20
73.427498
 11
-2.080148
 21
73.427498
  0
LINE
  8
0
  6
CONTINUOUS
 10
-0.605138
 20
149.427505
 11
41.894882
 21
149.427505
  0
LINE
  8
0
  6
CONTINUOUS
 10
-0.605138
 20
55.427502
 11
41.894882
 21
55.427502
  0
ARC
  8
0
  6
CONTINUOUS
 10
-0.605108
 20
144.427505
 40
5.000000
 50
90.000000
 51
180.000000
  0
ARC
  8
0
  6
CONTINUOUS
 10
-0.605138
 20
60.427502
 40
5.000000
 50
180.000000
 51
270.000000
  0
LINE
  8
0
  6
CONTINUOUS
 10
-5.605108
 20
144.427505
 11
-5.605138
 21
60.427490
  0
LINE
  8
0
  6
CONTINUOUS
 10
51.394882
 20
57.427502
 11
51.394882
 21
147.427505
  0
LINE
  8
0
  6
CONTINUOUS
 10
42.394871
 20
468.361664
 11
42.394871
 21
410.361664
  0
LINE
  8
0
  6
CONTINUOUS
 10
104.394875
 20
410.361664
 11
104.394875
 21
468.361664
  0
LINE
  8
0
  6
CONTINUOUS
 10
44.394871
 20
470.361664
 11
102.394875
 21
470.361664
  0
LINE
  8
0
  6
CONTINUOUS
 10
44.394871
 20
408.361664
 11
102.394875
 21
408.361664
  0
LINE
  8
0
  6
CONTINUOUS
 10
102.394875
 20
470.361664
 11
104.394875
 21
468.361664
  0
LINE
  8
0
  6
CONTINUOUS
 10
104.394875
 20
410.361664
 11
102.394875
 21
408.361664
  0
LINE
  8
0
  6
CONTINUOUS
 10
42.394871
 20
410.361664
 11
44.394871
 21
408.361664
  0
LINE
  8
0
  6
CONTINUOUS
 10
42.394871
 20
468.361664
 11
44.394871
 21
470.361664
  0
LINE
  8
0
  6
CONTINUOUS
 10
96.394875
 20
465.361664
 11
96.394875
 21
470.361664
  0
LINE
  8
0
  6
CONTINUOUS
 10
99.394875
 20
462.361664
 11
104.394875
 21
462.361664
  0
CIRCLE
  8
0
  6
CONTINUOUS
 10
100.394875
 20
466.361664
 40
2.250000
  0
ARC
  8
0
  6
CONTINUOUS
 10
99.394875
 20
465.361664
 40
3.000000
 50
180.000000
 51
270.000000
  0
LINE
  8
0
  6
CONTINUOUS
 10
103.394875
 20
461.361664
 11
103.394875
 21
417.361664
  0
LINE
  8
0
  6
CONTINUOUS
 10
99.394875
 20
461.361664
 11
103.394875
 21
461.361664
  0
ARC
  8
0
  6
CONTINUOUS
 10
99.394875
 20
465.361664
 40
4.000000
 50
180.000000
 51
270.000000
  0
LINE
  8
0
  6
CONTINUOUS
 10
95.394875
 20
469.361664
 11
95.394875
 21
465.361664
  0
LINE
  8
0
  6
CONTINUOUS
 10
103.394875
 20
461.361664
 11
104.394875
 21
462.361664
  0
LINE
  8
0
  6
CONTINUOUS
 10
51.394871
 20
469.361664
 11
95.394875
 21
469.361664
  0
LINE
  8
0
  6
CONTINUOUS
 10
95.394875
 20
469.361664
 11
96.394875
 21
470.361664
  0
LINE
  8
0
  6
CONTINUOUS
 10
47.394871
 20
462.361664
 11
42.394871
 21
462.361664
  0
LINE
  8
0
  6
CONTINUOUS
 10
50.394871
 20
465.361664
 11
50.394871
 21
470.361664
  0
CIRCLE
  8
0
  6
CONTINUOUS
 10
46.394871
 20
466.361664
 40
2.250000
  0
ARC
  8
0
  6
CONTINUOUS
 10
47.394871
 20
465.361664
 40
3.000000
 50
-90.000000
 51
0.000000
  0
LINE
  8
0
  6
CONTINUOUS
 10
51.394871
 20
465.361664
 11
51.394871
 21
469.361664
  0
ARC
  8
0
  6
CONTINUOUS
 10
47.394871
 20
465.361664
 40
4.000000
 50
-90.000000
 51
0.000000
  0
LINE
  8
0
  6
CONTINUOUS
 10
43.394871
 20
461.361664
 11
47.394871
 21
461.361664
  0
LINE
  8
0
  6
CONTINUOUS
 10
51.394871
 20
469.361664
 11
50.394871
 21
470.361664
  0
LINE
  8
0
  6
CONTINUOUS
 10
43.394871
 20
461.361664
 11
42.394871
 21
462.361664
  0
LINE
  8
0
  6
CONTINUOUS
 10
50.394871
 20
413.361664
 11
50.394871
 21
408.361664
  0
LINE
  8
0
  6
CONTINUOUS
 10
47.394871
 20
416.361664
 11
42.394871
 21
416.361664
  0
CIRCLE
  8
0
  6
CONTINUOUS
 10
46.394871
 20
412.361664
 40
2.250000
  0
ARC
  8
0
  6
CONTINUOUS
 10
47.394871
 20
413.361664
 40
3.000000
 50
0.000000
 51
90.000000
  0
LINE
  8
0
  6
CONTINUOUS
 10
47.394871
 20
417.361664
 11
43.394871
 21
417.361664
  0
ARC
  8
0
  6
CONTINUOUS
 10
47.394871
 20
413.361664
 40
4.000000
 50
0.000000
 51
90.000000
  0
LINE
  8
0
  6
CONTINUOUS
 10
51.394871
 20
409.361664
 11
51.394871
 21
413.361664
  0
LINE
  8
0
  6
CONTINUOUS
 10
43.394871
 20
417.361664
 11
42.394871
 21
416.361664
  0
LINE
  8
0
  6
CONTINUOUS
 10
51.394871
 20
409.361664
 11
50.394871
 21
408.361664
  0
LINE
  8
0
  6
CONTINUOUS
 10
99.394875
 20
416.361664
 11
104.394875
 21
416.361664
  0
LINE
  8
0
  6
CONTINUOUS
 10
96.394875
 20
413.361664
 11
96.394875
 21
408.361664
  0
CIRCLE
  8
0
  6
CONTINUOUS
 10
100.394875
 20
412.361664
 40
2.250000
  0
ARC
  8
0
  6
CONTINUOUS
 10
99.394875
 20
413.361664
 40
3.000000
 50
90.000000
 51
180.000000
  0
LINE
  8
0
  6
CONTINUOUS
 10
95.394875
 20
413.361664
 11
95.394875
 21
409.361664
  0
ARC
  8
0
  6
CONTINUOUS
 10
99.394875
 20
413.361664
 40
4.000000
 50
90.000000
 51
180.000000
  0
LINE
  8
0
  6
CONTINUOUS
 10
103.394875
 20
417.361664
 11
99.394875
 21
417.361664
  0
LINE
  8
0
  6
CONTINUOUS
 10
95.394875
 20
409.361664
 11
96.394875
 21
408.361664
  0
LINE
  8
0
  6
CONTINUOUS
 10
103.394875
 20
417.361664
 11
104.394875
 21
416.361664
  0
LINE
  8
0
  6
CONTINUOUS
 10
51.394871
 20
409.361664
 11
95.394875
 21
409.361664
  0
LINE
  8
0
  6
CONTINUOUS
 10
43.394871
 20
461.361664
 11
43.394871
 21
417.361664
  0
LINE
  8
0
  6
CENTER
 10
73.394875
 20
475.607910
 11
73.394875
 21
402.915100
  0
LINE
  8
0
  6
CONTINUOUS
 10
43.894871
 20
148.927505
 11
102.394890
 21
148.927505
  0
LINE
  8
0
  6
CONTINUOUS
 10
43.894871
 20
148.927505
 11
43.894871
 21
147.427505
  0
LINE
  8
0
  6
CONTINUOUS
 10
89.894875
 20
148.927505
 11
89.894875
 21
147.427505
  0
LINE
  8
0
  6
CONTINUOUS
 10
42.394871
 20
197.927505
 11
42.394871
 21
150.927505
  0
LINE
  8
0
  6
CONTINUOUS
 10
104.394890
 20
197.927521
 11
104.394890
 21
150.927505
  0
LINE
  8
0
  6
CONTINUOUS
 10
104.394890
 20
150.927505
 11
102.394890
 21
148.927505
  0
LINE
  8
0
  6
CONTINUOUS
 10
42.394871
 20
150.927505
 11
44.394871
 21
148.927505
  0
LINE
  8
0
  6
CONTINUOUS
 10
42.394871
 20
150.927505
 11
104.394890
 21
150.927505
  0
LINE
  8
0
  6
CONTINUOUS
 10
42.394871
 20
160.927505
 11
104.394890
 21
160.927505
  0
LINE
  8
0
  6
CENTER
 10
73.394875
 20
209.483749
 11
73.394875
 21
144.333481
  0
LINE
  8
0
  6
CONTINUOUS
 10
42.394871
 20
161.927505
 11
104.394890
 21
161.927505
  0
LINE
  8
0
  6
CONTINUOUS
 10
43.394871
 20
198.927505
 11
103.394890
 21
198.927521
  0
LINE
  8
0
  6
CONTINUOUS
 10
103.394890
 20
198.927521
 11
104.394890
 21
197.927521
  0
LINE
  8
0
  6
CONTINUOUS
 10
42.394871
 20
197.927505
 11
43.394871
 21
198.927505
  0
LINE
  8
0
  6
CONTINUOUS
 10
42.394871
 20
197.927505
 11
104.394890
 21
197.927521
  0
LINE
  8
0
  6
CENTER
 10
39.769871
 20
181.927521
 11
45.519871
 21
181.927521
  0
LINE
  8
0
  6
CONTINUOUS
 10
41.269871
 20
192.427521
 11
44.394871
 21
192.427521
  0
LINE
  8
0
  6
CONTINUOUS
 10
41.269871
 20
171.427505
 11
44.394871
 21
171.427505
  0
LINE
  8
0
  6
CONTINUOUS
 10
161.394882
 20
410.361694
 11
161.394882
 21
396.361664
  0
TEXT
  8
0
 10
-23.000000
 20
5.000000
 40
4.000000
 41
1.000000
  1
HLMN-32R-1200~1800-T60WC
 50
0.000000
  0
ENDSEC
  0
EOF
