  0
SECTION
  2
HEADER
  9
$CLAYER
  8
1
  9
$LTSCALE
 40
3.0
  0
ENDSEC
  0
SECTION
  2
TABLES
  0
TABLE
  2
LTYPE
 70
     4
  0
LTYPE
  2
CONTINUOUS
  3
solid line
 70
    64
 72
    65
 73
     0
 40
0.0
  0
LTYPE
  2
DASHED
  3
__ __ __ __ __ __ __ __ __ __ __ __ __ __ __
 70
    64
 72
    65
 73
     2
 40
0.75
 49
0.5
 49
-0.25
  0
LTYPE
  2
CENTER
  3
____ _ ____ _ ____ _ ____ _ ____ _ ____ _ ____
 70
    64
 72
    65
 73
     4
 40
2.0
 49
1.25
 49
-0.25
 49
0.25
 49
-0.25
  0
LTYPE
  2
PHANTOM
  3
_____ _ _ _____ _ _ _____ _ _ _____ _ _ ____
 70
    64
 72
    65
 73
     6
 40
2.5
 49
1.25
 49
-0.25
 49
0.25
 49
-0.25
 49
0.25
 49
-0.25
  0
ENDTAB
  0
TABLE
  2
LAYER
 70
     1
  0
LAYER
  2
0
 70
    64
 62
     7
  6
CONTINUOUS
  0
ENDTAB
  0
TABLE
  2
STYLE
 70
     1
  0
STYLE
  2
STANDARD
 70
     0
 40
0.000000
 41
1.000000
 50
0.000000
 71
     0
 42
3.000000
  3
txt
  4
BIGFONT
  0
ENDTAB
  0
ENDSEC
  0
SECTION
  2
BLOCKS
  0
ENDSEC
  0
SECTION
  2
ENTITIES
  0
LINE
  8
0
  6
CENTER
 10
321.281128
 20
543.200439
 11
321.281128
 21
289.700439
  0
LINE
  8
0
  6
CONTINUOUS
 10
397.281342
 20
415.137939
 11
396.495850
 21
460.137939
  0
LINE
  8
0
  6
CONTINUOUS
 10
262.831085
 20
490.137939
 11
305.281128
 21
490.137939
  0
LINE
  8
0
  6
CONTINUOUS
 10
387.224731
 20
484.939148
 11
396.495850
 21
460.137939
  0
ARC
  8
0
  6
CONTINUOUS
 10
379.731171
 20
482.137939
 40
8.000000
 50
20.496618
 51
90.000000
  0
LINE
  8
0
  6
CONTINUOUS
 10
397.281342
 20
415.137939
 11
396.495850
 21
370.137939
  0
LINE
  8
0
  6
CONTINUOUS
 10
262.831085
 20
340.137939
 11
305.281128
 21
340.137939
  0
LINE
  8
0
  6
CONTINUOUS
 10
387.224731
 20
345.336700
 11
396.495850
 21
370.137939
  0
ARC
  8
0
  6
CONTINUOUS
 10
379.731171
 20
348.137939
 40
8.000000
 50
-90.000000
 51
-20.496618
  0
LINE
  8
0
  6
CONTINUOUS
 10
255.337540
 20
484.939148
 11
246.282745
 21
460.716644
  0
ARC
  8
0
  6
CONTINUOUS
 10
262.831085
 20
482.137939
 40
8.000000
 50
90.000000
 51
159.503387
  0
LINE
  8
0
  6
CONTINUOUS
 10
255.337540
 20
345.336700
 11
246.282745
 21
369.559204
  0
ARC
  8
0
  6
CONTINUOUS
 10
262.831085
 20
348.137939
 40
8.000000
 50
200.496613
 51
270.000000
  0
LINE
  8
0
  6
CONTINUOUS
 10
248.617767
 20
460.137939
 11
393.547760
 21
460.137939
  0
LINE
  8
0
  6
CONTINUOUS
 10
393.547760
 20
370.137939
 11
248.617767
 21
370.137939
  0
LINE
  8
0
  6
CONTINUOUS
 10
321.281128
 20
477.137939
 11
356.539948
 21
477.137939
  0
ARC
  8
0
  6
CONTINUOUS
 10
393.547760
 20
457.137939
 40
3.000000
 50
1.000000
 51
90.000000
  0
ARC
  8
0
  6
CONTINUOUS
 10
393.547760
 20
373.137939
 40
3.000000
 50
270.000000
 51
359.000000
  0
LINE
  8
0
  6
CONTINUOUS
 10
350.281128
 20
457.137939
 11
350.281128
 21
373.137939
  0
LINE
  8
0
  6
CONTINUOUS
 10
292.281128
 20
457.137939
 11
292.281128
 21
373.137939
  0
LINE
  8
0
  6
CONTINUOUS
 10
233.281128
 20
479.137939
 11
233.281128
 21
351.137939
  0
LINE
  8
0
  6
CONTINUOUS
 10
235.853455
 20
479.137939
 11
233.281128
 21
479.137939
  0
LINE
  8
0
  6
CONTINUOUS
 10
361.336761
 20
473.548767
 11
362.339966
 21
470.137939
  0
ARC
  8
0
  6
CONTINUOUS
 10
356.539948
 20
472.137939
 40
5.000000
 50
16.389540
 51
90.000000
  0
LINE
  8
0
  6
CONTINUOUS
 10
376.827271
 20
466.530548
 11
377.634979
 21
463.745300
  0
LINE
  8
0
  6
CONTINUOUS
 10
372.025116
 20
470.137939
 11
362.339966
 21
470.137939
  0
LINE
  8
0
  6
CONTINUOUS
 10
321.281128
 20
477.137939
 11
286.022308
 21
477.137939
  0
LINE
  8
0
  6
CONTINUOUS
 10
321.281128
 20
353.137939
 11
356.539948
 21
353.137939
  0
LINE
  8
0
  6
CONTINUOUS
 10
321.281128
 20
353.137939
 11
286.022308
 21
353.137939
  0
LINE
  8
0
  6
CONTINUOUS
 10
340.281128
 20
535.137939
 11
305.281128
 21
535.137939
  0
LINE
  8
0
  6
CONTINUOUS
 10
305.281128
 20
480.137939
 11
305.281128
 21
535.137939
  0
LINE
  8
0
  6
CONTINUOUS
 10
337.281128
 20
480.137939
 11
337.281128
 21
485.137939
  0
LINE
  8
0
  6
CONTINUOUS
 10
303.781128
 20
480.137939
 11
338.781128
 21
480.137939
  0
LINE
  8
0
  6
CONTINUOUS
 10
303.781128
 20
477.137939
 11
303.781128
 21
480.137939
  0
LINE
  8
0
  6
CONTINUOUS
 10
338.781128
 20
477.137939
 11
338.781128
 21
480.137939
  0
LINE
  8
0
  6
CONTINUOUS
 10
340.281128
 20
490.137939
 11
379.731171
 21
490.137939
  0
LINE
  8
0
  6
CONTINUOUS
 10
340.281128
 20
535.137939
 11
340.281128
 21
485.137939
  0
LINE
  8
0
  6
CONTINUOUS
 10
336.479828
 20
485.137939
 11
340.281128
 21
485.137939
  0
LINE
  8
0
  6
CONTINUOUS
 10
336.479828
 20
485.137939
 11
336.479828
 21
535.137939
  0
LINE
  8
0
  6
CONTINUOUS
 10
340.281128
 20
295.137939
 11
305.281128
 21
295.137939
  0
LINE
  8
0
  6
CONTINUOUS
 10
305.281128
 20
350.137939
 11
305.281128
 21
295.137939
  0
LINE
  8
0
  6
CONTINUOUS
 10
337.281128
 20
350.137939
 11
337.281128
 21
345.137939
  0
LINE
  8
0
  6
CONTINUOUS
 10
303.781128
 20
350.137939
 11
338.781128
 21
350.137939
  0
LINE
  8
0
  6
CONTINUOUS
 10
303.781128
 20
353.137939
 11
303.781128
 21
350.137939
  0
LINE
  8
0
  6
CONTINUOUS
 10
338.781128
 20
353.137939
 11
338.781128
 21
350.137939
  0
LINE
  8
0
  6
CONTINUOUS
 10
340.281128
 20
295.137939
 11
340.281128
 21
345.137939
  0
LINE
  8
0
  6
CONTINUOUS
 10
336.479828
 20
345.137939
 11
340.281128
 21
345.137939
  0
LINE
  8
0
  6
CONTINUOUS
 10
336.479828
 20
345.137939
 11
336.479828
 21
295.137939
  0
LINE
  8
0
  6
CONTINUOUS
 10
340.281128
 20
340.137939
 11
379.731171
 21
340.137939
  0
LINE
  8
0
  6
CENTER
 10
358.904816
 20
475.137939
 11
377.842316
 21
475.137939
  0
LINE
  8
0
  6
CENTER
 10
368.781128
 20
465.985596
 11
368.781128
 21
485.485596
  0
ARC
  8
0
  6
CONTINUOUS
 10
368.781128
 20
475.137939
 40
6.500000
 50
-51.240688
 51
230.284866
  0
ARC
  8
0
  6
CONTINUOUS
 10
273.781128
 20
475.137939
 40
6.500000
 50
-50.284863
 51
231.240692
  0
LINE
  8
0
  6
CENTER
 10
273.781128
 20
465.985596
 11
273.781128
 21
485.485596
  0
LINE
  8
0
  6
CENTER
 10
283.657440
 20
475.137939
 11
264.719940
 21
475.137939
  0
LINE
  8
0
  6
CENTER
 10
-16.639999
 20
415.137939
 11
408.702148
 21
415.137939
  0
LINE
  8
0
  6
CONTINUOUS
 10
240.683090
 20
475.432037
 11
243.788132
 21
463.843842
  0
ARC
  8
0
  6
CONTINUOUS
 10
248.617767
 20
465.137939
 40
5.000000
 50
195.000000
 51
270.000000
  0
ARC
  8
0
  6
CONTINUOUS
 10
235.853455
 20
474.137939
 40
5.000000
 50
15.000000
 51
90.000000
  0
LINE
  8
0
  6
CONTINUOUS
 10
235.853455
 20
351.137939
 11
233.281128
 21
351.137939
  0
LINE
  8
0
  6
CONTINUOUS
 10
240.683090
 20
354.843842
 11
243.788132
 21
366.432037
  0
ARC
  8
0
  6
CONTINUOUS
 10
235.853455
 20
356.137939
 40
5.000000
 50
-90.000000
 51
-15.000000
  0
ARC
  8
0
  6
CONTINUOUS
 10
248.617767
 20
365.137939
 40
5.000000
 50
-270.000000
 51
-195.000000
  0
LINE
  8
0
  6
CONTINUOUS
 10
245.280930
 20
415.137939
 11
246.014954
 21
457.190277
  0
LINE
  8
0
  6
CONTINUOUS
 10
245.280930
 20
415.137939
 11
246.014954
 21
373.085571
  0
ARC
  8
0
  6
CONTINUOUS
 10
249.014496
 20
457.137939
 40
3.000000
 50
90.000000
 51
179.000000
  0
ARC
  8
0
  6
CONTINUOUS
 10
249.014496
 20
373.137939
 40
3.000000
 50
-179.000000
 51
-90.000000
  0
ARC
  8
0
  6
CONTINUOUS
 10
372.025116
 20
465.137939
 40
5.000000
 50
16.172159
 51
90.000000
  0
ARC
  8
0
  6
CONTINUOUS
 10
382.437134
 20
465.137939
 40
5.000000
 50
196.172165
 51
270.000000
  0
LINE
  8
0
  6
CONTINUOUS
 10
378.681122
 20
460.137939
 11
378.684357
 21
460.126831
  0
ARC
  8
0
  6
CONTINUOUS
 10
286.022308
 20
472.137939
 40
5.000000
 50
90.000000
 51
163.610458
  0
LINE
  8
0
  6
CONTINUOUS
 10
281.225494
 20
473.548767
 11
280.222321
 21
470.137939
  0
LINE
  8
0
  6
CONTINUOUS
 10
265.734985
 20
466.530548
 11
264.927277
 21
463.745300
  0
LINE
  8
0
  6
CONTINUOUS
 10
270.537140
 20
470.137939
 11
280.222321
 21
470.137939
  0
ARC
  8
0
  6
CONTINUOUS
 10
270.537140
 20
465.137939
 40
5.000000
 50
90.000000
 51
163.827835
  0
ARC
  8
0
  6
CONTINUOUS
 10
260.125122
 20
465.137939
 40
5.000000
 50
-90.000000
 51
-16.172159
  0
LINE
  8
0
  6
CONTINUOUS
 10
263.881134
 20
460.137939
 11
263.877930
 21
460.126831
  0
ARC
  8
0
  6
CONTINUOUS
 10
273.781128
 20
355.137939
 40
6.500000
 50
-231.240692
 51
50.284863
  0
LINE
  8
0
  6
CENTER
 10
283.657440
 20
355.137939
 11
264.719940
 21
355.137939
  0
ARC
  8
0
  6
CONTINUOUS
 10
286.022308
 20
358.137939
 40
5.000000
 50
196.389542
 51
270.000000
  0
LINE
  8
0
  6
CONTINUOUS
 10
281.225494
 20
356.727112
 11
280.222321
 21
360.137939
  0
LINE
  8
0
  6
CONTINUOUS
 10
265.734985
 20
363.745300
 11
264.927277
 21
366.530548
  0
LINE
  8
0
  6
CONTINUOUS
 10
270.537140
 20
360.137939
 11
280.222321
 21
360.137939
  0
ARC
  8
0
  6
CONTINUOUS
 10
270.537140
 20
365.137939
 40
5.000000
 50
-163.827835
 51
-90.000000
  0
ARC
  8
0
  6
CONTINUOUS
 10
260.125122
 20
365.137939
 40
5.000000
 50
16.172159
 51
90.000000
  0
LINE
  8
0
  6
CONTINUOUS
 10
263.881134
 20
370.137939
 11
263.877930
 21
370.149017
  0
LINE
  8
0
  6
CENTER
 10
273.781128
 20
364.290283
 11
273.781128
 21
344.790283
  0
LINE
  8
0
  6
CONTINUOUS
 10
361.336761
 20
356.727112
 11
362.339966
 21
360.137939
  0
ARC
  8
0
  6
CONTINUOUS
 10
356.539948
 20
358.137939
 40
5.000000
 50
-90.000000
 51
-16.389540
  0
LINE
  8
0
  6
CONTINUOUS
 10
376.827271
 20
363.745300
 11
377.634979
 21
366.530548
  0
LINE
  8
0
  6
CONTINUOUS
 10
372.025116
 20
360.137939
 11
362.339966
 21
360.137939
  0
LINE
  8
0
  6
CENTER
 10
358.904816
 20
355.137939
 11
377.842316
 21
355.137939
  0
LINE
  8
0
  6
CENTER
 10
368.781128
 20
364.290283
 11
368.781128
 21
344.790283
  0
ARC
  8
0
  6
CONTINUOUS
 10
368.781128
 20
355.137939
 40
6.500000
 50
-230.284866
 51
51.240688
  0
ARC
  8
0
  6
CONTINUOUS
 10
372.025116
 20
365.137939
 40
5.000000
 50
-90.000000
 51
-16.172159
  0
ARC
  8
0
  6
CONTINUOUS
 10
382.437134
 20
365.137939
 40
5.000000
 50
-270.000000
 51
-196.172165
  0
LINE
  8
0
  6
CONTINUOUS
 10
378.681122
 20
370.137939
 11
378.684357
 21
370.149017
  0
LINE
  8
0
  6
CENTER
 10
321.281128
 20
244.376175
 11
321.281128
 21
6.447120
  0
LINE
  8
0
  6
CENTER
 10
257.396545
 20
157.080002
 11
373.966125
 21
157.080002
  0
LINE
  8
0
  6
CENTER
 10
368.781128
 20
42.355438
 11
368.781128
 21
8.490700
  0
LINE
  8
0
  6
CENTER
 10
273.781128
 20
42.355438
 11
273.781128
 21
8.198760
  0
LINE
  8
0
  6
CONTINUOUS
 10
245.281128
 20
17.080000
 11
397.281128
 21
17.080000
  0
LINE
  8
0
  6
CONTINUOUS
 10
245.281128
 20
35.080002
 11
397.281128
 21
35.080002
  0
LINE
  8
0
  6
CONTINUOUS
 10
397.281128
 20
185.385559
 11
397.281128
 21
17.080000
  0
LINE
  8
0
  6
CONTINUOUS
 10
245.281128
 20
180.580002
 11
245.281128
 21
185.385559
  0
LINE
  8
0
  6
CONTINUOUS
 10
294.777740
 20
222.080002
 11
347.784546
 21
222.080002
  0
LINE
  8
0
  6
CONTINUOUS
 10
240.281128
 20
176.080002
 11
233.281128
 21
176.080002
  0
LINE
  8
0
  6
CONTINUOUS
 10
240.281128
 20
48.080002
 11
233.281128
 21
48.080002
  0
LINE
  8
0
  6
CONTINUOUS
 10
393.831146
 20
191.965622
 11
352.334534
 21
220.660065
  0
LINE
  8
0
  6
CONTINUOUS
 10
248.731094
 20
191.965622
 11
290.227722
 21
220.660065
  0
ARC
  8
0
  6
CONTINUOUS
 10
347.784546
 20
214.080002
 40
8.000000
 50
55.336689
 51
90.000000
  0
ARC
  8
0
  6
CONTINUOUS
 10
389.281128
 20
185.385513
 40
8.000000
 50
0.000000
 51
55.336739
  0
ARC
  8
0
  6
CONTINUOUS
 10
294.777740
 20
214.080002
 40
8.000000
 50
90.000000
 51
124.663696
  0
ARC
  8
0
  6
CONTINUOUS
 10
253.281128
 20
185.385605
 40
8.000000
 50
124.663803
 51
180.000000
  0
LINE
  8
0
  6
CONTINUOUS
 10
245.281128
 20
43.580002
 11
245.281128
 21
17.080000
  0
ARC
  8
0
  6
CONTINUOUS
 10
240.281113
 20
181.080002
 40
5.000000
 50
-90.000000
 51
0.000000
  0
LINE
  8
0
  6
CONTINUOUS
 10
245.281128
 20
43.580002
 11
245.281128
 21
180.580002
  0
ARC
  8
0
  6
CONTINUOUS
 10
240.281158
 20
43.079979
 40
5.000000
 50
0.000000
 51
90.000000
  0
LINE
  8
0
  6
DASHED
 10
267.281128
 20
35.080002
 11
267.281128
 21
17.080000
  0
LINE
  8
0
  6
DASHED
 10
280.281128
 20
35.080002
 11
280.281128
 21
17.080000
  0
LINE
  8
0
  6
DASHED
 10
362.281128
 20
35.080002
 11
362.281128
 21
17.080000
  0
LINE
  8
0
  6
DASHED
 10
375.281128
 20
35.080002
 11
375.281128
 21
17.080000
  0
CIRCLE
  8
0
  6
CONTINUOUS
 10
321.281128
 20
157.080002
 40
39.000000
  0
ARC
  8
0
  6
CONTINUOUS
 10
321.281128
 20
157.080002
 40
44.000000
 50
12.523240
 51
167.476898
  0
ARC
  8
0
  6
CONTINUOUS
 10
295.781128
 20
98.080002
 40
29.000000
 50
167.476898
 51
270.000000
  0
ARC
  8
0
  6
CONTINUOUS
 10
346.781128
 20
98.080002
 40
29.000000
 50
-90.000000
 51
12.523240
  0
ARC
  8
0
  6
CONTINUOUS
 10
295.781128
 20
98.080002
 40
31.900000
 50
167.476898
 51
270.000000
  0
ARC
  8
0
  6
CONTINUOUS
 10
346.781128
 20
98.080002
 40
31.900000
 50
-90.000000
 51
12.523240
  0
ARC
  8
0
  6
CONTINUOUS
 10
321.281128
 20
157.080002
 40
41.099998
 50
-192.523102
 51
12.523240
  0
LINE
  8
0
  6
CONTINUOUS
 10
264.640137
 20
104.997002
 11
278.327942
 21
166.620697
  0
LINE
  8
0
  6
CONTINUOUS
 10
267.471130
 20
104.368187
 11
281.158936
 21
165.991882
  0
LINE
  8
0
  6
CONTINUOUS
 10
295.781128
 20
66.180000
 11
346.781128
 21
66.180000
  0
LINE
  8
0
  6
CONTINUOUS
 10
346.781128
 20
69.080002
 11
295.781128
 21
69.080002
  0
LINE
  8
0
  6
CONTINUOUS
 10
364.234344
 20
166.620773
 11
377.922119
 21
104.997063
  0
LINE
  8
0
  6
CONTINUOUS
 10
361.403320
 20
165.991959
 11
375.091125
 21
104.368240
  0
LINE
  8
0
  6
CONTINUOUS
 10
309.054138
 20
81.080002
 11
304.113739
 21
81.080002
  0
LINE
  8
0
  6
CONTINUOUS
 10
311.781128
 20
89.355400
 11
311.781128
 21
81.080002
  0
LINE
  8
0
  6
CONTINUOUS
 10
316.531128
 20
92.361252
 11
316.531128
 21
95.330002
  0
LINE
  8
0
  6
CONTINUOUS
 10
326.031128
 20
92.361252
 11
326.031128
 21
95.330002
  0
LINE
  8
0
  6
CONTINUOUS
 10
320.353333
 20
93.585861
 11
320.353333
 21
82.638603
  0
LINE
  8
0
  6
CONTINUOUS
 10
322.134735
 20
93.585861
 11
322.134735
 21
82.638603
  0
LINE
  8
0
  6
CONTINUOUS
 10
331.486328
 20
93.585861
 11
331.486328
 21
82.564377
  0
LINE
  8
0
  6
CONTINUOUS
 10
333.119141
 20
87.741142
 11
333.119141
 21
82.564377
  0
LINE
  8
0
  6
CONTINUOUS
 10
309.527130
 20
93.437424
 11
304.949524
 21
93.437424
  0
LINE
  8
0
  6
CONTINUOUS
 10
304.949524
 20
93.437424
 11
303.876923
 21
92.107422
  0
LINE
  8
0
  6
CONTINUOUS
 10
304.005920
 20
95.330002
 11
302.281128
 21
93.121536
  0
LINE
  8
0
  6
CONTINUOUS
 10
303.876923
 20
83.897842
 11
304.966736
 21
82.749924
  0
LINE
  8
0
  6
CONTINUOUS
 10
302.281128
 20
82.929123
 11
304.113739
 21
81.080002
  0
LINE
  8
0
  6
CONTINUOUS
 10
302.281128
 20
93.121536
 11
302.281128
 21
82.929123
  0
LINE
  8
0
  6
CONTINUOUS
 10
303.876923
 20
92.107422
 11
303.876923
 21
83.897842
  0
LINE
  8
0
  6
CONTINUOUS
 10
310.408142
 20
92.585861
 11
309.509125
 21
93.437424
  0
LINE
  8
0
  6
CONTINUOUS
 10
310.393921
 20
95.330002
 11
311.781128
 21
93.790421
  0
LINE
  8
0
  6
CONTINUOUS
 10
310.408142
 20
92.361252
 11
311.781128
 21
92.361252
  0
LINE
  8
0
  6
CONTINUOUS
 10
304.005920
 20
95.330002
 11
310.393921
 21
95.330002
  0
LINE
  8
0
  6
CONTINUOUS
 10
307.921722
 20
89.355400
 11
311.781128
 21
89.355400
  0
LINE
  8
0
  6
CONTINUOUS
 10
310.408142
 20
87.796799
 11
307.921722
 21
87.796799
  0
LINE
  8
0
  6
CONTINUOUS
 10
307.439331
 20
82.749924
 11
304.966736
 21
82.749924
  0
LINE
  8
0
  6
CONTINUOUS
 10
310.408142
 20
86.312424
 11
310.408142
 21
87.499924
  0
ARC
  8
0
  6
CONTINUOUS
 10
307.439331
 20
85.718658
 40
2.968750
 50
-89.999786
 51
0.000109
  0
LINE
  8
0
  6
CONTINUOUS
 10
310.408142
 20
82.215919
 11
310.408142
 21
81.080002
  0
LINE
  8
0
  6
CONTINUOUS
 10
311.781128
 20
93.790421
 11
311.781128
 21
92.361252
  0
LINE
  8
0
  6
CONTINUOUS
 10
310.408142
 20
87.796799
 11
310.408142
 21
85.718658
  0
LINE
  8
0
  6
CONTINUOUS
 10
307.921722
 20
89.355400
 11
307.921722
 21
87.796799
  0
LINE
  8
0
  6
CONTINUOUS
 10
310.408142
 20
81.080002
 11
311.781128
 21
81.080002
  0
LINE
  8
0
  6
CONTINUOUS
 10
310.408142
 20
82.215919
 11
309.054138
 21
81.080002
  0
LINE
  8
0
  6
CONTINUOUS
 10
322.134735
 20
82.638603
 11
322.728333
 21
82.638603
  0
LINE
  8
0
  6
CONTINUOUS
 10
319.648346
 20
82.638603
 11
319.648346
 21
81.080002
  0
LINE
  8
0
  6
CONTINUOUS
 10
322.728333
 20
82.638603
 11
322.728333
 21
81.080002
  0
LINE
  8
0
  6
CONTINUOUS
 10
325.040131
 20
92.361252
 11
326.031128
 21
92.361252
  0
LINE
  8
0
  6
CONTINUOUS
 10
316.531128
 20
92.361252
 11
317.585724
 21
92.361252
  0
LINE
  8
0
  6
CONTINUOUS
 10
316.531128
 20
95.330002
 11
326.031128
 21
95.330002
  0
LINE
  8
0
  6
CONTINUOUS
 10
319.648346
 20
81.080002
 11
322.728333
 21
81.080002
  0
LINE
  8
0
  6
CONTINUOUS
 10
319.648346
 20
82.638603
 11
320.353333
 21
82.638603
  0
ARC
  8
0
  6
CONTINUOUS
 10
336.477325
 20
91.526283
 40
3.803712
 50
-73.981873
 51
90.003510
  0
ARC
  8
0
  6
CONTINUOUS
 10
336.477325
 20
91.526283
 40
2.320524
 50
-82.585274
 51
62.411850
  0
LINE
  8
0
  6
CONTINUOUS
 10
330.781128
 20
95.330002
 11
336.477325
 21
95.330002
  0
LINE
  8
0
  6
CONTINUOUS
 10
336.776947
 20
89.225159
 11
333.119141
 21
89.225159
  0
LINE
  8
0
  6
CONTINUOUS
 10
330.781128
 20
95.330002
 11
330.781128
 21
93.585861
  0
LINE
  8
0
  6
CONTINUOUS
 10
333.119141
 20
93.585861
 11
333.119141
 21
89.225159
  0
LINE
  8
0
  6
CONTINUOUS
 10
337.526947
 20
87.870262
 11
339.881317
 21
82.564377
  0
LINE
  8
0
  6
CONTINUOUS
 10
336.159729
 20
87.741142
 11
338.387726
 21
82.564377
  0
LINE
  8
0
  6
CONTINUOUS
 10
330.781128
 20
82.564377
 11
331.486328
 21
82.564377
  0
LINE
  8
0
  6
CONTINUOUS
 10
333.119141
 20
82.564377
 11
333.768524
 21
82.564377
  0
LINE
  8
0
  6
CONTINUOUS
 10
333.768524
 20
81.080002
 11
330.781128
 21
81.080002
  0
LINE
  8
0
  6
CONTINUOUS
 10
338.091736
 20
82.564377
 11
338.387726
 21
82.564377
  0
LINE
  8
0
  6
CONTINUOUS
 10
339.881317
 20
82.564377
 11
340.281128
 21
82.564377
  0
LINE
  8
0
  6
CONTINUOUS
 10
338.091736
 20
81.080002
 11
340.281128
 21
81.080002
  0
LINE
  8
0
  6
CONTINUOUS
 10
340.281128
 20
82.564377
 11
340.281128
 21
81.080002
  0
LINE
  8
0
  6
CONTINUOUS
 10
338.091736
 20
82.564377
 11
338.091736
 21
81.080002
  0
LINE
  8
0
  6
CONTINUOUS
 10
333.768524
 20
82.564377
 11
333.768524
 21
81.080002
  0
LINE
  8
0
  6
CONTINUOUS
 10
330.781128
 20
82.564377
 11
330.781128
 21
81.080002
  0
LINE
  8
0
  6
CONTINUOUS
 10
318.095917
 20
93.585861
 11
317.585724
 21
92.361252
  0
LINE
  8
0
  6
CONTINUOUS
 10
324.609924
 20
93.585861
 11
325.040131
 21
92.361252
  0
LINE
  8
0
  6
CONTINUOUS
 10
322.134735
 20
93.585861
 11
324.609924
 21
93.585861
  0
LINE
  8
0
  6
CONTINUOUS
 10
320.353333
 20
93.585861
 11
318.095917
 21
93.585861
  0
LINE
  8
0
  6
CONTINUOUS
 10
333.119141
 20
87.741142
 11
336.159729
 21
87.741142
  0
LINE
  8
0
  6
CONTINUOUS
 10
330.781128
 20
93.585861
 11
331.486328
 21
93.585861
  0
LINE
  8
0
  6
CONTINUOUS
 10
333.119141
 20
93.585861
 11
337.552124
 21
93.582977
  0
LINE
  8
0
  6
CONTINUOUS
 10
310.408142
 20
92.585861
 11
310.408142
 21
92.361252
  0
ARC
  8
0
  6
CONTINUOUS
 10
424.989929
 20
112.080002
 40
185.208893
 50
166.001907
 51
193.998093
  0
LINE
  8
0
  6
CONTINUOUS
 10
259.281128
 20
33.013439
 11
259.281128
 21
17.080000
  0
LINE
  8
0
  6
CONTINUOUS
 10
383.281128
 20
33.013439
 11
383.281128
 21
17.080000
  0
LINE
  8
0
  6
CONTINUOUS
 10
345.038544
 20
40.080002
 11
297.523743
 21
40.080002
  0
LINE
  8
0
  6
CONTINUOUS
 10
296.281128
 20
39.144119
 11
296.281128
 21
36.080002
  0
LINE
  8
0
  6
CONTINUOUS
 10
347.159729
 20
39.201321
 11
349.816742
 21
36.544460
  0
LINE
  8
0
  6
CONTINUOUS
 10
295.402527
 20
39.201321
 11
292.745728
 21
36.544498
  0
LINE
  8
0
  6
CONTINUOUS
 10
346.281128
 20
39.144119
 11
346.281128
 21
36.080002
  0
ARC
  8
0
  6
CONTINUOUS
 10
289.210144
 20
40.080002
 40
5.000000
 50
270.000000
 51
315.000092
  0
ARC
  8
0
  6
CONTINUOUS
 10
297.523743
 20
37.080002
 40
3.000000
 50
90.000000
 51
135.000305
  0
ARC
  8
0
  6
CONTINUOUS
 10
295.281128
 20
36.080002
 40
1.000000
 50
-90.000000
 51
0.000000
  0
ARC
  8
0
  6
CONTINUOUS
 10
353.352142
 20
40.080002
 40
5.000000
 50
225.000000
 51
270.000000
  0
ARC
  8
0
  6
CONTINUOUS
 10
345.038544
 20
37.080002
 40
3.000000
 50
45.000160
 51
90.000000
  0
ARC
  8
0
  6
CONTINUOUS
 10
347.281128
 20
36.080002
 40
1.000000
 50
180.000000
 51
270.000000
  0
LINE
  8
0
  6
CONTINUOUS
 10
332.281128
 20
152.080048
 11
332.281128
 21
162.080048
  0
LINE
  8
0
  6
CONTINUOUS
 10
340.281128
 20
152.080063
 11
340.281128
 21
162.080063
  0
LINE
  8
0
  6
CONTINUOUS
 10
340.281128
 20
152.080063
 11
332.281128
 21
152.080048
  0
LINE
  8
0
  6
CONTINUOUS
 10
340.281128
 20
162.080063
 11
332.281128
 21
162.080048
  0
ARC
  8
0
  6
CONTINUOUS
 10
321.281128
 20
157.080002
 40
16.000000
 50
18.209900
 51
341.790100
  0
LINE
  8
0
  6
CENTER
 10
594.303772
 20
1.960000
 11
594.303772
 21
253.805573
  0
LINE
  8
0
  6
CENTER
 10
513.716370
 20
112.080002
 11
674.086365
 21
112.080002
  0
LINE
  8
0
  6
CENTER
 10
459.653748
 20
157.080002
 11
728.480774
 21
157.080002
  0
LINE
  8
0
  6
CENTER
 10
654.303772
 20
43.678741
 11
654.303772
 21
5.779620
  0
LINE
  8
0
  6
CENTER
 10
534.303772
 20
43.678741
 11
534.303772
 21
5.779620
  0
LINE
  8
0
  6
CONTINUOUS
 10
519.303772
 20
17.080000
 11
564.303772
 21
17.080000
  0
LINE
  8
0
  6
CONTINUOUS
 10
624.303772
 20
17.080000
 11
669.303772
 21
17.080000
  0
LINE
  8
0
  6
CONTINUOUS
 10
666.803772
 20
35.080002
 11
643.303772
 21
35.080002
  0
LINE
  8
0
  6
CONTINUOUS
 10
521.803772
 20
35.080002
 11
545.303772
 21
35.080002
  0
LINE
  8
0
  6
CONTINUOUS
 10
639.303772
 20
218.346756
 11
639.303772
 21
17.080000
  0
LINE
  8
0
  6
CONTINUOUS
 10
549.303772
 20
204.821198
 11
549.303772
 21
218.346283
  0
LINE
  8
0
  6
CONTINUOUS
 10
669.303772
 20
32.962181
 11
669.303772
 21
17.080000
  0
LINE
  8
0
  6
CONTINUOUS
 10
519.303772
 20
32.962181
 11
519.303772
 21
17.080000
  0
LINE
  8
0
  6
CONTINUOUS
 10
565.803772
 20
18.580000
 11
622.803772
 21
18.580000
  0
LINE
  8
0
  6
CONTINUOUS
 10
636.356140
 20
221.346298
 11
594.303772
 21
222.080002
  0
LINE
  8
0
  6
CONTINUOUS
 10
552.251343
 20
221.345825
 11
594.303772
 21
222.080002
  0
LINE
  8
0
  6
CONTINUOUS
 10
532.303772
 20
121.821198
 11
532.303772
 21
192.338821
  0
LINE
  8
0
  6
CONTINUOUS
 10
656.303772
 20
121.821198
 11
656.303772
 21
192.338821
  0
LINE
  8
0
  6
CONTINUOUS
 10
539.303772
 20
72.835999
 11
539.303772
 21
160.990402
  0
LINE
  8
0
  6
CONTINUOUS
 10
649.303772
 20
72.836021
 11
649.303772
 21
160.990402
  0
LINE
  8
0
  6
DASHED
 10
660.803772
 20
35.080002
 11
660.803772
 21
17.080000
  0
LINE
  8
0
  6
DASHED
 10
647.803772
 20
35.080002
 11
647.803772
 21
17.080000
  0
LINE
  8
0
  6
DASHED
 10
540.803772
 20
35.080002
 11
540.803772
 21
17.080000
  0
LINE
  8
0
  6
DASHED
 10
527.803772
 20
35.080002
 11
527.803772
 21
17.080000
  0
ARC
  8
0
  6
CONTINUOUS
 10
552.303772
 20
218.346283
 40
3.000000
 50
91.000603
 51
180.000000
  0
ARC
  8
0
  6
CONTINUOUS
 10
636.303772
 20
218.346741
 40
3.000000
 50
0.000000
 51
89.000580
  0
LINE
  8
0
  6
CONTINUOUS
 10
545.714539
 20
200.024353
 11
535.892944
 21
197.135620
  0
LINE
  8
0
  6
CONTINUOUS
 10
535.892944
 20
117.024368
 11
536.432373
 21
116.865692
  0
LINE
  8
0
  6
CONTINUOUS
 10
542.911133
 20
68.033859
 11
545.696350
 21
67.226143
  0
LINE
  8
0
  6
CONTINUOUS
 10
521.392761
 20
35.428162
 11
546.796936
 21
39.662201
  0
LINE
  8
0
  6
CONTINUOUS
 10
667.214722
 20
35.428181
 11
641.810547
 21
39.662220
  0
LINE
  8
0
  6
CONTINUOUS
 10
645.696350
 20
68.033859
 11
642.911133
 21
67.226143
  0
LINE
  8
0
  6
CONTINUOUS
 10
652.714539
 20
117.024368
 11
652.175171
 21
116.865685
  0
LINE
  8
0
  6
CONTINUOUS
 10
652.714539
 20
197.135635
 11
642.892944
 21
200.024353
  0
LINE
  8
0
  6
CONTINUOUS
 10
551.878174
 20
189.580002
 11
636.556335
 21
189.580002
  0
ARC
  8
0
  6
CONTINUOUS
 10
537.303772
 20
192.338837
 40
5.000000
 50
106.389900
 51
180.000000
  0
ARC
  8
0
  6
CONTINUOUS
 10
651.303772
 20
192.338806
 40
5.000000
 50
0.000000
 51
73.610527
  0
ARC
  8
0
  6
CONTINUOUS
 10
537.303772
 20
121.821228
 40
5.000000
 50
180.000000
 51
253.610794
  0
ARC
  8
0
  6
CONTINUOUS
 10
651.303772
 20
121.821182
 40
5.000000
 50
-73.610321
 51
0.000000
  0
ARC
  8
0
  6
CONTINUOUS
 10
644.303772
 20
72.835999
 40
5.000000
 50
-73.827698
 51
0.000000
  0
ARC
  8
0
  6
CONTINUOUS
 10
544.303772
 20
72.836037
 40
5.000000
 50
180.000000
 51
253.828201
  0
LINE
  8
0
  6
CONTINUOUS
 10
549.303772
 20
204.821198
 11
549.303772
 21
17.080000
  0
ARC
  8
0
  6
CONTINUOUS
 10
544.303772
 20
204.821182
 40
5.000000
 50
-73.610229
 51
0.000000
  0
ARC
  8
0
  6
CONTINUOUS
 10
535.303772
 20
113.028214
 40
4.000000
 50
0.000000
 51
73.610649
  0
ARC
  8
0
  6
CONTINUOUS
 10
544.303772
 20
62.423981
 40
5.000000
 50
0.000000
 51
73.827919
  0
ARC
  8
0
  6
CONTINUOUS
 10
644.303772
 20
62.424019
 40
5.000000
 50
106.172501
 51
180.000000
  0
ARC
  8
0
  6
CONTINUOUS
 10
653.303772
 20
113.028252
 40
4.000000
 50
106.389999
 51
180.000000
  0
ARC
  8
0
  6
CONTINUOUS
 10
644.303772
 20
204.821213
 40
5.000000
 50
180.000000
 51
253.610794
  0
ARC
  8
0
  6
CONTINUOUS
 10
546.303772
 20
42.621380
 40
3.000000
 50
-80.537483
 51
0.000000
  0
ARC
  8
0
  6
CONTINUOUS
 10
545.303772
 20
39.079960
 40
4.000000
 50
-90.000000
 51
0.000000
  0
ARC
  8
0
  6
CONTINUOUS
 10
521.803772
 20
32.580021
 40
2.500000
 50
90.000000
 51
180.000000
  0
LINE
  8
0
  6
CONTINUOUS
 10
564.303772
 20
17.080000
 11
565.803772
 21
18.580000
  0
LINE
  8
0
  6
CONTINUOUS
 10
624.303772
 20
17.080000
 11
622.803772
 21
18.580000
  0
ARC
  8
0
  6
CONTINUOUS
 10
642.303772
 20
42.621422
 40
3.000000
 50
180.000000
 51
260.537903
  0
ARC
  8
0
  6
CONTINUOUS
 10
643.303772
 20
39.080002
 40
4.000000
 50
180.000000
 51
270.000000
  0
ARC
  8
0
  6
CONTINUOUS
 10
666.803772
 20
32.580002
 40
2.500000
 50
0.000000
 51
90.000000
  0
LINE
  8
0
  6
CONTINUOUS
 10
714.303772
 20
141.080002
 11
714.303772
 21
173.080002
  0
LINE
  8
0
  6
CONTINUOUS
 10
659.303772
 20
173.080002
 11
714.303772
 21
173.080002
  0
LINE
  8
0
  6
CONTINUOUS
 10
659.303772
 20
141.080002
 11
714.303772
 21
141.080002
  0
LINE
  8
0
  6
CONTINUOUS
 10
659.303772
 20
174.580002
 11
659.303772
 21
139.580002
  0
LINE
  8
0
  6
CONTINUOUS
 10
656.303772
 20
174.580002
 11
659.303772
 21
174.580002
  0
LINE
  8
0
  6
CONTINUOUS
 10
656.303772
 20
139.580002
 11
659.303772
 21
139.580002
  0
ARC
  8
0
  6
CONTINUOUS
 10
669.303772
 20
157.080002
 40
5.000000
 50
90.000000
 51
270.000000
  0
LINE
  8
0
  6
CONTINUOUS
 10
669.303772
 20
162.080002
 11
714.303772
 21
162.080002
  0
LINE
  8
0
  6
CONTINUOUS
 10
669.303772
 20
152.080002
 11
714.303772
 21
152.080002
  0
LINE
  8
0
  6
CONTINUOUS
 10
474.303741
 20
141.080002
 11
474.303741
 21
173.080002
  0
LINE
  8
0
  6
CONTINUOUS
 10
529.303772
 20
173.080002
 11
474.303741
 21
173.080002
  0
LINE
  8
0
  6
CONTINUOUS
 10
529.303772
 20
141.080002
 11
474.303741
 21
141.080002
  0
LINE
  8
0
  6
CONTINUOUS
 10
529.303772
 20
174.580002
 11
529.303772
 21
139.580002
  0
LINE
  8
0
  6
CONTINUOUS
 10
532.303772
 20
174.580002
 11
529.303772
 21
174.580002
  0
LINE
  8
0
  6
CONTINUOUS
 10
532.303772
 20
139.580002
 11
529.303772
 21
139.580002
  0
ARC
  8
0
  6
CONTINUOUS
 10
519.303772
 20
157.080002
 40
5.000000
 50
-90.000000
 51
90.000000
  0
LINE
  8
0
  6
CONTINUOUS
 10
519.303772
 20
162.080002
 11
474.303741
 21
162.080002
  0
LINE
  8
0
  6
CONTINUOUS
 10
519.303772
 20
152.080002
 11
474.303741
 21
152.080002
  0
ARC
  8
0
  6
CONTINUOUS
 10
521.803772
 20
32.962200
 40
2.500000
 50
99.462753
 51
180.000000
  0
ARC
  8
0
  6
CONTINUOUS
 10
666.803772
 20
32.962181
 40
2.500000
 50
0.000000
 51
80.537682
  0
LINE
  8
0
  6
CONTINUOUS
 10
233.281128
 20
176.080002
 11
233.281128
 21
48.080002
  0
ARC
  8
0
  6
CONTINUOUS
 10
594.303772
 20
112.080002
 40
64.000000
 50
165.638489
 51
210.753525
  0
ARC
  8
0
  6
CONTINUOUS
 10
594.303772
 20
112.080002
 40
64.000000
 50
-30.753519
 51
14.361512
  0
ARC
  8
0
  6
CONTINUOUS
 10
553.291565
 20
71.067780
 40
8.000000
 50
211.001404
 51
233.216995
  0
ARC
  8
0
  6
CONTINUOUS
 10
547.303772
 20
63.058659
 40
2.000000
 50
30.947910
 51
53.217121
  0
ARC
  8
0
  6
CONTINUOUS
 10
635.315979
 20
71.067780
 40
8.000000
 50
-53.216999
 51
-31.001400
  0
ARC
  8
0
  6
CONTINUOUS
 10
641.303772
 20
63.058659
 40
2.000000
 50
126.782883
 51
149.052094
  0
LINE
  8
0
  6
CENTER
 10
-11.393750
 20
99.080002
 11
278.167511
 21
99.080002
  0
LINE
  8
0
  6
CENTER
 10
143.107819
 20
112.080002
 11
278.167511
 21
112.080002
  0
LINE
  8
0
  6
CONTINUOUS
 10
224.781128
 20
353.137939
 11
224.781128
 21
477.137939
  0
LINE
  8
0
  6
CONTINUOUS
 10
178.781128
 20
460.137939
 11
222.344742
 21
461.659210
  0
LINE
  8
0
  6
CONTINUOUS
 10
178.781128
 20
370.137939
 11
222.344742
 21
368.616669
  0
LINE
  8
0
  6
CONTINUOUS
 10
178.781128
 20
464.149933
 11
178.781128
 21
366.125916
  0
LINE
  8
0
  6
CONTINUOUS
 10
226.781128
 20
479.137939
 11
233.281128
 21
479.137939
  0
LINE
  8
0
  6
CONTINUOUS
 10
226.781128
 20
351.137939
 11
233.281128
 21
351.137939
  0
LINE
  8
0
  6
CONTINUOUS
 10
217.638138
 20
439.137939
 11
224.753113
 21
439.137939
  0
LINE
  8
0
  6
CONTINUOUS
 10
218.243286
 20
391.137939
 11
224.753113
 21
391.137939
  0
LINE
  8
0
  6
CONTINUOUS
 10
217.638138
 20
436.933441
 11
217.638138
 21
393.220856
  0
LINE
  8
0
  6
CONTINUOUS
 10
169.781128
 20
458.137939
 11
169.781128
 21
444.137939
  0
LINE
  8
0
  6
CONTINUOUS
 10
59.781132
 20
460.137939
 11
178.781128
 21
460.137939
  0
LINE
  8
0
  6
CONTINUOUS
 10
59.781132
 20
370.137939
 11
178.781128
 21
370.137939
  0
LINE
  8
0
  6
CONTINUOUS
 10
59.781132
 20
444.137939
 11
169.781128
 21
444.137939
  0
LINE
  8
0
  6
CONTINUOUS
 10
59.781132
 20
386.137939
 11
169.781128
 21
386.137939
  0
ARC
  8
0
  6
CONTINUOUS
 10
171.781128
 20
458.137939
 40
2.000000
 50
90.000000
 51
180.000000
  0
ARC
  8
0
  6
CONTINUOUS
 10
171.781128
 20
372.137939
 40
2.000000
 50
180.000000
 51
270.000000
  0
LINE
  8
0
  6
CONTINUOUS
 10
178.781128
 20
460.137939
 11
178.781128
 21
370.137939
  0
ARC
  8
0
  6
CONTINUOUS
 10
226.781128
 20
477.137939
 40
2.000000
 50
90.000000
 51
180.000000
  0
ARC
  8
0
  6
CONTINUOUS
 10
226.781128
 20
353.137939
 40
2.000000
 50
180.000000
 51
270.000000
  0
ARC
  8
0
  6
CONTINUOUS
 10
222.257507
 20
464.157684
 40
2.500000
 50
272.000000
 51
359.895721
  0
ARC
  8
0
  6
CONTINUOUS
 10
222.257507
 20
366.118164
 40
2.500000
 50
0.104292
 51
88.000000
  0
LINE
  8
0
  6
CONTINUOUS
 10
224.781128
 20
461.744293
 11
224.753113
 21
461.743317
  0
LINE
  8
0
  6
CONTINUOUS
 10
179.280823
 20
464.667389
 11
224.781128
 21
466.256287
  0
LINE
  8
0
  6
CONTINUOUS
 10
178.781128
 20
464.149933
 11
179.280823
 21
464.667389
  0
LINE
  8
0
  6
CONTINUOUS
 10
179.280823
 20
365.608490
 11
224.781128
 21
364.019562
  0
LINE
  8
0
  6
CONTINUOUS
 10
178.781128
 20
366.125916
 11
179.280823
 21
365.608490
  0
LINE
  8
0
  6
CONTINUOUS
 10
169.781128
 20
142.080002
 11
169.781128
 21
56.079979
  0
LINE
  8
0
  6
CONTINUOUS
 10
59.781132
 20
144.080002
 11
178.781128
 21
144.080002
  0
LINE
  8
0
  6
CONTINUOUS
 10
59.781132
 20
54.080002
 11
178.781128
 21
54.080002
  0
LINE
  8
0
  6
CONTINUOUS
 10
59.781132
 20
133.489304
 11
168.743454
 21
133.489304
  0
LINE
  8
0
  6
CONTINUOUS
 10
59.781132
 20
64.670700
 11
168.743454
 21
64.670700
  0
ARC
  8
0
  6
CONTINUOUS
 10
171.781128
 20
142.080017
 40
2.000000
 50
90.000000
 51
180.000000
  0
ARC
  8
0
  6
CONTINUOUS
 10
171.781128
 20
56.080002
 40
2.000000
 50
180.000000
 51
270.000000
  0
LINE
  8
0
  6
CONTINUOUS
 10
226.781128
 20
176.080109
 11
233.281128
 21
176.080109
  0
LINE
  8
0
  6
CONTINUOUS
 10
226.781128
 20
48.079903
 11
233.281128
 21
48.079903
  0
LINE
  8
0
  6
CONTINUOUS
 10
178.781128
 20
144.080002
 11
224.781128
 21
145.686356
  0
LINE
  8
0
  6
CONTINUOUS
 10
233.281128
 20
52.176819
 11
178.781128
 21
54.080002
  0
ARC
  8
0
  6
CONTINUOUS
 10
226.781158
 20
174.080124
 40
2.000000
 50
90.000000
 51
180.000000
  0
ARC
  8
0
  6
CONTINUOUS
 10
226.781128
 20
50.079903
 40
2.000000
 50
180.260773
 51
270.000000
  0
LINE
  8
0
  6
CONTINUOUS
 10
178.781128
 20
144.080002
 11
178.781128
 21
54.080002
  0
LINE
  8
0
  6
CONTINUOUS
 10
224.048904
 20
151.847763
 11
218.334381
 21
146.133255
  0
LINE
  8
0
  6
CONTINUOUS
 10
178.781128
 20
78.573997
 11
222.781128
 21
78.573997
  0
LINE
  8
0
  6
CONTINUOUS
 10
178.781128
 20
63.561001
 11
233.281128
 21
63.561001
  0
LINE
  8
0
  6
CONTINUOUS
 10
225.349106
 20
71.513000
 11
233.281128
 21
71.513000
  0
LINE
  8
0
  6
CONTINUOUS
 10
224.781128
 20
72.727737
 11
224.781128
 21
174.080124
  0
ARC
  8
0
  6
CONTINUOUS
 10
222.281174
 20
50.059422
 40
2.500000
 50
0.260773
 51
88.000000
  0
ARC
  8
0
  6
CONTINUOUS
 10
222.281128
 20
153.615540
 40
2.500000
 50
-45.000000
 51
0.000000
  0
ARC
  8
0
  6
CONTINUOUS
 10
216.566620
 20
147.901016
 40
2.500000
 50
272.000000
 51
315.000000
  0
LINE
  8
0
  6
CONTINUOUS
 10
50.281132
 20
460.137939
 11
59.781132
 21
460.137939
  0
LINE
  8
0
  6
CONTINUOUS
 10
59.781132
 20
444.137939
 11
50.281132
 21
444.137939
  0
LINE
  8
0
  6
CONTINUOUS
 10
50.281132
 20
370.137939
 11
59.781132
 21
370.137939
  0
LINE
  8
0
  6
CONTINUOUS
 10
59.781132
 20
370.137939
 11
59.781132
 21
408.271912
  0
LINE
  8
0
  6
CONTINUOUS
 10
59.781132
 20
386.137939
 11
50.281132
 21
386.137939
  0
LINE
  8
0
  6
CONTINUOUS
 10
53.281132
 20
409.137939
 11
53.281132
 21
421.137939
  0
LINE
  8
0
  6
CONTINUOUS
 10
60.281132
 20
409.137939
 11
60.281132
 21
421.137939
  0
LINE
  8
0
  6
CONTINUOUS
 10
54.281132
 20
422.137939
 11
59.281132
 21
422.137939
  0
LINE
  8
0
  6
CONTINUOUS
 10
59.281132
 20
408.137939
 11
54.281132
 21
408.137939
  0
ARC
  8
0
  6
CONTINUOUS
 10
59.281132
 20
421.137939
 40
1.000000
 50
0.000000
 51
90.000000
  0
ARC
  8
0
  6
CONTINUOUS
 10
54.281132
 20
421.137939
 40
1.000000
 50
90.000000
 51
180.000000
  0
ARC
  8
0
  6
CONTINUOUS
 10
54.281132
 20
409.137939
 40
1.000000
 50
180.000000
 51
270.000000
  0
ARC
  8
0
  6
CONTINUOUS
 10
59.281132
 20
409.137939
 40
1.000000
 50
-90.000000
 51
0.000000
  0
LINE
  8
0
  6
CONTINUOUS
 10
57.781132
 20
411.637939
 11
57.781132
 21
418.637939
  0
LINE
  8
0
  6
CONTINUOUS
 10
55.781132
 20
411.637939
 11
55.781132
 21
418.637939
  0
ARC
  8
0
  6
CONTINUOUS
 10
56.781132
 20
418.637939
 40
1.000000
 50
90.000000
 51
180.000000
  0
ARC
  8
0
  6
CONTINUOUS
 10
56.781132
 20
418.637939
 40
1.000000
 50
0.000000
 51
90.000000
  0
ARC
  8
0
  6
CONTINUOUS
 10
56.781132
 20
411.637939
 40
1.000000
 50
180.000000
 51
270.000000
  0
ARC
  8
0
  6
CONTINUOUS
 10
56.781132
 20
411.637939
 40
1.000000
 50
-90.000000
 51
0.000000
  0
LINE
  8
0
  6
CONTINUOUS
 10
59.781132
 20
422.003967
 11
59.781132
 21
460.137939
  0
LINE
  8
0
  6
CONTINUOUS
 10
50.281132
 20
462.137939
 11
50.281132
 21
368.137939
  0
LINE
  8
0
  6
CONTINUOUS
 10
50.281132
 20
444.137939
 11
6.306102
 21
444.137939
  0
LINE
  8
0
  6
CONTINUOUS
 10
50.281132
 20
386.137939
 11
6.306102
 21
386.137939
  0
LINE
  8
0
  6
CONTINUOUS
 10
7.781112
 20
462.137939
 11
50.281132
 21
462.137939
  0
LINE
  8
0
  6
CONTINUOUS
 10
7.781112
 20
368.137939
 11
50.281132
 21
368.137939
  0
ARC
  8
0
  6
CONTINUOUS
 10
7.781142
 20
457.137939
 40
5.000000
 50
90.000000
 51
180.000000
  0
ARC
  8
0
  6
CONTINUOUS
 10
7.781112
 20
373.137939
 40
5.000000
 50
180.000000
 51
270.000000
  0
LINE
  8
0
  6
CONTINUOUS
 10
2.781142
 20
457.137939
 11
2.781112
 21
373.137909
  0
LINE
  8
0
  6
CONTINUOUS
 10
50.281132
 20
144.080002
 11
59.781132
 21
144.080002
  0
LINE
  8
0
  6
CONTINUOUS
 10
59.781132
 20
133.489304
 11
50.281132
 21
133.489304
  0
LINE
  8
0
  6
CONTINUOUS
 10
50.281132
 20
54.080002
 11
59.781132
 21
54.080002
  0
LINE
  8
0
  6
CONTINUOUS
 10
59.781132
 20
64.670708
 11
50.281132
 21
64.670708
  0
LINE
  8
0
  6
CONTINUOUS
 10
50.281132
 20
146.080002
 11
50.281132
 21
52.080002
  0
LINE
  8
0
  6
CONTINUOUS
 10
50.281132
 20
128.080002
 11
6.306102
 21
128.080002
  0
LINE
  8
0
  6
CONTINUOUS
 10
50.281132
 20
70.080002
 11
6.306102
 21
70.080002
  0
LINE
  8
0
  6
CONTINUOUS
 10
60.281132
 20
145.580002
 11
60.281132
 21
144.080002
  0
LINE
  8
0
  6
CONTINUOUS
 10
53.281132
 20
145.580002
 11
53.281132
 21
144.080002
  0
LINE
  8
0
  6
CONTINUOUS
 10
53.281132
 20
145.580002
 11
60.281132
 21
145.580002
  0
LINE
  8
0
  6
CONTINUOUS
 10
57.681122
 20
158.580002
 11
57.681122
 21
145.580002
  0
LINE
  8
0
  6
CONTINUOUS
 10
55.881123
 20
159.205002
 11
55.881123
 21
145.580002
  0
LINE
  8
0
  6
CONTINUOUS
 10
54.081123
 20
157.142502
 11
54.081123
 21
145.580002
  0
LINE
  8
0
  6
CONTINUOUS
 10
59.481133
 20
157.955002
 11
59.481133
 21
145.580002
  0
LINE
  8
0
  6
CONTINUOUS
 10
55.881123
 20
159.205002
 11
57.681122
 21
158.580002
  0
LINE
  8
0
  6
CONTINUOUS
 10
54.081123
 20
157.142502
 11
55.881123
 21
157.767502
  0
LINE
  8
0
  6
CONTINUOUS
 10
59.481133
 20
157.955002
 11
57.682133
 21
157.507294
  0
LINE
  8
0
  6
CONTINUOUS
 10
7.781112
 20
146.080002
 11
50.281132
 21
146.080002
  0
LINE
  8
0
  6
CONTINUOUS
 10
7.781112
 20
52.080002
 11
50.281132
 21
52.080002
  0
ARC
  8
0
  6
CONTINUOUS
 10
7.781142
 20
141.080002
 40
5.000000
 50
90.000000
 51
180.000000
  0
ARC
  8
0
  6
CONTINUOUS
 10
7.781112
 20
57.080002
 40
5.000000
 50
180.000000
 51
270.000000
  0
LINE
  8
0
  6
CONTINUOUS
 10
2.781142
 20
141.080002
 11
2.781112
 21
57.079990
  0
LINE
  8
0
  6
CONTINUOUS
 10
59.781132
 20
54.080002
 11
59.781132
 21
144.080002
  0
ARC
  8
0
  6
CONTINUOUS
 10
50.281132
 20
375.868073
 40
4.500000
 50
0.000000
 51
90.000000
  0
ARC
  8
0
  6
CONTINUOUS
 10
50.281132
 20
375.868073
 40
3.000000
 50
0.000000
 51
90.000000
  0
ARC
  8
0
  6
CONTINUOUS
 10
50.281132
 20
375.868073
 40
1.500000
 50
0.000000
 51
90.000000
  0
LINE
  8
0
  6
CONTINUOUS
 10
51.781132
 20
375.868073
 11
51.781132
 21
370.852478
  0
LINE
  8
0
  6
CONTINUOUS
 10
53.281132
 20
375.868073
 11
53.281132
 21
371.368073
  0
LINE
  8
0
  6
CONTINUOUS
 10
54.781132
 20
375.868073
 11
54.781132
 21
371.368073
  0
LINE
  8
0
  6
CONTINUOUS
 10
51.781132
 20
370.868073
 11
53.281132
 21
371.368073
  0
LINE
  8
0
  6
CONTINUOUS
 10
53.281132
 20
371.868073
 11
54.781132
 21
371.368073
  0
ARC
  8
0
  6
CONTINUOUS
 10
50.281132
 20
127.609398
 40
4.500000
 50
0.000000
 51
90.000000
  0
ARC
  8
0
  6
CONTINUOUS
 10
50.281132
 20
127.609398
 40
3.000000
 50
0.000000
 51
90.000000
  0
ARC
  8
0
  6
CONTINUOUS
 10
50.281132
 20
127.609398
 40
1.500000
 50
0.000000
 51
90.000000
  0
LINE
  8
0
  6
CONTINUOUS
 10
51.781132
 20
127.609398
 11
51.781132
 21
122.593803
  0
LINE
  8
0
  6
CONTINUOUS
 10
53.281132
 20
127.609398
 11
53.281132
 21
123.109398
  0
LINE
  8
0
  6
CONTINUOUS
 10
54.781132
 20
127.609398
 11
54.781132
 21
123.109398
  0
LINE
  8
0
  6
CONTINUOUS
 10
51.781132
 20
122.609398
 11
53.281132
 21
123.109398
  0
LINE
  8
0
  6
CONTINUOUS
 10
53.281132
 20
123.609398
 11
54.781132
 21
123.109398
  0
LINE
  8
0
  6
CONTINUOUS
 10
169.781128
 20
386.137939
 11
169.781128
 21
372.137909
  0
TEXT
  8
0
 10
-16.000000
 20
1.000000
 40
4.000000
 41
1.000000
  1
HLMN-32T-1200~1800-T60
 50
0.000000
  0
ENDSEC
  0
EOF
