  0
SECTION
  2
HEADER
  9
$CLAYER
  8
1
  9
$LTSCALE
 40
3.0
  0
ENDSEC
  0
SECTION
  2
TABLES
  0
TABLE
  2
LTYPE
 70
     4
  0
LTYPE
  2
CONTINUOUS
  3
solid line
 70
    64
 72
    65
 73
     0
 40
0.0
  0
LTYPE
  2
DASHED
  3
__ __ __ __ __ __ __ __ __ __ __ __ __ __ __
 70
    64
 72
    65
 73
     2
 40
0.75
 49
0.5
 49
-0.25
  0
LTYPE
  2
CENTER
  3
____ _ ____ _ ____ _ ____ _ ____ _ ____ _ ____
 70
    64
 72
    65
 73
     4
 40
2.0
 49
1.25
 49
-0.25
 49
0.25
 49
-0.25
  0
LTYPE
  2
PHANTOM
  3
_____ _ _ _____ _ _ _____ _ _ _____ _ _ ____
 70
    64
 72
    65
 73
     6
 40
2.5
 49
1.25
 49
-0.25
 49
0.25
 49
-0.25
 49
0.25
 49
-0.25
  0
ENDTAB
  0
TABLE
  2
LAYER
 70
     1
  0
LAYER
  2
0
 70
    64
 62
     7
  6
CONTINUOUS
  0
ENDTAB
  0
TABLE
  2
STYLE
 70
     1
  0
STYLE
  2
STANDARD
 70
     0
 40
0.000000
 41
1.000000
 50
0.000000
 71
     0
 42
3.000000
  3
txt
  4
BIGFONT
  0
ENDTAB
  0
ENDSEC
  0
SECTION
  2
BLOCKS
  0
ENDSEC
  0
SECTION
  2
ENTITIES
  0
LINE
  8
0
  6
CENTER
 10
319.572388
 20
559.366272
 11
319.572388
 21
300.739990
  0
LINE
  8
0
  6
CONTINUOUS
 10
395.572571
 20
431.303741
 11
394.787109
 21
476.303741
  0
LINE
  8
0
  6
CONTINUOUS
 10
261.122314
 20
506.303741
 11
303.572388
 21
506.303741
  0
LINE
  8
0
  6
CONTINUOUS
 10
385.515961
 20
501.104980
 11
394.787109
 21
476.303741
  0
ARC
  8
0
  6
CONTINUOUS
 10
378.022430
 20
498.303741
 40
8.000000
 50
20.496618
 51
90.000000
  0
LINE
  8
0
  6
CONTINUOUS
 10
395.572571
 20
431.303741
 11
394.787109
 21
386.303741
  0
LINE
  8
0
  6
CONTINUOUS
 10
261.122314
 20
356.303741
 11
303.572388
 21
356.303741
  0
LINE
  8
0
  6
CONTINUOUS
 10
385.515961
 20
361.502533
 11
394.787109
 21
386.303741
  0
ARC
  8
0
  6
CONTINUOUS
 10
378.022430
 20
364.303741
 40
8.000000
 50
-90.000000
 51
-20.496618
  0
LINE
  8
0
  6
CONTINUOUS
 10
253.628784
 20
501.104980
 11
244.573990
 21
476.882477
  0
ARC
  8
0
  6
CONTINUOUS
 10
261.122314
 20
498.303741
 40
8.000000
 50
90.000000
 51
159.503387
  0
LINE
  8
0
  6
CONTINUOUS
 10
253.628784
 20
361.502533
 11
244.573990
 21
385.725037
  0
ARC
  8
0
  6
CONTINUOUS
 10
261.122314
 20
364.303741
 40
8.000000
 50
200.496613
 51
270.000000
  0
LINE
  8
0
  6
CONTINUOUS
 10
246.909012
 20
476.303741
 11
391.839020
 21
476.303741
  0
LINE
  8
0
  6
CONTINUOUS
 10
391.839020
 20
386.303741
 11
246.909012
 21
386.303741
  0
LINE
  8
0
  6
CONTINUOUS
 10
319.572388
 20
493.303741
 11
354.831177
 21
493.303741
  0
ARC
  8
0
  6
CONTINUOUS
 10
391.839020
 20
473.303741
 40
3.000000
 50
1.000000
 51
90.000000
  0
ARC
  8
0
  6
CONTINUOUS
 10
391.839020
 20
389.303741
 40
3.000000
 50
270.000000
 51
359.000000
  0
LINE
  8
0
  6
CONTINUOUS
 10
348.572388
 20
473.303741
 11
348.572388
 21
389.303741
  0
LINE
  8
0
  6
CONTINUOUS
 10
290.572388
 20
473.303741
 11
290.572388
 21
389.303741
  0
LINE
  8
0
  6
CONTINUOUS
 10
231.572388
 20
495.303741
 11
231.572388
 21
367.303741
  0
LINE
  8
0
  6
CONTINUOUS
 10
234.144714
 20
495.303741
 11
231.572388
 21
495.303741
  0
LINE
  8
0
  6
CONTINUOUS
 10
359.628021
 20
489.714569
 11
360.631195
 21
486.303741
  0
ARC
  8
0
  6
CONTINUOUS
 10
354.831177
 20
488.303741
 40
5.000000
 50
16.389540
 51
90.000000
  0
LINE
  8
0
  6
CONTINUOUS
 10
375.118530
 20
482.696381
 11
375.926239
 21
479.911133
  0
LINE
  8
0
  6
CONTINUOUS
 10
370.316376
 20
486.303741
 11
360.631195
 21
486.303741
  0
LINE
  8
0
  6
CONTINUOUS
 10
319.572388
 20
493.303741
 11
284.313568
 21
493.303741
  0
LINE
  8
0
  6
CONTINUOUS
 10
319.572388
 20
369.303741
 11
354.831177
 21
369.303741
  0
LINE
  8
0
  6
CONTINUOUS
 10
319.572388
 20
369.303741
 11
284.313568
 21
369.303741
  0
LINE
  8
0
  6
CONTINUOUS
 10
338.572388
 20
551.303772
 11
303.572388
 21
551.303772
  0
LINE
  8
0
  6
CONTINUOUS
 10
303.572388
 20
496.303741
 11
303.572388
 21
551.303772
  0
LINE
  8
0
  6
CONTINUOUS
 10
335.572388
 20
496.303741
 11
335.572388
 21
501.303741
  0
LINE
  8
0
  6
CONTINUOUS
 10
302.072388
 20
496.303741
 11
337.072388
 21
496.303741
  0
LINE
  8
0
  6
CONTINUOUS
 10
302.072388
 20
493.303741
 11
302.072388
 21
496.303741
  0
LINE
  8
0
  6
CONTINUOUS
 10
337.072388
 20
493.303741
 11
337.072388
 21
496.303741
  0
LINE
  8
0
  6
CONTINUOUS
 10
338.572388
 20
506.303741
 11
378.022430
 21
506.303741
  0
LINE
  8
0
  6
CONTINUOUS
 10
338.572388
 20
551.303772
 11
338.572388
 21
501.303741
  0
LINE
  8
0
  6
CONTINUOUS
 10
334.771057
 20
501.303741
 11
338.572388
 21
501.303741
  0
LINE
  8
0
  6
CONTINUOUS
 10
334.771057
 20
501.303741
 11
334.771057
 21
551.303772
  0
LINE
  8
0
  6
CONTINUOUS
 10
338.572388
 20
311.303741
 11
303.572388
 21
311.303741
  0
LINE
  8
0
  6
CONTINUOUS
 10
303.572388
 20
366.303741
 11
303.572388
 21
311.303741
  0
LINE
  8
0
  6
CONTINUOUS
 10
335.572388
 20
366.303741
 11
335.572388
 21
361.303741
  0
LINE
  8
0
  6
CONTINUOUS
 10
302.072388
 20
366.303741
 11
337.072388
 21
366.303741
  0
LINE
  8
0
  6
CONTINUOUS
 10
302.072388
 20
369.303741
 11
302.072388
 21
366.303741
  0
LINE
  8
0
  6
CONTINUOUS
 10
337.072388
 20
369.303741
 11
337.072388
 21
366.303741
  0
LINE
  8
0
  6
CONTINUOUS
 10
338.572388
 20
311.303741
 11
338.572388
 21
361.303741
  0
LINE
  8
0
  6
CONTINUOUS
 10
334.771057
 20
361.303741
 11
338.572388
 21
361.303741
  0
LINE
  8
0
  6
CONTINUOUS
 10
334.771057
 20
361.303741
 11
334.771057
 21
311.303741
  0
LINE
  8
0
  6
CONTINUOUS
 10
338.572388
 20
356.303741
 11
378.022430
 21
356.303741
  0
LINE
  8
0
  6
CENTER
 10
357.196045
 20
491.303741
 11
376.133545
 21
491.303741
  0
LINE
  8
0
  6
CENTER
 10
367.072388
 20
482.151398
 11
367.072388
 21
501.651398
  0
ARC
  8
0
  6
CONTINUOUS
 10
367.072388
 20
491.303741
 40
6.500000
 50
-51.240688
 51
230.284866
  0
ARC
  8
0
  6
CONTINUOUS
 10
272.072388
 20
491.303741
 40
6.500000
 50
-50.284863
 51
231.240692
  0
LINE
  8
0
  6
CENTER
 10
272.072388
 20
482.151398
 11
272.072388
 21
501.651398
  0
LINE
  8
0
  6
CENTER
 10
281.948700
 20
491.303741
 11
263.011200
 21
491.303741
  0
LINE
  8
0
  6
CENTER
 10
-18.348749
 20
431.303741
 11
406.993408
 21
431.303741
  0
LINE
  8
0
  6
CONTINUOUS
 10
238.974335
 20
491.597839
 11
242.079391
 21
480.009644
  0
ARC
  8
0
  6
CONTINUOUS
 10
246.909012
 20
481.303741
 40
5.000000
 50
195.000000
 51
270.000000
  0
ARC
  8
0
  6
CONTINUOUS
 10
234.144714
 20
490.303741
 40
5.000000
 50
15.000000
 51
90.000000
  0
LINE
  8
0
  6
CONTINUOUS
 10
234.144714
 20
367.303741
 11
231.572388
 21
367.303741
  0
LINE
  8
0
  6
CONTINUOUS
 10
238.974335
 20
371.009644
 11
242.079391
 21
382.597839
  0
ARC
  8
0
  6
CONTINUOUS
 10
234.144714
 20
372.303741
 40
5.000000
 50
-90.000000
 51
-15.000000
  0
ARC
  8
0
  6
CONTINUOUS
 10
246.909012
 20
381.303741
 40
5.000000
 50
-270.000000
 51
-195.000000
  0
LINE
  8
0
  6
CONTINUOUS
 10
243.572189
 20
431.303741
 11
244.306213
 21
473.356110
  0
LINE
  8
0
  6
CONTINUOUS
 10
243.572189
 20
431.303741
 11
244.306213
 21
389.251404
  0
ARC
  8
0
  6
CONTINUOUS
 10
247.305756
 20
473.303741
 40
3.000000
 50
90.000000
 51
179.000000
  0
ARC
  8
0
  6
CONTINUOUS
 10
247.305756
 20
389.303741
 40
3.000000
 50
-179.000000
 51
-90.000000
  0
ARC
  8
0
  6
CONTINUOUS
 10
370.316376
 20
481.303741
 40
5.000000
 50
16.172159
 51
90.000000
  0
ARC
  8
0
  6
CONTINUOUS
 10
380.728394
 20
481.303741
 40
5.000000
 50
196.172165
 51
270.000000
  0
LINE
  8
0
  6
CONTINUOUS
 10
376.972382
 20
476.303741
 11
376.975586
 21
476.292664
  0
ARC
  8
0
  6
CONTINUOUS
 10
284.313568
 20
488.303741
 40
5.000000
 50
90.000000
 51
163.610458
  0
LINE
  8
0
  6
CONTINUOUS
 10
279.516754
 20
489.714569
 11
278.513550
 21
486.303741
  0
LINE
  8
0
  6
CONTINUOUS
 10
264.026245
 20
482.696381
 11
263.218536
 21
479.911133
  0
LINE
  8
0
  6
CONTINUOUS
 10
268.828400
 20
486.303741
 11
278.513550
 21
486.303741
  0
ARC
  8
0
  6
CONTINUOUS
 10
268.828400
 20
481.303741
 40
5.000000
 50
90.000000
 51
163.827835
  0
ARC
  8
0
  6
CONTINUOUS
 10
258.416382
 20
481.303741
 40
5.000000
 50
-90.000000
 51
-16.172159
  0
LINE
  8
0
  6
CONTINUOUS
 10
262.172394
 20
476.303741
 11
262.169159
 21
476.292664
  0
ARC
  8
0
  6
CONTINUOUS
 10
272.072388
 20
371.303741
 40
6.500000
 50
-231.240692
 51
50.284863
  0
LINE
  8
0
  6
CENTER
 10
281.948700
 20
371.303741
 11
263.011200
 21
371.303741
  0
ARC
  8
0
  6
CONTINUOUS
 10
284.313568
 20
374.303741
 40
5.000000
 50
196.389542
 51
270.000000
  0
LINE
  8
0
  6
CONTINUOUS
 10
279.516754
 20
372.892914
 11
278.513550
 21
376.303741
  0
LINE
  8
0
  6
CONTINUOUS
 10
264.026245
 20
379.911133
 11
263.218536
 21
382.696381
  0
LINE
  8
0
  6
CONTINUOUS
 10
268.828400
 20
376.303741
 11
278.513550
 21
376.303741
  0
ARC
  8
0
  6
CONTINUOUS
 10
268.828400
 20
381.303741
 40
5.000000
 50
-163.827835
 51
-90.000000
  0
ARC
  8
0
  6
CONTINUOUS
 10
258.416382
 20
381.303741
 40
5.000000
 50
16.172159
 51
90.000000
  0
LINE
  8
0
  6
CONTINUOUS
 10
262.172394
 20
386.303741
 11
262.169159
 21
386.314850
  0
LINE
  8
0
  6
CENTER
 10
272.072388
 20
380.456085
 11
272.072388
 21
360.956085
  0
LINE
  8
0
  6
CONTINUOUS
 10
359.628021
 20
372.892914
 11
360.631195
 21
376.303741
  0
ARC
  8
0
  6
CONTINUOUS
 10
354.831177
 20
374.303741
 40
5.000000
 50
-90.000000
 51
-16.389540
  0
LINE
  8
0
  6
CONTINUOUS
 10
375.118530
 20
379.911133
 11
375.926239
 21
382.696381
  0
LINE
  8
0
  6
CONTINUOUS
 10
370.316376
 20
376.303741
 11
360.631195
 21
376.303741
  0
LINE
  8
0
  6
CENTER
 10
357.196045
 20
371.303741
 11
376.133545
 21
371.303741
  0
LINE
  8
0
  6
CENTER
 10
367.072388
 20
380.456085
 11
367.072388
 21
360.956085
  0
ARC
  8
0
  6
CONTINUOUS
 10
367.072388
 20
371.303741
 40
6.500000
 50
-230.284866
 51
51.240688
  0
ARC
  8
0
  6
CONTINUOUS
 10
370.316376
 20
381.303741
 40
5.000000
 50
-90.000000
 51
-16.172159
  0
ARC
  8
0
  6
CONTINUOUS
 10
380.728394
 20
381.303741
 40
5.000000
 50
-270.000000
 51
-196.172165
  0
LINE
  8
0
  6
CONTINUOUS
 10
376.972382
 20
386.303741
 11
376.975586
 21
386.314850
  0
LINE
  8
0
  6
CENTER
 10
319.572388
 20
239.179932
 11
319.572388
 21
1.250870
  0
LINE
  8
0
  6
CENTER
 10
255.687775
 20
151.883743
 11
372.257385
 21
151.883743
  0
LINE
  8
0
  6
CENTER
 10
367.072388
 20
37.159191
 11
367.072388
 21
3.294450
  0
LINE
  8
0
  6
CENTER
 10
272.072388
 20
37.159191
 11
272.072388
 21
3.002510
  0
LINE
  8
0
  6
CONTINUOUS
 10
243.572388
 20
11.883750
 11
395.572388
 21
11.883750
  0
LINE
  8
0
  6
CONTINUOUS
 10
243.572388
 20
29.883751
 11
395.572388
 21
29.883751
  0
LINE
  8
0
  6
CONTINUOUS
 10
395.572388
 20
180.189316
 11
395.572388
 21
11.883750
  0
LINE
  8
0
  6
CONTINUOUS
 10
243.572388
 20
175.383743
 11
243.572388
 21
180.189316
  0
LINE
  8
0
  6
CONTINUOUS
 10
293.068970
 20
216.883743
 11
346.075775
 21
216.883743
  0
LINE
  8
0
  6
CONTINUOUS
 10
238.572388
 20
170.883743
 11
231.572388
 21
170.883743
  0
LINE
  8
0
  6
CONTINUOUS
 10
238.572388
 20
42.883751
 11
231.572388
 21
42.883751
  0
LINE
  8
0
  6
CONTINUOUS
 10
392.122375
 20
186.769363
 11
350.625793
 21
215.463806
  0
LINE
  8
0
  6
CONTINUOUS
 10
247.022339
 20
186.769363
 11
288.518982
 21
215.463806
  0
ARC
  8
0
  6
CONTINUOUS
 10
346.075775
 20
208.883743
 40
8.000000
 50
55.336689
 51
90.000000
  0
ARC
  8
0
  6
CONTINUOUS
 10
387.572388
 20
180.189270
 40
8.000000
 50
0.000000
 51
55.336739
  0
ARC
  8
0
  6
CONTINUOUS
 10
293.068970
 20
208.883743
 40
8.000000
 50
90.000000
 51
124.663696
  0
ARC
  8
0
  6
CONTINUOUS
 10
251.572388
 20
180.189346
 40
8.000000
 50
124.663803
 51
180.000000
  0
LINE
  8
0
  6
CONTINUOUS
 10
243.572388
 20
38.383751
 11
243.572388
 21
11.883750
  0
ARC
  8
0
  6
CONTINUOUS
 10
238.572357
 20
175.883743
 40
5.000000
 50
-90.000000
 51
0.000000
  0
LINE
  8
0
  6
CONTINUOUS
 10
243.572388
 20
38.383751
 11
243.572388
 21
175.383743
  0
ARC
  8
0
  6
CONTINUOUS
 10
238.572403
 20
37.883732
 40
5.000000
 50
0.000000
 51
90.000000
  0
LINE
  8
0
  6
DASHED
 10
265.572388
 20
29.883751
 11
265.572388
 21
11.883750
  0
LINE
  8
0
  6
DASHED
 10
278.572388
 20
29.883751
 11
278.572388
 21
11.883750
  0
LINE
  8
0
  6
DASHED
 10
360.572388
 20
29.883751
 11
360.572388
 21
11.883750
  0
LINE
  8
0
  6
DASHED
 10
373.572388
 20
29.883751
 11
373.572388
 21
11.883750
  0
CIRCLE
  8
0
  6
CONTINUOUS
 10
319.572388
 20
151.883743
 40
39.000000
  0
ARC
  8
0
  6
CONTINUOUS
 10
319.572388
 20
151.883743
 40
44.000000
 50
12.523240
 51
167.476898
  0
ARC
  8
0
  6
CONTINUOUS
 10
294.072388
 20
92.883751
 40
29.000000
 50
167.476898
 51
270.000000
  0
ARC
  8
0
  6
CONTINUOUS
 10
345.072388
 20
92.883751
 40
29.000000
 50
-90.000000
 51
12.523240
  0
ARC
  8
0
  6
CONTINUOUS
 10
294.072388
 20
92.883751
 40
31.900000
 50
167.476898
 51
270.000000
  0
ARC
  8
0
  6
CONTINUOUS
 10
345.072388
 20
92.883751
 40
31.900000
 50
-90.000000
 51
12.523240
  0
ARC
  8
0
  6
CONTINUOUS
 10
319.572388
 20
151.883743
 40
41.099998
 50
-192.523102
 51
12.523240
  0
LINE
  8
0
  6
CONTINUOUS
 10
262.931396
 20
99.800751
 11
276.619171
 21
161.424454
  0
LINE
  8
0
  6
CONTINUOUS
 10
265.762390
 20
99.171936
 11
279.450195
 21
160.795624
  0
LINE
  8
0
  6
CONTINUOUS
 10
294.072388
 20
60.983749
 11
345.072388
 21
60.983749
  0
LINE
  8
0
  6
CONTINUOUS
 10
345.072388
 20
63.883751
 11
294.072388
 21
63.883751
  0
LINE
  8
0
  6
CONTINUOUS
 10
362.525574
 20
161.424530
 11
376.213379
 21
99.800812
  0
LINE
  8
0
  6
CONTINUOUS
 10
359.694580
 20
160.795715
 11
373.382385
 21
99.171989
  0
LINE
  8
0
  6
CONTINUOUS
 10
307.345367
 20
75.883751
 11
302.404968
 21
75.883751
  0
LINE
  8
0
  6
CONTINUOUS
 10
310.072388
 20
84.159149
 11
310.072388
 21
75.883751
  0
LINE
  8
0
  6
CONTINUOUS
 10
314.822388
 20
87.165001
 11
314.822388
 21
90.133751
  0
LINE
  8
0
  6
CONTINUOUS
 10
324.322388
 20
87.165001
 11
324.322388
 21
90.133751
  0
LINE
  8
0
  6
CONTINUOUS
 10
318.644592
 20
88.389610
 11
318.644592
 21
77.442352
  0
LINE
  8
0
  6
CONTINUOUS
 10
320.425995
 20
88.389610
 11
320.425995
 21
77.442352
  0
LINE
  8
0
  6
CONTINUOUS
 10
329.777588
 20
88.389610
 11
329.777588
 21
77.368134
  0
LINE
  8
0
  6
CONTINUOUS
 10
331.410370
 20
82.544891
 11
331.410370
 21
77.368134
  0
LINE
  8
0
  6
CONTINUOUS
 10
307.818390
 20
88.241173
 11
303.240784
 21
88.241173
  0
LINE
  8
0
  6
CONTINUOUS
 10
303.240784
 20
88.241173
 11
302.168182
 21
86.911171
  0
LINE
  8
0
  6
CONTINUOUS
 10
302.297180
 20
90.133751
 11
300.572388
 21
87.925285
  0
LINE
  8
0
  6
CONTINUOUS
 10
302.168182
 20
78.701591
 11
303.257996
 21
77.553673
  0
LINE
  8
0
  6
CONTINUOUS
 10
300.572388
 20
77.732872
 11
302.404968
 21
75.883751
  0
LINE
  8
0
  6
CONTINUOUS
 10
300.572388
 20
87.925285
 11
300.572388
 21
77.732872
  0
LINE
  8
0
  6
CONTINUOUS
 10
302.168182
 20
86.911171
 11
302.168182
 21
78.701591
  0
LINE
  8
0
  6
CONTINUOUS
 10
308.699371
 20
87.389610
 11
307.800385
 21
88.241173
  0
LINE
  8
0
  6
CONTINUOUS
 10
308.685181
 20
90.133751
 11
310.072388
 21
88.594170
  0
LINE
  8
0
  6
CONTINUOUS
 10
308.699371
 20
87.165001
 11
310.072388
 21
87.165001
  0
LINE
  8
0
  6
CONTINUOUS
 10
302.297180
 20
90.133751
 11
308.685181
 21
90.133751
  0
LINE
  8
0
  6
CONTINUOUS
 10
306.212982
 20
84.159149
 11
310.072388
 21
84.159149
  0
LINE
  8
0
  6
CONTINUOUS
 10
308.699371
 20
82.600548
 11
306.212982
 21
82.600548
  0
LINE
  8
0
  6
CONTINUOUS
 10
305.730591
 20
77.553673
 11
303.257996
 21
77.553673
  0
LINE
  8
0
  6
CONTINUOUS
 10
308.699371
 20
81.116173
 11
308.699371
 21
82.303673
  0
ARC
  8
0
  6
CONTINUOUS
 10
305.730591
 20
80.522408
 40
2.968750
 50
-89.999786
 51
0.000109
  0
LINE
  8
0
  6
CONTINUOUS
 10
308.699371
 20
77.019669
 11
308.699371
 21
75.883751
  0
LINE
  8
0
  6
CONTINUOUS
 10
310.072388
 20
88.594170
 11
310.072388
 21
87.165001
  0
LINE
  8
0
  6
CONTINUOUS
 10
308.699371
 20
82.600548
 11
308.699371
 21
80.522408
  0
LINE
  8
0
  6
CONTINUOUS
 10
306.212982
 20
84.159149
 11
306.212982
 21
82.600548
  0
LINE
  8
0
  6
CONTINUOUS
 10
308.699371
 20
75.883751
 11
310.072388
 21
75.883751
  0
LINE
  8
0
  6
CONTINUOUS
 10
308.699371
 20
77.019669
 11
307.345367
 21
75.883751
  0
LINE
  8
0
  6
CONTINUOUS
 10
320.425995
 20
77.442352
 11
321.019592
 21
77.442352
  0
LINE
  8
0
  6
CONTINUOUS
 10
317.939575
 20
77.442352
 11
317.939575
 21
75.883751
  0
LINE
  8
0
  6
CONTINUOUS
 10
321.019592
 20
77.442352
 11
321.019592
 21
75.883751
  0
LINE
  8
0
  6
CONTINUOUS
 10
323.331390
 20
87.165001
 11
324.322388
 21
87.165001
  0
LINE
  8
0
  6
CONTINUOUS
 10
314.822388
 20
87.165001
 11
315.876984
 21
87.165001
  0
LINE
  8
0
  6
CONTINUOUS
 10
314.822388
 20
90.133751
 11
324.322388
 21
90.133751
  0
LINE
  8
0
  6
CONTINUOUS
 10
317.939575
 20
75.883751
 11
321.019592
 21
75.883751
  0
LINE
  8
0
  6
CONTINUOUS
 10
317.939575
 20
77.442352
 11
318.644592
 21
77.442352
  0
ARC
  8
0
  6
CONTINUOUS
 10
334.768585
 20
86.330032
 40
3.803712
 50
-73.981873
 51
90.003510
  0
ARC
  8
0
  6
CONTINUOUS
 10
334.768585
 20
86.330032
 40
2.320524
 50
-82.585274
 51
62.411850
  0
LINE
  8
0
  6
CONTINUOUS
 10
329.072388
 20
90.133751
 11
334.768585
 21
90.133751
  0
LINE
  8
0
  6
CONTINUOUS
 10
335.068176
 20
84.028908
 11
331.410370
 21
84.028908
  0
LINE
  8
0
  6
CONTINUOUS
 10
329.072388
 20
90.133751
 11
329.072388
 21
88.389610
  0
LINE
  8
0
  6
CONTINUOUS
 10
331.410370
 20
88.389610
 11
331.410370
 21
84.028908
  0
LINE
  8
0
  6
CONTINUOUS
 10
335.818176
 20
82.674011
 11
338.172577
 21
77.368134
  0
LINE
  8
0
  6
CONTINUOUS
 10
334.450989
 20
82.544891
 11
336.678986
 21
77.368134
  0
LINE
  8
0
  6
CONTINUOUS
 10
329.072388
 20
77.368134
 11
329.777588
 21
77.368134
  0
LINE
  8
0
  6
CONTINUOUS
 10
331.410370
 20
77.368134
 11
332.059784
 21
77.368134
  0
LINE
  8
0
  6
CONTINUOUS
 10
332.059784
 20
75.883751
 11
329.072388
 21
75.883751
  0
LINE
  8
0
  6
CONTINUOUS
 10
336.382996
 20
77.368134
 11
336.678986
 21
77.368134
  0
LINE
  8
0
  6
CONTINUOUS
 10
338.172577
 20
77.368134
 11
338.572388
 21
77.368134
  0
LINE
  8
0
  6
CONTINUOUS
 10
336.382996
 20
75.883751
 11
338.572388
 21
75.883751
  0
LINE
  8
0
  6
CONTINUOUS
 10
338.572388
 20
77.368134
 11
338.572388
 21
75.883751
  0
LINE
  8
0
  6
CONTINUOUS
 10
336.382996
 20
77.368134
 11
336.382996
 21
75.883751
  0
LINE
  8
0
  6
CONTINUOUS
 10
332.059784
 20
77.368134
 11
332.059784
 21
75.883751
  0
LINE
  8
0
  6
CONTINUOUS
 10
329.072388
 20
77.368134
 11
329.072388
 21
75.883751
  0
LINE
  8
0
  6
CONTINUOUS
 10
316.387177
 20
88.389610
 11
315.876984
 21
87.165001
  0
LINE
  8
0
  6
CONTINUOUS
 10
322.901184
 20
88.389610
 11
323.331390
 21
87.165001
  0
LINE
  8
0
  6
CONTINUOUS
 10
320.425995
 20
88.389610
 11
322.901184
 21
88.389610
  0
LINE
  8
0
  6
CONTINUOUS
 10
318.644592
 20
88.389610
 11
316.387177
 21
88.389610
  0
LINE
  8
0
  6
CONTINUOUS
 10
331.410370
 20
82.544891
 11
334.450989
 21
82.544891
  0
LINE
  8
0
  6
CONTINUOUS
 10
329.072388
 20
88.389610
 11
329.777588
 21
88.389610
  0
LINE
  8
0
  6
CONTINUOUS
 10
331.410370
 20
88.389610
 11
335.843384
 21
88.386726
  0
LINE
  8
0
  6
CONTINUOUS
 10
308.699371
 20
87.389610
 11
308.699371
 21
87.165001
  0
ARC
  8
0
  6
CONTINUOUS
 10
423.281189
 20
106.883751
 40
185.208893
 50
166.001907
 51
193.998093
  0
LINE
  8
0
  6
CONTINUOUS
 10
257.572388
 20
27.817190
 11
257.572388
 21
11.883750
  0
LINE
  8
0
  6
CONTINUOUS
 10
381.572388
 20
27.817190
 11
381.572388
 21
11.883750
  0
LINE
  8
0
  6
CONTINUOUS
 10
343.329773
 20
34.883751
 11
295.814972
 21
34.883751
  0
LINE
  8
0
  6
CONTINUOUS
 10
294.572388
 20
33.947868
 11
294.572388
 21
30.883751
  0
LINE
  8
0
  6
CONTINUOUS
 10
345.450989
 20
34.005070
 11
348.107971
 21
31.348209
  0
LINE
  8
0
  6
CONTINUOUS
 10
293.693787
 20
34.005070
 11
291.036987
 21
31.348249
  0
LINE
  8
0
  6
CONTINUOUS
 10
344.572388
 20
33.947868
 11
344.572388
 21
30.883751
  0
ARC
  8
0
  6
CONTINUOUS
 10
287.501373
 20
34.883751
 40
5.000000
 50
270.000000
 51
315.000092
  0
ARC
  8
0
  6
CONTINUOUS
 10
295.814972
 20
31.883751
 40
3.000000
 50
90.000000
 51
135.000305
  0
ARC
  8
0
  6
CONTINUOUS
 10
293.572388
 20
30.883751
 40
1.000000
 50
-90.000000
 51
0.000000
  0
ARC
  8
0
  6
CONTINUOUS
 10
351.643372
 20
34.883751
 40
5.000000
 50
225.000000
 51
270.000000
  0
ARC
  8
0
  6
CONTINUOUS
 10
343.329773
 20
31.883751
 40
3.000000
 50
45.000160
 51
90.000000
  0
ARC
  8
0
  6
CONTINUOUS
 10
345.572388
 20
30.883751
 40
1.000000
 50
180.000000
 51
270.000000
  0
LINE
  8
0
  6
CONTINUOUS
 10
330.572388
 20
146.883789
 11
330.572388
 21
156.883789
  0
LINE
  8
0
  6
CONTINUOUS
 10
338.572388
 20
146.883804
 11
338.572388
 21
156.883804
  0
LINE
  8
0
  6
CONTINUOUS
 10
338.572388
 20
146.883804
 11
330.572388
 21
146.883789
  0
LINE
  8
0
  6
CONTINUOUS
 10
338.572388
 20
156.883804
 11
330.572388
 21
156.883789
  0
ARC
  8
0
  6
CONTINUOUS
 10
319.572388
 20
151.883743
 40
16.000000
 50
18.209900
 51
341.790100
  0
LINE
  8
0
  6
CENTER
 10
629.572388
 20
-3.236250
 11
629.572388
 21
248.609329
  0
LINE
  8
0
  6
CENTER
 10
548.984985
 20
106.883751
 11
709.354980
 21
106.883751
  0
LINE
  8
0
  6
CENTER
 10
494.922394
 20
151.883743
 11
763.749390
 21
151.883743
  0
LINE
  8
0
  6
CENTER
 10
689.572388
 20
38.482491
 11
689.572388
 21
0.583370
  0
LINE
  8
0
  6
CENTER
 10
569.572388
 20
38.482491
 11
569.572388
 21
0.583370
  0
LINE
  8
0
  6
CONTINUOUS
 10
554.572388
 20
11.883750
 11
599.572388
 21
11.883750
  0
LINE
  8
0
  6
CONTINUOUS
 10
659.572388
 20
11.883750
 11
704.572388
 21
11.883750
  0
LINE
  8
0
  6
CONTINUOUS
 10
702.072388
 20
29.883751
 11
678.572388
 21
29.883751
  0
LINE
  8
0
  6
CONTINUOUS
 10
557.072388
 20
29.883751
 11
580.572388
 21
29.883751
  0
LINE
  8
0
  6
CONTINUOUS
 10
674.572388
 20
213.150513
 11
674.572388
 21
11.883750
  0
LINE
  8
0
  6
CONTINUOUS
 10
584.572388
 20
199.624954
 11
584.572388
 21
213.150024
  0
LINE
  8
0
  6
CONTINUOUS
 10
704.572388
 20
27.765930
 11
704.572388
 21
11.883750
  0
LINE
  8
0
  6
CONTINUOUS
 10
554.572388
 20
27.765930
 11
554.572388
 21
11.883750
  0
LINE
  8
0
  6
CONTINUOUS
 10
601.072388
 20
13.383750
 11
658.072388
 21
13.383750
  0
LINE
  8
0
  6
CONTINUOUS
 10
671.624756
 20
216.150055
 11
629.572388
 21
216.883743
  0
LINE
  8
0
  6
CONTINUOUS
 10
587.519958
 20
216.149567
 11
629.572388
 21
216.883743
  0
LINE
  8
0
  6
CONTINUOUS
 10
567.572388
 20
116.624947
 11
567.572388
 21
187.142563
  0
LINE
  8
0
  6
CONTINUOUS
 10
691.572388
 20
116.624947
 11
691.572388
 21
187.142563
  0
LINE
  8
0
  6
CONTINUOUS
 10
574.572388
 20
67.639748
 11
574.572388
 21
155.794144
  0
LINE
  8
0
  6
CONTINUOUS
 10
684.572388
 20
67.639771
 11
684.572388
 21
155.794144
  0
LINE
  8
0
  6
DASHED
 10
696.072388
 20
29.883751
 11
696.072388
 21
11.883750
  0
LINE
  8
0
  6
DASHED
 10
683.072388
 20
29.883751
 11
683.072388
 21
11.883750
  0
LINE
  8
0
  6
DASHED
 10
576.072388
 20
29.883751
 11
576.072388
 21
11.883750
  0
LINE
  8
0
  6
DASHED
 10
563.072388
 20
29.883751
 11
563.072388
 21
11.883750
  0
ARC
  8
0
  6
CONTINUOUS
 10
587.572388
 20
213.150024
 40
3.000000
 50
91.000603
 51
180.000000
  0
ARC
  8
0
  6
CONTINUOUS
 10
671.572388
 20
213.150497
 40
3.000000
 50
0.000000
 51
89.000580
  0
LINE
  8
0
  6
CONTINUOUS
 10
580.983154
 20
194.828110
 11
571.161560
 21
191.939377
  0
LINE
  8
0
  6
CONTINUOUS
 10
571.161560
 20
111.828117
 11
571.700989
 21
111.669441
  0
LINE
  8
0
  6
CONTINUOUS
 10
578.179810
 20
62.837608
 11
580.964966
 21
62.029888
  0
LINE
  8
0
  6
CONTINUOUS
 10
556.661377
 20
30.231911
 11
582.065552
 21
34.465950
  0
LINE
  8
0
  6
CONTINUOUS
 10
702.483398
 20
30.231930
 11
677.079163
 21
34.465969
  0
LINE
  8
0
  6
CONTINUOUS
 10
680.964966
 20
62.837608
 11
678.179810
 21
62.029888
  0
LINE
  8
0
  6
CONTINUOUS
 10
687.983154
 20
111.828117
 11
687.443787
 21
111.669434
  0
LINE
  8
0
  6
CONTINUOUS
 10
687.983154
 20
191.939392
 11
678.161560
 21
194.828110
  0
LINE
  8
0
  6
CONTINUOUS
 10
587.146790
 20
184.383743
 11
671.825012
 21
184.383743
  0
ARC
  8
0
  6
CONTINUOUS
 10
572.572388
 20
187.142593
 40
5.000000
 50
106.389900
 51
180.000000
  0
ARC
  8
0
  6
CONTINUOUS
 10
686.572388
 20
187.142548
 40
5.000000
 50
0.000000
 51
73.610527
  0
ARC
  8
0
  6
CONTINUOUS
 10
572.572388
 20
116.624977
 40
5.000000
 50
180.000000
 51
253.610794
  0
ARC
  8
0
  6
CONTINUOUS
 10
686.572388
 20
116.624931
 40
5.000000
 50
-73.610321
 51
0.000000
  0
ARC
  8
0
  6
CONTINUOUS
 10
679.572388
 20
67.639748
 40
5.000000
 50
-73.827698
 51
0.000000
  0
ARC
  8
0
  6
CONTINUOUS
 10
579.572388
 20
67.639793
 40
5.000000
 50
180.000000
 51
253.828201
  0
LINE
  8
0
  6
CONTINUOUS
 10
584.572388
 20
199.624954
 11
584.572388
 21
11.883750
  0
ARC
  8
0
  6
CONTINUOUS
 10
579.572388
 20
199.624924
 40
5.000000
 50
-73.610229
 51
0.000000
  0
ARC
  8
0
  6
CONTINUOUS
 10
570.572388
 20
107.831963
 40
4.000000
 50
0.000000
 51
73.610649
  0
ARC
  8
0
  6
CONTINUOUS
 10
579.572388
 20
57.227730
 40
5.000000
 50
0.000000
 51
73.827919
  0
ARC
  8
0
  6
CONTINUOUS
 10
679.572388
 20
57.227772
 40
5.000000
 50
106.172501
 51
180.000000
  0
ARC
  8
0
  6
CONTINUOUS
 10
688.572388
 20
107.832001
 40
4.000000
 50
106.389999
 51
180.000000
  0
ARC
  8
0
  6
CONTINUOUS
 10
679.572388
 20
199.624969
 40
5.000000
 50
180.000000
 51
253.610794
  0
ARC
  8
0
  6
CONTINUOUS
 10
581.572388
 20
37.425129
 40
3.000000
 50
-80.537483
 51
0.000000
  0
ARC
  8
0
  6
CONTINUOUS
 10
580.572388
 20
33.883709
 40
4.000000
 50
-90.000000
 51
0.000000
  0
ARC
  8
0
  6
CONTINUOUS
 10
557.072388
 20
27.383770
 40
2.500000
 50
90.000000
 51
180.000000
  0
LINE
  8
0
  6
CONTINUOUS
 10
599.572388
 20
11.883750
 11
601.072388
 21
13.383750
  0
LINE
  8
0
  6
CONTINUOUS
 10
659.572388
 20
11.883750
 11
658.072388
 21
13.383750
  0
ARC
  8
0
  6
CONTINUOUS
 10
677.572388
 20
37.425171
 40
3.000000
 50
180.000000
 51
260.537903
  0
ARC
  8
0
  6
CONTINUOUS
 10
678.572388
 20
33.883751
 40
4.000000
 50
180.000000
 51
270.000000
  0
ARC
  8
0
  6
CONTINUOUS
 10
702.072388
 20
27.383751
 40
2.500000
 50
0.000000
 51
90.000000
  0
LINE
  8
0
  6
CONTINUOUS
 10
749.572388
 20
135.883743
 11
749.572388
 21
167.883743
  0
LINE
  8
0
  6
CONTINUOUS
 10
694.572388
 20
167.883743
 11
749.572388
 21
167.883743
  0
LINE
  8
0
  6
CONTINUOUS
 10
694.572388
 20
135.883743
 11
749.572388
 21
135.883743
  0
LINE
  8
0
  6
CONTINUOUS
 10
694.572388
 20
169.383743
 11
694.572388
 21
134.383743
  0
LINE
  8
0
  6
CONTINUOUS
 10
691.572388
 20
169.383743
 11
694.572388
 21
169.383743
  0
LINE
  8
0
  6
CONTINUOUS
 10
691.572388
 20
134.383743
 11
694.572388
 21
134.383743
  0
ARC
  8
0
  6
CONTINUOUS
 10
704.572388
 20
151.883743
 40
5.000000
 50
90.000000
 51
270.000000
  0
LINE
  8
0
  6
CONTINUOUS
 10
704.572388
 20
156.883743
 11
749.572388
 21
156.883743
  0
LINE
  8
0
  6
CONTINUOUS
 10
704.572388
 20
146.883743
 11
749.572388
 21
146.883743
  0
LINE
  8
0
  6
CONTINUOUS
 10
509.572388
 20
135.883743
 11
509.572388
 21
167.883743
  0
LINE
  8
0
  6
CONTINUOUS
 10
564.572388
 20
167.883743
 11
509.572388
 21
167.883743
  0
LINE
  8
0
  6
CONTINUOUS
 10
564.572388
 20
135.883743
 11
509.572388
 21
135.883743
  0
LINE
  8
0
  6
CONTINUOUS
 10
564.572388
 20
169.383743
 11
564.572388
 21
134.383743
  0
LINE
  8
0
  6
CONTINUOUS
 10
567.572388
 20
169.383743
 11
564.572388
 21
169.383743
  0
LINE
  8
0
  6
CONTINUOUS
 10
567.572388
 20
134.383743
 11
564.572388
 21
134.383743
  0
ARC
  8
0
  6
CONTINUOUS
 10
554.572388
 20
151.883743
 40
5.000000
 50
-90.000000
 51
90.000000
  0
LINE
  8
0
  6
CONTINUOUS
 10
554.572388
 20
156.883743
 11
509.572388
 21
156.883743
  0
LINE
  8
0
  6
CONTINUOUS
 10
554.572388
 20
146.883743
 11
509.572388
 21
146.883743
  0
ARC
  8
0
  6
CONTINUOUS
 10
557.072388
 20
27.765949
 40
2.500000
 50
99.462753
 51
180.000000
  0
ARC
  8
0
  6
CONTINUOUS
 10
702.072388
 20
27.765930
 40
2.500000
 50
0.000000
 51
80.537682
  0
LINE
  8
0
  6
CONTINUOUS
 10
231.572388
 20
170.883743
 11
231.572388
 21
42.883751
  0
ARC
  8
0
  6
CONTINUOUS
 10
629.572388
 20
106.883751
 40
64.000000
 50
165.638489
 51
210.753525
  0
ARC
  8
0
  6
CONTINUOUS
 10
629.572388
 20
106.883751
 40
64.000000
 50
-30.753519
 51
14.361512
  0
ARC
  8
0
  6
CONTINUOUS
 10
588.560181
 20
65.871529
 40
8.000000
 50
211.001404
 51
233.216995
  0
ARC
  8
0
  6
CONTINUOUS
 10
582.572388
 20
57.862411
 40
2.000000
 50
30.947910
 51
53.217121
  0
ARC
  8
0
  6
CONTINUOUS
 10
670.584595
 20
65.871529
 40
8.000000
 50
-53.216999
 51
-31.001400
  0
ARC
  8
0
  6
CONTINUOUS
 10
676.572388
 20
57.862411
 40
2.000000
 50
126.782883
 51
149.052094
  0
LINE
  8
0
  6
CENTER
 10
-13.102500
 20
93.883751
 11
276.458740
 21
93.883751
  0
LINE
  8
0
  6
CENTER
 10
141.399063
 20
106.883751
 11
276.458740
 21
106.883751
  0
LINE
  8
0
  6
CONTINUOUS
 10
223.072388
 20
369.303741
 11
223.072388
 21
493.303741
  0
LINE
  8
0
  6
CONTINUOUS
 10
177.072388
 20
476.303741
 11
220.636002
 21
477.825012
  0
LINE
  8
0
  6
CONTINUOUS
 10
177.072388
 20
386.303741
 11
220.636002
 21
384.782471
  0
LINE
  8
0
  6
CONTINUOUS
 10
177.072388
 20
480.315735
 11
177.072388
 21
382.291748
  0
LINE
  8
0
  6
CONTINUOUS
 10
225.072388
 20
495.303741
 11
231.572388
 21
495.303741
  0
LINE
  8
0
  6
CONTINUOUS
 10
225.072388
 20
367.303741
 11
231.572388
 21
367.303741
  0
LINE
  8
0
  6
CONTINUOUS
 10
215.929382
 20
455.303741
 11
223.044357
 21
455.303741
  0
LINE
  8
0
  6
CONTINUOUS
 10
216.534531
 20
407.303741
 11
223.044357
 21
407.303741
  0
LINE
  8
0
  6
CONTINUOUS
 10
215.929382
 20
453.099243
 11
215.929382
 21
409.386658
  0
LINE
  8
0
  6
CONTINUOUS
 10
168.072388
 20
474.303741
 11
168.072388
 21
460.303741
  0
LINE
  8
0
  6
CONTINUOUS
 10
58.072384
 20
476.303741
 11
177.072388
 21
476.303741
  0
LINE
  8
0
  6
CONTINUOUS
 10
58.072384
 20
386.303741
 11
177.072388
 21
386.303741
  0
LINE
  8
0
  6
CONTINUOUS
 10
111.072372
 20
460.303741
 11
168.072388
 21
460.303741
  0
LINE
  8
0
  6
CONTINUOUS
 10
111.072372
 20
402.303741
 11
168.072388
 21
402.303741
  0
ARC
  8
0
  6
CONTINUOUS
 10
170.072388
 20
474.303772
 40
2.000000
 50
90.000000
 51
180.000000
  0
ARC
  8
0
  6
CONTINUOUS
 10
170.072388
 20
388.303741
 40
2.000000
 50
180.000000
 51
270.000000
  0
LINE
  8
0
  6
CONTINUOUS
 10
177.072388
 20
476.303741
 11
177.072388
 21
386.303741
  0
ARC
  8
0
  6
CONTINUOUS
 10
225.072388
 20
493.303741
 40
2.000000
 50
90.000000
 51
180.000000
  0
ARC
  8
0
  6
CONTINUOUS
 10
225.072388
 20
369.303741
 40
2.000000
 50
180.000000
 51
270.000000
  0
ARC
  8
0
  6
CONTINUOUS
 10
220.548752
 20
480.323517
 40
2.500000
 50
272.000000
 51
359.895721
  0
ARC
  8
0
  6
CONTINUOUS
 10
220.548752
 20
382.283997
 40
2.500000
 50
0.104292
 51
88.000000
  0
LINE
  8
0
  6
CONTINUOUS
 10
223.072388
 20
477.910095
 11
223.044357
 21
477.909119
  0
LINE
  8
0
  6
CONTINUOUS
 10
177.572083
 20
480.833191
 11
223.072388
 21
482.422119
  0
LINE
  8
0
  6
CONTINUOUS
 10
177.072388
 20
480.315735
 11
177.572083
 21
480.833191
  0
LINE
  8
0
  6
CONTINUOUS
 10
177.572083
 20
381.774292
 11
223.072388
 21
380.185394
  0
LINE
  8
0
  6
CONTINUOUS
 10
177.072388
 20
382.291748
 11
177.572083
 21
381.774292
  0
LINE
  8
0
  6
CONTINUOUS
 10
168.072388
 20
136.883743
 11
168.072388
 21
50.883732
  0
LINE
  8
0
  6
CONTINUOUS
 10
58.072384
 20
138.883743
 11
177.072388
 21
138.883743
  0
LINE
  8
0
  6
CONTINUOUS
 10
58.072384
 20
48.883751
 11
177.072388
 21
48.883751
  0
LINE
  8
0
  6
CONTINUOUS
 10
58.072384
 20
128.293045
 11
167.034698
 21
128.293045
  0
LINE
  8
0
  6
CONTINUOUS
 10
58.072384
 20
59.474449
 11
167.034698
 21
59.474449
  0
ARC
  8
0
  6
CONTINUOUS
 10
170.072388
 20
136.883774
 40
2.000000
 50
90.000000
 51
180.000000
  0
ARC
  8
0
  6
CONTINUOUS
 10
170.072388
 20
50.883751
 40
2.000000
 50
180.000000
 51
270.000000
  0
LINE
  8
0
  6
CONTINUOUS
 10
225.072388
 20
170.883850
 11
231.572388
 21
170.883850
  0
LINE
  8
0
  6
CONTINUOUS
 10
225.072388
 20
42.883652
 11
231.572388
 21
42.883652
  0
LINE
  8
0
  6
CONTINUOUS
 10
177.072388
 20
138.883743
 11
223.072388
 21
140.490112
  0
LINE
  8
0
  6
CONTINUOUS
 10
231.572388
 20
46.980568
 11
177.072388
 21
48.883751
  0
ARC
  8
0
  6
CONTINUOUS
 10
225.072403
 20
168.883865
 40
2.000000
 50
90.000000
 51
180.000000
  0
ARC
  8
0
  6
CONTINUOUS
 10
225.072388
 20
44.883652
 40
2.000000
 50
180.260773
 51
270.000000
  0
LINE
  8
0
  6
CONTINUOUS
 10
177.072388
 20
138.883743
 11
177.072388
 21
48.883751
  0
LINE
  8
0
  6
CONTINUOUS
 10
222.340149
 20
146.651520
 11
216.625641
 21
140.937012
  0
LINE
  8
0
  6
CONTINUOUS
 10
177.072388
 20
73.377747
 11
221.072388
 21
73.377747
  0
LINE
  8
0
  6
CONTINUOUS
 10
177.072388
 20
58.364750
 11
231.572388
 21
58.364750
  0
LINE
  8
0
  6
CONTINUOUS
 10
223.640350
 20
66.316750
 11
231.572388
 21
66.316750
  0
LINE
  8
0
  6
CONTINUOUS
 10
223.072388
 20
67.531487
 11
223.072388
 21
168.883865
  0
ARC
  8
0
  6
CONTINUOUS
 10
220.572433
 20
44.863171
 40
2.500000
 50
0.260773
 51
88.000000
  0
ARC
  8
0
  6
CONTINUOUS
 10
220.572388
 20
148.419281
 40
2.500000
 50
-45.000000
 51
0.000000
  0
ARC
  8
0
  6
CONTINUOUS
 10
214.857864
 20
142.704773
 40
2.500000
 50
272.000000
 51
315.000000
  0
LINE
  8
0
  6
CONTINUOUS
 10
48.572384
 20
476.303741
 11
58.072384
 21
476.303741
  0
LINE
  8
0
  6
CONTINUOUS
 10
49.072372
 20
460.303741
 11
48.572384
 21
460.303741
  0
LINE
  8
0
  6
CONTINUOUS
 10
48.572384
 20
386.303741
 11
58.072384
 21
386.303741
  0
LINE
  8
0
  6
CONTINUOUS
 10
58.072384
 20
386.303741
 11
58.072384
 21
400.303741
  0
LINE
  8
0
  6
CONTINUOUS
 10
49.072372
 20
402.303741
 11
48.572384
 21
402.303741
  0
LINE
  8
0
  6
CONTINUOUS
 10
58.072384
 20
462.303741
 11
58.072384
 21
476.303741
  0
LINE
  8
0
  6
CONTINUOUS
 10
48.572384
 20
478.303741
 11
48.572384
 21
384.303741
  0
LINE
  8
0
  6
CONTINUOUS
 10
48.572384
 20
460.303741
 11
4.597352
 21
460.303741
  0
LINE
  8
0
  6
CONTINUOUS
 10
48.572384
 20
402.303741
 11
4.597352
 21
402.303741
  0
LINE
  8
0
  6
CONTINUOUS
 10
6.072362
 20
478.303741
 11
48.572384
 21
478.303741
  0
LINE
  8
0
  6
CONTINUOUS
 10
6.072362
 20
384.303741
 11
48.572384
 21
384.303741
  0
ARC
  8
0
  6
CONTINUOUS
 10
6.072392
 20
473.303741
 40
5.000000
 50
90.000000
 51
180.000000
  0
ARC
  8
0
  6
CONTINUOUS
 10
6.072362
 20
389.303741
 40
5.000000
 50
180.000000
 51
270.000000
  0
LINE
  8
0
  6
CONTINUOUS
 10
1.072392
 20
473.303741
 11
1.072362
 21
389.303741
  0
LINE
  8
0
  6
CONTINUOUS
 10
48.572384
 20
138.883743
 11
58.072384
 21
138.883743
  0
LINE
  8
0
  6
CONTINUOUS
 10
58.072384
 20
128.293045
 11
48.572384
 21
128.293045
  0
LINE
  8
0
  6
CONTINUOUS
 10
48.572384
 20
48.883751
 11
58.072384
 21
48.883751
  0
LINE
  8
0
  6
CONTINUOUS
 10
58.072384
 20
59.474461
 11
48.572384
 21
59.474461
  0
LINE
  8
0
  6
CONTINUOUS
 10
48.572384
 20
140.883743
 11
48.572384
 21
46.883751
  0
LINE
  8
0
  6
CONTINUOUS
 10
48.572384
 20
122.883751
 11
4.597352
 21
122.883751
  0
LINE
  8
0
  6
CONTINUOUS
 10
48.572384
 20
64.883751
 11
4.597352
 21
64.883751
  0
LINE
  8
0
  6
CONTINUOUS
 10
6.072362
 20
140.883743
 11
48.572384
 21
140.883743
  0
LINE
  8
0
  6
CONTINUOUS
 10
6.072362
 20
46.883751
 11
48.572384
 21
46.883751
  0
ARC
  8
0
  6
CONTINUOUS
 10
6.072392
 20
135.883743
 40
5.000000
 50
90.000000
 51
180.000000
  0
ARC
  8
0
  6
CONTINUOUS
 10
6.072362
 20
51.883751
 40
5.000000
 50
180.000000
 51
270.000000
  0
LINE
  8
0
  6
CONTINUOUS
 10
1.072392
 20
135.883743
 11
1.072362
 21
51.883739
  0
LINE
  8
0
  6
CONTINUOUS
 10
58.072384
 20
48.883751
 11
58.072384
 21
138.883743
  0
LINE
  8
0
  6
CONTINUOUS
 10
49.072372
 20
460.303741
 11
49.072372
 21
402.303741
  0
LINE
  8
0
  6
CONTINUOUS
 10
111.072372
 20
402.303741
 11
111.072372
 21
460.303741
  0
LINE
  8
0
  6
CONTINUOUS
 10
51.072372
 20
462.303741
 11
109.072372
 21
462.303741
  0
LINE
  8
0
  6
CONTINUOUS
 10
51.072372
 20
400.303741
 11
109.072372
 21
400.303741
  0
LINE
  8
0
  6
CONTINUOUS
 10
109.072372
 20
462.303741
 11
111.072372
 21
460.303741
  0
LINE
  8
0
  6
CONTINUOUS
 10
111.072372
 20
402.303741
 11
109.072372
 21
400.303741
  0
LINE
  8
0
  6
CONTINUOUS
 10
49.072372
 20
402.303741
 11
51.072372
 21
400.303741
  0
LINE
  8
0
  6
CONTINUOUS
 10
49.072372
 20
460.303741
 11
51.072372
 21
462.303741
  0
LINE
  8
0
  6
CONTINUOUS
 10
103.072372
 20
457.303741
 11
103.072372
 21
462.303741
  0
LINE
  8
0
  6
CONTINUOUS
 10
106.072372
 20
454.303741
 11
111.072372
 21
454.303741
  0
CIRCLE
  8
0
  6
CONTINUOUS
 10
107.072372
 20
458.303741
 40
2.250000
  0
ARC
  8
0
  6
CONTINUOUS
 10
106.072372
 20
457.303741
 40
3.000000
 50
180.000000
 51
270.000000
  0
LINE
  8
0
  6
CONTINUOUS
 10
110.072372
 20
453.303741
 11
110.072372
 21
409.303741
  0
LINE
  8
0
  6
CONTINUOUS
 10
106.072372
 20
453.303741
 11
110.072372
 21
453.303741
  0
ARC
  8
0
  6
CONTINUOUS
 10
106.072372
 20
457.303741
 40
4.000000
 50
180.000000
 51
270.000000
  0
LINE
  8
0
  6
CONTINUOUS
 10
102.072372
 20
461.303741
 11
102.072372
 21
457.303741
  0
LINE
  8
0
  6
CONTINUOUS
 10
110.072372
 20
453.303741
 11
111.072372
 21
454.303741
  0
LINE
  8
0
  6
CONTINUOUS
 10
58.072372
 20
461.303741
 11
102.072372
 21
461.303741
  0
LINE
  8
0
  6
CONTINUOUS
 10
102.072372
 20
461.303741
 11
103.072372
 21
462.303741
  0
LINE
  8
0
  6
CONTINUOUS
 10
54.072372
 20
454.303741
 11
49.072372
 21
454.303741
  0
LINE
  8
0
  6
CONTINUOUS
 10
57.072372
 20
457.303741
 11
57.072372
 21
462.303741
  0
CIRCLE
  8
0
  6
CONTINUOUS
 10
53.072372
 20
458.303741
 40
2.250000
  0
ARC
  8
0
  6
CONTINUOUS
 10
54.072372
 20
457.303741
 40
3.000000
 50
-90.000000
 51
0.000000
  0
LINE
  8
0
  6
CONTINUOUS
 10
58.072372
 20
457.303741
 11
58.072372
 21
461.303741
  0
ARC
  8
0
  6
CONTINUOUS
 10
54.072372
 20
457.303741
 40
4.000000
 50
-90.000000
 51
0.000000
  0
LINE
  8
0
  6
CONTINUOUS
 10
50.072372
 20
453.303741
 11
54.072372
 21
453.303741
  0
LINE
  8
0
  6
CONTINUOUS
 10
58.072372
 20
461.303741
 11
57.072372
 21
462.303741
  0
LINE
  8
0
  6
CONTINUOUS
 10
50.072372
 20
453.303741
 11
49.072372
 21
454.303741
  0
LINE
  8
0
  6
CONTINUOUS
 10
57.072372
 20
405.303741
 11
57.072372
 21
400.303741
  0
LINE
  8
0
  6
CONTINUOUS
 10
54.072372
 20
408.303741
 11
49.072372
 21
408.303741
  0
CIRCLE
  8
0
  6
CONTINUOUS
 10
53.072372
 20
404.303741
 40
2.250000
  0
ARC
  8
0
  6
CONTINUOUS
 10
54.072372
 20
405.303741
 40
3.000000
 50
0.000000
 51
90.000000
  0
LINE
  8
0
  6
CONTINUOUS
 10
54.072372
 20
409.303741
 11
50.072372
 21
409.303741
  0
ARC
  8
0
  6
CONTINUOUS
 10
54.072372
 20
405.303741
 40
4.000000
 50
0.000000
 51
90.000000
  0
LINE
  8
0
  6
CONTINUOUS
 10
58.072372
 20
401.303741
 11
58.072372
 21
405.303741
  0
LINE
  8
0
  6
CONTINUOUS
 10
50.072372
 20
409.303741
 11
49.072372
 21
408.303741
  0
LINE
  8
0
  6
CONTINUOUS
 10
58.072372
 20
401.303741
 11
57.072372
 21
400.303741
  0
LINE
  8
0
  6
CONTINUOUS
 10
106.072372
 20
408.303741
 11
111.072372
 21
408.303741
  0
LINE
  8
0
  6
CONTINUOUS
 10
103.072372
 20
405.303741
 11
103.072372
 21
400.303741
  0
CIRCLE
  8
0
  6
CONTINUOUS
 10
107.072372
 20
404.303741
 40
2.250000
  0
ARC
  8
0
  6
CONTINUOUS
 10
106.072372
 20
405.303741
 40
3.000000
 50
90.000000
 51
180.000000
  0
LINE
  8
0
  6
CONTINUOUS
 10
102.072372
 20
405.303741
 11
102.072372
 21
401.303741
  0
ARC
  8
0
  6
CONTINUOUS
 10
106.072372
 20
405.303741
 40
4.000000
 50
90.000000
 51
180.000000
  0
LINE
  8
0
  6
CONTINUOUS
 10
110.072372
 20
409.303741
 11
106.072372
 21
409.303741
  0
LINE
  8
0
  6
CONTINUOUS
 10
102.072372
 20
401.303741
 11
103.072372
 21
400.303741
  0
LINE
  8
0
  6
CONTINUOUS
 10
110.072372
 20
409.303741
 11
111.072372
 21
408.303741
  0
LINE
  8
0
  6
CONTINUOUS
 10
58.072372
 20
401.303741
 11
102.072372
 21
401.303741
  0
LINE
  8
0
  6
CONTINUOUS
 10
50.072372
 20
453.303741
 11
50.072372
 21
409.303741
  0
LINE
  8
0
  6
CENTER
 10
80.072372
 20
467.549988
 11
80.072372
 21
394.857178
  0
LINE
  8
0
  6
CONTINUOUS
 10
50.572372
 20
140.383759
 11
109.072395
 21
140.383743
  0
LINE
  8
0
  6
CONTINUOUS
 10
50.572372
 20
140.383743
 11
50.572372
 21
138.883743
  0
LINE
  8
0
  6
CONTINUOUS
 10
96.572372
 20
140.383743
 11
96.572372
 21
138.883743
  0
LINE
  8
0
  6
CONTINUOUS
 10
49.072372
 20
189.383743
 11
49.072372
 21
142.383759
  0
LINE
  8
0
  6
CONTINUOUS
 10
111.072395
 20
189.383774
 11
111.072395
 21
142.383743
  0
LINE
  8
0
  6
CONTINUOUS
 10
111.072395
 20
142.383743
 11
109.072395
 21
140.383743
  0
LINE
  8
0
  6
CONTINUOUS
 10
49.072372
 20
142.383759
 11
51.072372
 21
140.383759
  0
LINE
  8
0
  6
CONTINUOUS
 10
49.072372
 20
142.383759
 11
111.072395
 21
142.383743
  0
LINE
  8
0
  6
CONTINUOUS
 10
49.072372
 20
152.383759
 11
111.072395
 21
152.383759
  0
LINE
  8
0
  6
CENTER
 10
80.072372
 20
200.940002
 11
80.072372
 21
135.789734
  0
LINE
  8
0
  6
CONTINUOUS
 10
49.072372
 20
153.383759
 11
111.072395
 21
153.383759
  0
LINE
  8
0
  6
CONTINUOUS
 10
50.072372
 20
190.383743
 11
110.072395
 21
190.383774
  0
LINE
  8
0
  6
CONTINUOUS
 10
110.072395
 20
190.383774
 11
111.072395
 21
189.383774
  0
LINE
  8
0
  6
CONTINUOUS
 10
49.072372
 20
189.383743
 11
50.072372
 21
190.383743
  0
LINE
  8
0
  6
CONTINUOUS
 10
49.072372
 20
189.383743
 11
111.072395
 21
189.383774
  0
LINE
  8
0
  6
CENTER
 10
46.447372
 20
173.383774
 11
52.197372
 21
173.383774
  0
LINE
  8
0
  6
CONTINUOUS
 10
47.947372
 20
183.883774
 11
51.072372
 21
183.883774
  0
LINE
  8
0
  6
CONTINUOUS
 10
47.947372
 20
162.883759
 11
51.072372
 21
162.883759
  0
LINE
  8
0
  6
CONTINUOUS
 10
168.072388
 20
402.303741
 11
168.072388
 21
388.303741
  0
TEXT
  8
0
 10
-18.000000
 20
-3.000000
 40
4.000000
 41
1.000000
  1
HLMN-32T-600~900-T90C
 50
0.000000
  0
ENDSEC
  0
EOF
