  0
SECTION
  2
HEADER
  9
$ACADVER
  1
AC1014
  9
$ACADMAINTVER
 70
     9
  9
$DWGCODEPAGE
  3
ANSI_932
  9
$INSBASE
 10
0.0
 20
0.0
 30
0.0
  9
$EXTMIN
 10
58.87902053232597
 20
61.92356975373744
 30
0.0
  9
$EXTMAX
 10
810.8387767362588
 20
636.4767708378907
 30
0.0
  9
$LIMMIN
 10
0.0
 20
0.0
  9
$LIMMAX
 10
297.0
 20
210.0
  9
$ORTHOMODE
 70
     1
  9
$REGENMODE
 70
     1
  9
$FILLMODE
 70
     1
  9
$QTEXTMODE
 70
     0
  9
$MIRRTEXT
 70
     0
  9
$DRAGMODE
 70
     2
  9
$LTSCALE
 40
3.0
  9
$OSMODE
 70
    37
  9
$ATTMODE
 70
     1
  9
$TEXTSIZE
 40
2.0
  9
$TRACEWID
 40
1.0
  9
$TEXTSTYLE
  7
STANDARD
  9
$CLAYER
  8
0
  9
$CELTYPE
  6
BYLAYER
  9
$CECOLOR
 62
   256
  9
$CELTSCALE
 40
1.0
  9
$DELOBJ
 70
     1
  9
$DISPSILH
 70
     0
  9
$DIMSCALE
 40
3.0
  9
$DIMASZ
 40
1.8
  9
$DIMEXO
 40
0.625
  9
$DIMDLI
 40
3.75
  9
$DIMRND
 40
0.0
  9
$DIMDLE
 40
0.0
  9
$DIMEXE
 40
0.8
  9
$DIMTP
 40
0.0
  9
$DIMTM
 40
0.0
  9
$DIMTXT
 40
1.8
  9
$DIMCEN
 40
2.5
  9
$DIMTSZ
 40
0.0
  9
$DIMTOL
 70
     0
  9
$DIMLIM
 70
     0
  9
$DIMTIH
 70
     0
  9
$DIMTOH
 70
     0
  9
$DIMSE1
 70
     0
  9
$DIMSE2
 70
     0
  9
$DIMTAD
 70
     1
  9
$DIMZIN
 70
     8
  9
$DIMBLK
  1

  9
$DIMASO
 70
     1
  9
$DIMSHO
 70
     1
  9
$DIMPOST
  1

  9
$DIMAPOST
  1

  9
$DIMALT
 70
     0
  9
$DIMALTD
 70
     4
  9
$DIMALTF
 40
0.0394
  9
$DIMLFAC
 40
1.0
  9
$DIMTOFL
 70
     1
  9
$DIMTVP
 40
0.0
  9
$DIMTIX
 70
     0
  9
$DIMSOXD
 70
     0
  9
$DIMSAH
 70
     0
  9
$DIMBLK1
  1

  9
$DIMBLK2
  1

  9
$DIMSTYLE
  2
STANDARD
  9
$DIMCLRD
 70
     0
  9
$DIMCLRE
 70
     0
  9
$DIMCLRT
 70
     0
  9
$DIMTFAC
 40
1.0
  9
$DIMGAP
 40
0.75
  9
$DIMJUST
 70
     0
  9
$DIMSD1
 70
     0
  9
$DIMSD2
 70
     0
  9
$DIMTOLJ
 70
     1
  9
$DIMTZIN
 70
     0
  9
$DIMALTZ
 70
     0
  9
$DIMALTTZ
 70
     0
  9
$DIMFIT
 70
     3
  9
$DIMUPT
 70
     0
  9
$DIMUNIT
 70
     8
  9
$DIMDEC
 70
     2
  9
$DIMTDEC
 70
     2
  9
$DIMALTU
 70
     8
  9
$DIMALTTD
 70
     4
  9
$DIMTXSTY
  7
STANDARD
  9
$DIMAUNIT
 70
     0
  9
$LUNITS
 70
     2
  9
$LUPREC
 70
     3
  9
$SKETCHINC
 40
1.0
  9
$FILLETRAD
 40
10.0
  9
$AUNITS
 70
     0
  9
$AUPREC
 70
     2
  9
$MENU
  1
.
  9
$ELEVATION
 40
0.0
  9
$PELEVATION
 40
0.0
  9
$THICKNESS
 40
0.0
  9
$LIMCHECK
 70
     0
  9
$BLIPMODE
 70
     0
  9
$CHAMFERA
 40
0.0
  9
$CHAMFERB
 40
0.0
  9
$CHAMFERC
 40
20.0
  9
$CHAMFERD
 40
0.0
  9
$SKPOLY
 70
     0
  9
$TDCREATE
 40
2453753.550437095
  9
$TDUPDATE
 40
2453832.466636284
  9
$TDINDWG
 40
0.1533989583
  9
$TDUSRTIMER
 40
0.1533989583
  9
$USRTIMER
 70
     1
  9
$ANGBASE
 50
0.0
  9
$ANGDIR
 70
     0
  9
$PDMODE
 70
     0
  9
$PDSIZE
 40
-10.0
  9
$PLINEWID
 40
0.0
  9
$COORDS
 70
     0
  9
$SPLFRAME
 70
     0
  9
$SPLINETYPE
 70
     6
  9
$SPLINESEGS
 70
     8
  9
$ATTDIA
 70
     0
  9
$ATTREQ
 70
     1
  9
$HANDLING
 70
-16383
  9
$HANDSEED
  5
1D54
  9
$SURFTAB1
 70
     6
  9
$SURFTAB2
 70
     6
  9
$SURFTYPE
 70
     6
  9
$SURFU
 70
     6
  9
$SURFV
 70
     6
  9
$UCSNAME
  2

  9
$UCSORG
 10
0.0
 20
0.0
 30
0.0
  9
$UCSXDIR
 10
1.0
 20
0.0
 30
0.0
  9
$UCSYDIR
 10
0.0
 20
1.0
 30
0.0
  9
$PUCSNAME
  2

  9
$PUCSORG
 10
0.0
 20
0.0
 30
0.0
  9
$PUCSXDIR
 10
1.0
 20
0.0
 30
0.0
  9
$PUCSYDIR
 10
0.0
 20
1.0
 30
0.0
  9
$USERI1
 70
     0
  9
$USERI2
 70
     0
  9
$USERI3
 70
     0
  9
$USERI4
 70
     0
  9
$USERI5
 70
     0
  9
$USERR1
 40
0.0
  9
$USERR2
 40
0.0
  9
$USERR3
 40
0.0
  9
$USERR4
 40
0.0
  9
$USERR5
 40
0.0
  9
$WORLDVIEW
 70
     1
  9
$SHADEDGE
 70
     3
  9
$SHADEDIF
 70
    70
  9
$TILEMODE
 70
     1
  9
$MAXACTVP
 70
    48
  9
$PINSBASE
 10
0.0
 20
0.0
 30
0.0
  9
$PLIMCHECK
 70
     0
  9
$PEXTMIN
 10
0.0
 20
0.0
 30
0.0
  9
$PEXTMAX
 10
0.0
 20
0.0
 30
0.0
  9
$PLIMMIN
 10
0.0
 20
0.0
  9
$PLIMMAX
 10
12.0
 20
9.0
  9
$UNITMODE
 70
     0
  9
$VISRETAIN
 70
     1
  9
$PLINEGEN
 70
     0
  9
$PSLTSCALE
 70
     1
  9
$TREEDEPTH
 70
  3020
  9
$PICKSTYLE
 70
     1
  9
$CMLSTYLE
  2
STANDARD
  9
$CMLJUST
 70
     0
  9
$CMLSCALE
 40
1.0
  9
$PROXYGRAPHICS
 70
     1
  9
$MEASUREMENT
 70
     0
  0
ENDSEC
  0
SECTION
  2
CLASSES
  0
CLASS
  1
DICTIONARYVAR
  2
AcDbDictionaryVar
  3
AutoCAD 2000
 90
        0
280
     0
281
     0
  0
CLASS
  1
ACDBDICTIONARYWDFLT
  2
AcDbDictionaryWithDefault
  3
AutoCAD 2000
 90
        0
280
     0
281
     0
  0
CLASS
  1
ACDBPLACEHOLDER
  2
AcDbPlaceHolder
  3
AutoCAD 2000
 90
        0
280
     0
281
     0
  0
CLASS
  1
LAYOUT
  2
AcDbLayout
  3
AutoCAD 2000
 90
        0
280
     0
281
     0
  0
CLASS
  1
LONG_TRANSACTION
  2
AcDbLongTransaction
  3
AutoCAD 2000
 90
        0
280
     0
281
     0
  0
CLASS
  1
LWPOLYLINE
  2
AcDbPolyline
  3
AutoCAD 2000
 90
        0
280
     0
281
     1
  0
CLASS
  1
HATCH
  2
AcDbHatch
  3
AutoCAD 2000
 90
        0
280
     0
281
     1
  0
CLASS
  1
XRECORD
  2
AcDbXrecord
  3
AutoCAD 2000
 90
        0
280
     0
281
     0
  0
ENDSEC
  0
SECTION
  2
TABLES
  0
TABLE
  2
VPORT
  5
6E
330
0
100
AcDbSymbolTable
 70
     2
  0
VPORT
  5
1D2E
330
6E
100
AcDbSymbolTableRecord
100
AcDbViewportTableRecord
  2
*ACTIVE
 70
     0
 10
0.0
 20
0.0
 11
1.0
 21
1.0
 12
440.7498950971223
 22
331.2765653958016
 13
0.0
 23
0.0
 14
10.0
 24
10.0
 15
10.0
 25
10.0
 16
0.0
 26
0.0
 36
1.0
 17
0.0
 27
0.0
 37
0.0
 40
615.1959308758346
 41
1.566970091027308
 42
50.0
 43
0.0
 44
0.0
 50
0.0
 51
0.0
 71
     0
 72
   100
 73
     1
 74
     3
 75
     0
 76
     0
 77
     0
 78
     0
  0
ENDTAB
  0
TABLE
  2
LTYPE
  5
69
330
0
100
AcDbSymbolTable
 70
     3
  0
LTYPE
  5
6A
330
69
100
AcDbSymbolTableRecord
100
AcDbLinetypeTableRecord
  2
BYBLOCK
 70
     0
  3

 72
    65
 73
     0
 40
0.0
  0
LTYPE
  5
6B
330
69
100
AcDbSymbolTableRecord
100
AcDbLinetypeTableRecord
  2
BYLAYER
 70
     0
  3

 72
    65
 73
     0
 40
0.0
  0
LTYPE
  5
8
330
69
100
AcDbSymbolTableRecord
100
AcDbLinetypeTableRecord
  2
CONTINUOUS
 70
     0
  3
Solid line
 72
    65
 73
     0
 40
0.0
  0
LTYPE
  5
27C
330
69
100
AcDbSymbolTableRecord
100
AcDbLinetypeTableRecord
  2
SEKKEI_A2_
 70
     0
  3
center(A2)  ____ _ ____ _ ____ _ ____ _ ____ _ 
 72
    65
 73
     4
 40
14.28749999999999
 49
9.525
 74
     0
 49
-1.587499999999999
 74
     0
 49
1.587499999999999
 74
     0
 49
-1.587499999999999
 74
     0
  0
LTYPE
  5
2B4
330
69
100
AcDbSymbolTableRecord
100
AcDbLinetypeTableRecord
  2
HIDDEN2
 70
     0
  3
Hidden (.5x) _ _ _ _ _ _ _ _ _ _ _ _ _ _ _ _ _
 72
    65
 73
     2
 40
4.762499999999999
 49
3.174999999999999
 74
     0
 49
-1.587499999999999
 74
     0
  0
ENDTAB
  0
TABLE
  2
LAYER
  5
66
330
0
100
AcDbSymbolTable
 70
     9
  0
LAYER
  5
5E
330
66
100
AcDbSymbolTableRecord
100
AcDbLayerTableRecord
  2
0
 70
     0
 62
     7
  6
CONTINUOUS
  0
LAYER
  5
3E
330
66
100
AcDbSymbolTableRecord
100
AcDbLayerTableRecord
  2
CENTER
 70
     0
 62
     3
  6
SEKKEI_A2_
  0
LAYER
  5
2B5
330
66
100
AcDbSymbolTableRecord
100
AcDbLayerTableRecord
  2
HIDS
 70
     0
 62
     1
  6
HIDDEN2
  0
LAYER
  5
2BA
330
66
100
AcDbSymbolTableRecord
100
AcDbLayerTableRecord
  2
HOJO
 70
     0
 62
     4
  6
CONTINUOUS
  0
LAYER
  5
3FA
330
66
100
AcDbSymbolTableRecord
100
AcDbLayerTableRecord
  2
TITLE
 70
     0
 62
     4
  6
CONTINUOUS
  0
ENDTAB
  0
TABLE
  2
STYLE
  5
67
330
0
100
AcDbSymbolTable
 70
     1
  0
STYLE
  5
16
330
67
100
AcDbSymbolTableRecord
100
AcDbTextStyleTableRecord
  2
STANDARD
 70
     0
 40
0.0
 41
1.0
 50
0.0
 71
     0
 42
2.0
  3
simplex.shx
  4
extfont.shx
  0
ENDTAB
  0
TABLE
  2
VIEW
  5
6C
330
0
100
AcDbSymbolTable
 70
     0
  0
ENDTAB
  0
TABLE
  2
UCS
  5
6D
330
0
100
AcDbSymbolTable
 70
     0
  0
ENDTAB
  0
TABLE
  2
APPID
  5
70
330
0
100
AcDbSymbolTable
 70
     1
  0
APPID
  5
71
330
70
100
AcDbSymbolTableRecord
100
AcDbRegAppTableRecord
  2
ACAD
 70
     0
  0
ENDTAB
  0
TABLE
  2
DIMSTYLE
  5
72
330
0
100
AcDbSymbolTable
 70
     1
  0
DIMSTYLE
105
73
330
72
100
AcDbSymbolTableRecord
100
AcDbDimStyleTableRecord
  2
STANDARD
 70
     0
  3

  4

  5

  6

  7

 40
3.0
 41
1.8
 42
0.625
 43
3.75
 44
0.8
 45
0.0
 46
0.0
 47
0.0
 48
0.0
140
1.8
141
2.5
142
0.0
143
0.0394
144
1.0
145
0.0
146
1.0
147
0.75
 71
     0
 72
     0
 73
     0
 74
     0
 75
     0
 76
     0
 77
     1
 78
     8
170
     0
171
     4
172
     1
173
     0
174
     0
175
     0
176
     0
177
     0
178
     0
270
     8
271
     2
272
     2
273
     8
274
     4
340
16
275
     0
280
     0
281
     0
282
     0
283
     1
284
     0
285
     0
286
     0
287
     3
288
     0
  0
ENDTAB
  0
TABLE
  2
BLOCK_RECORD
  5
1
330
0
100
AcDbSymbolTable
 70
    68
  0
BLOCK_RECORD
  5
2
102
{ACAD_XDICTIONARY
360
1D50
102
}
330
1
100
AcDbSymbolTableRecord
100
AcDbBlockTableRecord
  2
*MODEL_SPACE
  0
BLOCK_RECORD
  5
1D29
102
{ACAD_XDICTIONARY
360
1D52
102
}
330
1
100
AcDbSymbolTableRecord
100
AcDbBlockTableRecord
  2
*PAPER_SPACE
  0
ENDTAB
  0
ENDSEC
  0
SECTION
  2
BLOCKS
  0
BLOCK
  5
5D
330
2
100
AcDbEntity
  8
0
100
AcDbBlockBegin
  2
*MODEL_SPACE
 70
     0
 10
0.0
 20
0.0
 30
0.0
  3
*MODEL_SPACE
  1

  0
ENDBLK
  5
5F
330
2
100
AcDbEntity
  8
0
100
AcDbBlockEnd
  0
BLOCK
  5
1D2B
330
1D29
100
AcDbEntity
 67
     1
  8
0
100
AcDbBlockBegin
  2
*PAPER_SPACE
 70
     0
 10
0.0
 20
0.0
 30
0.0
  3
*PAPER_SPACE
  1

  0
ENDBLK
  5
1D2C
330
1D29
100
AcDbEntity
 67
     1
  8
0
100
AcDbBlockEnd
  0
ENDSEC
  0
SECTION
  2
ENTITIES
  0
ARC
  5
69E
330
2
100
AcDbEntity
  8
0
100
AcDbCircle
 10
387.3790215323237
 20
211.9235717537374
 30
0.0
 40
41.09999799999999
100
AcDbArc
 50
167.4768980000002
 51
12.52323999999984
  0
ARC
  5
69F
330
2
100
AcDbEntity
  8
0
100
AcDbCircle
 10
412.8790215323237
 20
152.9235717537374
 30
0.0
 40
31.89999999999999
100
AcDbArc
 50
270.0
 51
12.52323999999984
  0
ARC
  5
6A0
330
2
100
AcDbEntity
  8
0
100
AcDbCircle
 10
412.8790215323237
 20
152.9235717537374
 30
0.0
 40
29.0
100
AcDbArc
 50
270.0
 51
12.52323999999984
  0
ARC
  5
6A1
330
2
100
AcDbEntity
  8
0
100
AcDbCircle
 10
387.3790215323237
 20
211.9235717537374
 30
0.0
 40
44.0
100
AcDbArc
 50
12.52323999999984
 51
167.4768980000002
  0
CIRCLE
  5
6A2
330
2
100
AcDbEntity
  8
0
100
AcDbCircle
 10
387.3790215323237
 20
211.9235717537374
 30
0.0
 40
39.0
  0
LINE
  5
6A3
330
2
100
AcDbEntity
  8
0
100
AcDbLine
 10
459.9290395323238
 20
246.8091917537374
 30
0.0
 11
418.4324275323238
 21
275.5036347537374
 31
0.0
  0
LINE
  5
6A4
330
2
100
AcDbEntity
  8
0
100
AcDbLine
 10
311.3790215323238
 20
89.92357175373744
 30
0.0
 11
463.3790215323237
 21
89.92357175373744
 31
0.0
  0
LINE
  5
6A5
330
2
100
AcDbEntity
  8
0
100
AcDbLine
 10
311.3790215323238
 20
71.92356975373741
 30
0.0
 11
463.3790215323237
 21
71.92356975373741
 31
0.0
  0
LINE
  5
6A6
330
2
100
AcDbEntity
  8
CENTER
100
AcDbLine
 10
332.30666412067
 20
211.9235717537374
 30
0.0
 11
442.4514206645067
 21
211.9235717537374
 31
0.0
  0
LINE
  5
6A7
330
2
100
AcDbEntity
  8
CENTER
100
AcDbLine
 10
58.87902053232915
 20
506.4767708378907
 30
0.0
 11
473.3792355323239
 21
506.4767708378909
 31
0.0
  0
LINE
  5
6A8
330
2
100
AcDbEntity
  8
0
100
AcDbLine
 10
406.3790215323238
 20
431.4767708378908
 30
0.0
 11
445.8290645323238
 21
431.4767708378908
 31
0.0
  0
LINE
  5
6A9
330
2
100
AcDbEntity
  8
0
100
AcDbLine
 10
406.3790215323238
 20
581.4767708378907
 30
0.0
 11
445.8290645323238
 21
581.4767708378907
 31
0.0
  0
LINE
  5
6AC
330
2
100
AcDbEntity
  8
0
100
AcDbLine
 10
459.6456535323238
 20
461.4767708378908
 30
0.0
 11
314.7156605323238
 21
461.4767708378908
 31
0.0
  0
LINE
  5
6AD
330
2
100
AcDbEntity
  8
0
100
AcDbLine
 10
314.7156605323238
 20
551.4767708378907
 30
0.0
 11
459.6456535323238
 21
551.4767708378907
 31
0.0
  0
LINE
  5
6AE
330
2
100
AcDbEntity
  8
0
100
AcDbLine
 10
125.8790255323237
 20
119.5142697537374
 30
0.0
 11
234.8413475323238
 21
119.5142697537374
 31
0.0
  0
LINE
  5
6AF
330
2
100
AcDbEntity
  8
0
100
AcDbLine
 10
125.8790255323237
 20
188.3328737537374
 30
0.0
 11
234.8413475323238
 21
188.3328737537374
 31
0.0
  0
LINE
  5
6B0
330
2
100
AcDbEntity
  8
0
100
AcDbLine
 10
125.8790255323237
 20
108.9235717537374
 30
0.0
 11
244.8790215323238
 21
108.9235717537374
 31
0.0
  0
LINE
  5
6B1
330
2
100
AcDbEntity
  8
0
100
AcDbLine
 10
125.8790255323237
 20
198.9235717537374
 30
0.0
 11
244.8790215323238
 21
198.9235717537374
 31
0.0
  0
LINE
  5
6B2
330
2
100
AcDbEntity
  8
CENTER
100
AcDbLine
 10
58.87902053232597
 20
153.9235717537374
 30
0.0
 11
344.2654045323238
 21
153.9235717537374
 31
0.0
  0
LINE
  5
6B3
330
2
100
AcDbEntity
  8
0
100
AcDbLine
 10
125.8790255323237
 20
108.9235717537374
 30
0.0
 11
125.8790255323237
 21
198.9235717537374
 31
0.0
  0
LINE
  5
6B4
330
2
100
AcDbEntity
  8
0
100
AcDbLine
 10
68.87903553232388
 20
195.9235717537374
 30
0.0
 11
68.87900553232384
 21
111.9235597537374
 31
0.0
  0
LINE
  5
6B5
330
2
100
AcDbEntity
  8
0
100
AcDbLine
 10
116.3790255323237
 20
200.9235717537374
 30
0.0
 11
116.3790255323237
 21
106.9235717537374
 31
0.0
  0
ARC
  5
6B7
330
2
100
AcDbEntity
  8
0
100
AcDbCircle
 10
73.87900553232384
 20
111.9235717537374
 30
0.0
 40
5.0
100
AcDbArc
 50
180.0
 51
270.0
  0
LINE
  5
6B8
330
2
100
AcDbEntity
  8
0
100
AcDbLine
 10
116.3790255323237
 20
124.9235717537374
 30
0.0
 11
72.40399553232385
 21
124.9235717537374
 31
0.0
  0
LINE
  5
6B9
330
2
100
AcDbEntity
  8
0
100
AcDbLine
 10
73.87900553232384
 20
106.9235717537374
 30
0.0
 11
116.3790255323237
 21
106.9235717537374
 31
0.0
  0
LINE
  5
6BA
330
2
100
AcDbEntity
  8
0
100
AcDbLine
 10
116.3790255323237
 20
108.9235717537374
 30
0.0
 11
125.8790255323237
 21
108.9235717537374
 31
0.0
  0
LINE
  5
6BB
330
2
100
AcDbEntity
  8
0
100
AcDbLine
 10
125.8790255323237
 20
119.5142777537374
 30
0.0
 11
116.3790255323237
 21
119.5142777537374
 31
0.0
  0
ARC
  5
6BC
330
2
100
AcDbEntity
  8
0
100
AcDbCircle
 10
73.87903553232388
 20
195.9235717537374
 30
0.0
 40
5.0
100
AcDbArc
 50
90.0
 51
180.0
  0
LINE
  5
6BD
330
2
100
AcDbEntity
  8
0
100
AcDbLine
 10
116.3790255323237
 20
182.9235717537374
 30
0.0
 11
72.40399553232385
 21
182.9235717537374
 31
0.0
  0
LINE
  5
6C0
330
2
100
AcDbEntity
  8
HOJO
100
AcDbLine
 10
117.8790255323237
 20
177.4529677537374
 30
0.0
 11
119.3790255323238
 21
177.9529677537374
 31
0.0
  0
LINE
  5
6C1
330
2
100
AcDbEntity
  8
0
100
AcDbLine
 10
117.8790255323237
 20
182.4529677537374
 30
0.0
 11
117.8790255323237
 21
177.4373727537374
 31
0.0
  0
ARC
  5
6C2
330
2
100
AcDbEntity
  8
0
100
AcDbCircle
 10
116.3790255323237
 20
182.4529677537374
 30
0.0
 40
1.5
100
AcDbArc
 50
0.0
 51
90.0
  0
ARC
  5
6C3
330
2
100
AcDbEntity
  8
0
100
AcDbCircle
 10
116.3790255323237
 20
182.4529677537374
 30
0.0
 40
3.0
100
AcDbArc
 50
0.0
 51
90.0
  0
ARC
  5
6C4
330
2
100
AcDbEntity
  8
0
100
AcDbCircle
 10
116.3790255323237
 20
182.4529677537374
 30
0.0
 40
4.5
100
AcDbArc
 50
0.0
 51
90.0
  0
LINE
  5
6C5
330
2
100
AcDbEntity
  8
0
100
AcDbLine
 10
125.8790255323237
 20
188.3328737537374
 30
0.0
 11
116.3790255323237
 21
188.3328737537374
 31
0.0
  0
LINE
  5
6C6
330
2
100
AcDbEntity
  8
0
100
AcDbLine
 10
116.3790255323237
 20
198.9235717537374
 30
0.0
 11
125.8790255323237
 21
198.9235717537374
 31
0.0
  0
LINE
  5
6C7
330
2
100
AcDbEntity
  8
HOJO
100
AcDbLine
 10
119.3790255323238
 20
178.4529677537374
 30
0.0
 11
120.8790255323237
 21
177.9529677537374
 31
0.0
  0
LINE
  5
6C8
330
2
100
AcDbEntity
  8
0
100
AcDbLine
 10
120.8790255323237
 20
182.4529677537374
 30
0.0
 11
120.8790255323237
 21
177.9529677537374
 31
0.0
  0
LINE
  5
6C9
330
2
100
AcDbEntity
  8
0
100
AcDbLine
 10
119.3790255323238
 20
182.4529677537374
 30
0.0
 11
119.3790255323238
 21
177.9529677537374
 31
0.0
  0
LINE
  5
6CA
330
2
100
AcDbEntity
  8
0
100
AcDbLine
 10
73.87900553232384
 20
200.9235717537374
 30
0.0
 11
116.3790255323237
 21
200.9235717537374
 31
0.0
  0
LINE
  5
6D3
330
2
100
AcDbEntity
  8
0
100
AcDbLine
 10
290.8790215323238
 20
127.5713067537374
 30
0.0
 11
290.8790215323238
 21
228.9236937537374
 31
0.0
  0
LINE
  5
6D4
330
2
100
AcDbEntity
  8
0
100
AcDbLine
 10
244.8790215323238
 20
198.9235717537374
 30
0.0
 11
244.8790215323238
 21
108.9235717537374
 31
0.0
  0
LINE
  5
6D5
330
2
100
AcDbEntity
  8
0
100
AcDbLine
 10
235.8790215323238
 20
196.9235717537373
 30
0.0
 11
235.8790215323238
 21
110.9235487537374
 31
0.0
  0
LINE
  5
6D6
330
2
100
AcDbEntity
  8
0
100
AcDbLine
 10
299.3790215323238
 20
230.9235717537374
 30
0.0
 11
299.3790215323238
 21
102.9235717537374
 31
0.0
  0
ARC
  5
6D7
330
2
100
AcDbEntity
  8
0
100
AcDbCircle
 10
491.0878225323237
 20
166.9235717537373
 30
0.0
 40
185.2088929999999
100
AcDbArc
 50
166.0019069999998
 51
193.9980930000001
  0
ARC
  5
6D8
330
2
100
AcDbEntity
  8
0
100
AcDbCircle
 10
361.8790215323238
 20
152.9235717537374
 30
0.0
 40
31.89999999999999
100
AcDbArc
 50
167.4768980000002
 51
270.0
  0
ARC
  5
6D9
330
2
100
AcDbEntity
  8
0
100
AcDbCircle
 10
361.8790215323238
 20
152.9235717537374
 30
0.0
 40
29.0
100
AcDbArc
 50
167.4768980000002
 51
270.0
  0
LINE
  5
6DA
330
2
100
AcDbEntity
  8
0
100
AcDbLine
 10
311.3790215323238
 20
71.92356975373741
 30
0.0
 11
311.3790215323238
 21
235.4235717537374
 31
0.0
  0
LINE
  5
6DB
330
2
100
AcDbEntity
  8
CENTER
100
AcDbLine
 10
387.3790215323237
 20
286.9235717537374
 30
0.0
 11
387.3790215323237
 21
61.92356975373744
 31
0.0
  0
LINE
  5
6DC
330
2
100
AcDbEntity
  8
0
100
AcDbLine
 10
306.3790215323237
 20
102.9235717537374
 30
0.0
 11
299.3790215323238
 21
102.9235717537374
 31
0.0
  0
LINE
  5
6DD
330
2
100
AcDbEntity
  8
0
100
AcDbLine
 10
244.8790215323238
 20
118.4045707537374
 30
0.0
 11
299.3790215323238
 21
118.4045707537374
 31
0.0
  0
LINE
  5
6DE
330
2
100
AcDbEntity
  8
0
100
AcDbLine
 10
244.8790215323238
 20
133.4175667537374
 30
0.0
 11
288.8790215323238
 21
133.4175667537374
 31
0.0
  0
LINE
  5
6DF
330
2
100
AcDbEntity
  8
0
100
AcDbLine
 10
299.3790215323238
 20
107.0203887537374
 30
0.0
 11
244.8790215323238
 21
108.9235717537374
 31
0.0
  0
ARC
  5
6E0
330
2
100
AcDbEntity
  8
0
100
AcDbCircle
 10
237.8790215323238
 20
110.9235717537374
 30
0.0
 40
2.0
100
AcDbArc
 50
180.0
 51
270.0
  0
ARC
  5
6E1
330
2
100
AcDbEntity
  8
0
100
AcDbCircle
 10
288.3790675323239
 20
104.9029917537374
 30
0.0
 40
2.5
100
AcDbArc
 50
0.2607730000002915
 51
88.00000000000043
  0
ARC
  5
6E2
330
2
100
AcDbEntity
  8
0
100
AcDbCircle
 10
292.8790215323238
 20
104.9234727537374
 30
0.0
 40
2.0
100
AcDbArc
 50
180.2607730000002
 51
270.0
  0
LINE
  5
6E3
330
2
100
AcDbEntity
  8
0
100
AcDbLine
 10
292.8790215323238
 20
102.9234727537374
 30
0.0
 11
299.3790215323238
 21
102.9234727537374
 31
0.0
  0
LINE
  5
6E4
330
2
100
AcDbEntity
  8
0
100
AcDbLine
 10
291.4469995323238
 20
126.3565697537374
 30
0.0
 11
299.3790215323238
 21
126.3565697537374
 31
0.0
  0
LINE
  5
6E5
330
2
100
AcDbEntity
  8
CENTER
100
AcDbLine
 10
339.8790215323238
 20
94.9235717537374
 30
0.0
 11
339.8790215323238
 21
66.92356975373741
 31
0.0
  0
LINE
  5
6E6
330
2
100
AcDbEntity
  8
0
100
AcDbLine
 10
411.1364375323238
 20
94.92357175373744
 30
0.0
 11
363.6216365323239
 21
94.92357175373744
 31
0.0
  0
LINE
  5
6E7
330
2
100
AcDbEntity
  8
0
100
AcDbLine
 10
412.8790215323237
 20
123.9235717537374
 30
0.0
 11
361.8790215323238
 21
123.9235717537374
 31
0.0
  0
LINE
  5
6E8
330
2
100
AcDbEntity
  8
0
100
AcDbLine
 10
361.8790215323238
 20
121.0235697537374
 30
0.0
 11
412.8790215323237
 21
121.0235697537374
 31
0.0
  0
LINE
  5
6EA
330
2
100
AcDbEntity
  8
0
100
AcDbLine
 10
325.3790215323238
 20
87.85700875373743
 30
0.0
 11
325.3790215323238
 21
71.92356975373741
 31
0.0
  0
LINE
  5
6EB
330
2
100
AcDbEntity
  8
HIDS
100
AcDbLine
 10
333.3790215323237
 20
89.92357175373744
 30
0.0
 11
333.3790215323237
 21
71.92356975373741
 31
0.0
  0
ARC
  5
6EC
330
2
100
AcDbEntity
  8
0
100
AcDbCircle
 10
306.3790515323238
 20
97.92354875373741
 30
0.0
 40
5.0
100
AcDbArc
 50
0.0
 51
90.0
  0
LINE
  5
6ED
330
2
100
AcDbEntity
  8
0
100
AcDbLine
 10
361.5004205323239
 20
94.04489075373744
 30
0.0
 11
358.8436215323238
 21
91.38806775373742
 31
0.0
  0
LINE
  5
6EE
330
2
100
AcDbEntity
  8
0
100
AcDbLine
 10
362.3790215323237
 20
93.98768875373741
 30
0.0
 11
362.3790215323237
 21
90.92357175373743
 31
0.0
  0
LINE
  5
6EF
330
2
100
AcDbEntity
  8
HIDS
100
AcDbLine
 10
346.3790215323238
 20
89.92357175373744
 30
0.0
 11
346.3790215323238
 21
71.92356975373741
 31
0.0
  0
ARC
  5
6F0
330
2
100
AcDbEntity
  8
0
100
AcDbCircle
 10
355.3080375323238
 20
94.92357175373744
 30
0.0
 40
5.0
100
AcDbArc
 50
270.0
 51
315.0000919999998
  0
ARC
  5
6F1
330
2
100
AcDbEntity
  8
0
100
AcDbCircle
 10
361.3790215323238
 20
90.92357175373743
 30
0.0
 40
1.0
100
AcDbArc
 50
270.0
 51
0.0
  0
ARC
  5
6F2
330
2
100
AcDbEntity
  8
0
100
AcDbCircle
 10
363.6216365323239
 20
91.92357175373743
 30
0.0
 40
3.0
100
AcDbArc
 50
90.0
 51
135.0003050000002
  0
LINE
  5
6F3
330
2
100
AcDbEntity
  8
0
100
AcDbLine
 10
412.3790215323237
 20
93.98768875373741
 30
0.0
 11
412.3790215323237
 21
90.92357175373743
 31
0.0
  0
LINE
  5
6F4
330
2
100
AcDbEntity
  8
0
100
AcDbLine
 10
413.2576225323239
 20
94.04489075373744
 30
0.0
 11
415.9146355323238
 21
91.38802975373744
 31
0.0
  0
ARC
  5
6F5
330
2
100
AcDbEntity
  8
0
100
AcDbCircle
 10
413.3790215323237
 20
90.92357175373743
 30
0.0
 40
1.0
100
AcDbArc
 50
180.0
 51
270.0
  0
ARC
  5
6F6
330
2
100
AcDbEntity
  8
0
100
AcDbCircle
 10
419.4500355323238
 20
94.92357175373744
 30
0.0
 40
5.0
100
AcDbArc
 50
225.0
 51
270.0
  0
ARC
  5
6F7
330
2
100
AcDbEntity
  8
0
100
AcDbCircle
 10
411.1364375323238
 20
91.92357175373743
 30
0.0
 40
3.0
100
AcDbArc
 50
45.00016000000012
 51
90.0
  0
LINE
  5
6F8
330
2
100
AcDbEntity
  8
0
100
AcDbLine
 10
369.9748165323237
 20
146.9509917537374
 30
0.0
 11
369.9748165323237
 21
138.7414117537374
 31
0.0
  0
LINE
  5
6F9
330
2
100
AcDbEntity
  8
0
100
AcDbLine
 10
368.3790215323238
 20
147.9651057537374
 30
0.0
 11
368.3790215323238
 21
137.7726927537374
 31
0.0
  0
LINE
  5
6FA
330
2
100
AcDbEntity
  8
0
100
AcDbLine
 10
373.5372245323237
 20
137.5934937537374
 30
0.0
 11
371.0646295323237
 21
137.5934937537374
 31
0.0
  0
LINE
  5
6FB
330
2
100
AcDbEntity
  8
0
100
AcDbLine
 10
375.1520315323237
 20
135.9235717537374
 30
0.0
 11
370.2116325323238
 21
135.9235717537374
 31
0.0
  0
LINE
  5
6FC
330
2
100
AcDbEntity
  8
0
100
AcDbLine
 10
368.3790215323238
 20
137.7726927537374
 30
0.0
 11
370.2116325323238
 21
135.9235717537374
 31
0.0
  0
LINE
  5
6FD
330
2
100
AcDbEntity
  8
0
100
AcDbLine
 10
369.9748165323237
 20
138.7414117537374
 30
0.0
 11
371.0646295323237
 21
137.5934937537374
 31
0.0
  0
LINE
  5
6FE
330
2
100
AcDbEntity
  8
0
100
AcDbLine
 10
376.5060355323238
 20
137.0594887537374
 30
0.0
 11
375.1520315323237
 21
135.9235717537374
 31
0.0
  0
LINE
  5
6FF
330
2
100
AcDbEntity
  8
0
100
AcDbLine
 10
376.5060355323238
 20
135.9235717537374
 30
0.0
 11
377.8790215323238
 21
135.9235717537374
 31
0.0
  0
LINE
  5
700
330
2
100
AcDbEntity
  8
0
100
AcDbLine
 10
374.0196155323238
 20
144.1989697537374
 30
0.0
 11
374.0196155323238
 21
142.6403687537374
 31
0.0
  0
LINE
  5
701
330
2
100
AcDbEntity
  8
0
100
AcDbLine
 10
376.5060355323238
 20
142.6403687537374
 30
0.0
 11
376.5060355323238
 21
140.5622277537374
 31
0.0
  0
LINE
  5
702
330
2
100
AcDbEntity
  8
0
100
AcDbLine
 10
376.5060355323238
 20
137.0594887537374
 30
0.0
 11
376.5060355323238
 21
135.9235717537374
 31
0.0
  0
ARC
  5
703
330
2
100
AcDbEntity
  8
0
100
AcDbCircle
 10
373.5372245323237
 20
140.5622277537374
 30
0.0
 40
2.96875
100
AcDbArc
 50
270.0002139999998
 51
0.0001089999998967
  0
LINE
  5
704
330
2
100
AcDbEntity
  8
0
100
AcDbLine
 10
376.5060355323238
 20
141.1559937537374
 30
0.0
 11
376.5060355323238
 21
142.3434937537374
 31
0.0
  0
LINE
  5
705
330
2
100
AcDbEntity
  8
0
100
AcDbLine
 10
376.5060355323238
 20
142.6403687537374
 30
0.0
 11
374.0196155323238
 21
142.6403687537374
 31
0.0
  0
LINE
  5
706
330
2
100
AcDbEntity
  8
0
100
AcDbLine
 10
374.0196155323238
 20
144.1989697537374
 30
0.0
 11
377.8790215323238
 21
144.1989697537374
 31
0.0
  0
LINE
  5
707
330
2
100
AcDbEntity
  8
0
100
AcDbLine
 10
377.8790215323238
 20
144.1989697537374
 30
0.0
 11
377.8790215323238
 21
135.9235717537374
 31
0.0
  0
LINE
  5
708
330
2
100
AcDbEntity
  8
0
100
AcDbLine
 10
370.1038135323237
 20
150.1735717537374
 30
0.0
 11
376.4918145323238
 21
150.1735717537374
 31
0.0
  0
LINE
  5
709
330
2
100
AcDbEntity
  8
0
100
AcDbLine
 10
375.6250235323239
 20
148.2809937537374
 30
0.0
 11
371.0474175323238
 21
148.2809937537374
 31
0.0
  0
LINE
  5
70A
330
2
100
AcDbEntity
  8
0
100
AcDbLine
 10
370.1038135323237
 20
150.1735717537374
 30
0.0
 11
368.3790215323238
 21
147.9651057537374
 31
0.0
  0
LINE
  5
70B
330
2
100
AcDbEntity
  8
0
100
AcDbLine
 10
371.0474175323238
 20
148.2809937537374
 30
0.0
 11
369.9748165323237
 21
146.9509917537374
 31
0.0
  0
LINE
  5
70C
330
2
100
AcDbEntity
  8
0
100
AcDbLine
 10
376.5060355323238
 20
147.4294307537374
 30
0.0
 11
376.5060355323238
 21
147.2048217537374
 31
0.0
  0
LINE
  5
70D
330
2
100
AcDbEntity
  8
0
100
AcDbLine
 10
377.8790215323238
 20
148.6339907537374
 30
0.0
 11
377.8790215323238
 21
147.2048217537374
 31
0.0
  0
LINE
  5
70E
330
2
100
AcDbEntity
  8
0
100
AcDbLine
 10
376.5060355323238
 20
147.2048217537374
 30
0.0
 11
377.8790215323238
 21
147.2048217537374
 31
0.0
  0
LINE
  5
70F
330
2
100
AcDbEntity
  8
0
100
AcDbLine
 10
376.4918145323238
 20
150.1735717537374
 30
0.0
 11
377.8790215323238
 21
148.6339907537374
 31
0.0
  0
LINE
  5
710
330
2
100
AcDbEntity
  8
0
100
AcDbLine
 10
376.5060355323238
 20
147.4294307537374
 30
0.0
 11
375.6070185323237
 21
148.2809937537374
 31
0.0
  0
LINE
  5
711
330
2
100
AcDbEntity
  8
0
100
AcDbLine
 10
388.2326285323238
 20
148.4294307537374
 30
0.0
 11
388.2326285323238
 21
137.4821727537374
 31
0.0
  0
LINE
  5
712
330
2
100
AcDbEntity
  8
0
100
AcDbLine
 10
386.4512265323238
 20
148.4294307537374
 30
0.0
 11
386.4512265323238
 21
137.4821727537374
 31
0.0
  0
LINE
  5
713
330
2
100
AcDbEntity
  8
0
100
AcDbLine
 10
385.7462395323238
 20
137.4821727537374
 30
0.0
 11
386.4512265323238
 21
137.4821727537374
 31
0.0
  0
LINE
  5
714
330
2
100
AcDbEntity
  8
0
100
AcDbLine
 10
385.7462395323238
 20
135.9235717537374
 30
0.0
 11
388.8262265323238
 21
135.9235717537374
 31
0.0
  0
LINE
  5
715
330
2
100
AcDbEntity
  8
0
100
AcDbLine
 10
388.8262265323238
 20
137.4821727537374
 30
0.0
 11
388.8262265323238
 21
135.9235717537374
 31
0.0
  0
LINE
  5
716
330
2
100
AcDbEntity
  8
0
100
AcDbLine
 10
385.7462395323238
 20
137.4821727537374
 30
0.0
 11
385.7462395323238
 21
135.9235717537374
 31
0.0
  0
LINE
  5
717
330
2
100
AcDbEntity
  8
0
100
AcDbLine
 10
388.2326285323238
 20
137.4821727537374
 30
0.0
 11
388.8262265323238
 21
137.4821727537374
 31
0.0
  0
LINE
  5
718
330
2
100
AcDbEntity
  8
0
100
AcDbLine
 10
386.4512265323238
 20
148.4294307537374
 30
0.0
 11
384.1938105323238
 21
148.4294307537374
 31
0.0
  0
LINE
  5
719
330
2
100
AcDbEntity
  8
0
100
AcDbLine
 10
382.6290215323238
 20
150.1735717537374
 30
0.0
 11
392.1290215323238
 21
150.1735717537374
 31
0.0
  0
LINE
  5
71A
330
2
100
AcDbEntity
  8
0
100
AcDbLine
 10
384.1938105323238
 20
148.4294307537374
 30
0.0
 11
383.6836175323238
 21
147.2048217537374
 31
0.0
  0
LINE
  5
71B
330
2
100
AcDbEntity
  8
0
100
AcDbLine
 10
382.6290215323238
 20
147.2048217537374
 30
0.0
 11
383.6836175323238
 21
147.2048217537374
 31
0.0
  0
LINE
  5
71C
330
2
100
AcDbEntity
  8
0
100
AcDbLine
 10
382.6290215323238
 20
147.2048217537374
 30
0.0
 11
382.6290215323238
 21
150.1735717537374
 31
0.0
  0
LINE
  5
71D
330
2
100
AcDbEntity
  8
0
100
AcDbLine
 10
388.2326285323238
 20
148.4294307537374
 30
0.0
 11
390.7078175323238
 21
148.4294307537374
 31
0.0
  0
LINE
  5
71E
330
2
100
AcDbEntity
  8
0
100
AcDbLine
 10
390.7078175323238
 20
148.4294307537374
 30
0.0
 11
391.1380245323239
 21
147.2048217537374
 31
0.0
  0
LINE
  5
71F
330
2
100
AcDbEntity
  8
0
100
AcDbLine
 10
391.1380245323239
 20
147.2048217537374
 30
0.0
 11
392.1290215323238
 21
147.2048217537374
 31
0.0
  0
LINE
  5
720
330
2
100
AcDbEntity
  8
0
100
AcDbLine
 10
392.1290215323238
 20
147.2048217537374
 30
0.0
 11
392.1290215323238
 21
150.1735717537374
 31
0.0
  0
LINE
  5
721
330
2
100
AcDbEntity
  8
0
100
AcDbLine
 10
399.2170345323238
 20
148.4294307537374
 30
0.0
 11
399.2170345323238
 21
144.0687287537374
 31
0.0
  0
ARC
  5
722
330
2
100
AcDbEntity
  8
0
100
AcDbCircle
 10
402.5752185323238
 20
146.3698527537374
 30
0.0
 40
2.320524
100
AcDbArc
 50
277.4147259999995
 51
62.41184999999949
  0
ARC
  5
723
330
2
100
AcDbEntity
  8
0
100
AcDbCircle
 10
402.5752185323238
 20
146.3698527537374
 30
0.0
 40
3.803712
100
AcDbArc
 50
286.0181269999995
 51
90.00350999999964
  0
LINE
  5
724
330
2
100
AcDbEntity
  8
0
100
AcDbLine
 10
397.5842215323238
 20
148.4294307537374
 30
0.0
 11
397.5842215323238
 21
137.4079467537374
 31
0.0
  0
LINE
  5
725
330
2
100
AcDbEntity
  8
0
100
AcDbLine
 10
399.2170345323238
 20
142.5847117537374
 30
0.0
 11
402.2576225323239
 21
142.5847117537374
 31
0.0
  0
LINE
  5
726
330
2
100
AcDbEntity
  8
0
100
AcDbLine
 10
402.8748405323238
 20
144.0687287537374
 30
0.0
 11
399.2170345323238
 21
144.0687287537374
 31
0.0
  0
LINE
  5
727
330
2
100
AcDbEntity
  8
0
100
AcDbLine
 10
396.8790215323238
 20
137.4079467537374
 30
0.0
 11
396.8790215323238
 21
135.9235717537374
 31
0.0
  0
LINE
  5
728
330
2
100
AcDbEntity
  8
0
100
AcDbLine
 10
399.8664175323238
 20
137.4079467537374
 30
0.0
 11
399.8664175323238
 21
135.9235717537374
 31
0.0
  0
LINE
  5
729
330
2
100
AcDbEntity
  8
0
100
AcDbLine
 10
399.8664175323238
 20
135.9235717537374
 30
0.0
 11
396.8790215323238
 21
135.9235717537374
 31
0.0
  0
LINE
  5
72A
330
2
100
AcDbEntity
  8
0
100
AcDbLine
 10
399.2170345323238
 20
137.4079467537374
 30
0.0
 11
399.8664175323238
 21
137.4079467537374
 31
0.0
  0
LINE
  5
72B
330
2
100
AcDbEntity
  8
0
100
AcDbLine
 10
396.8790215323238
 20
137.4079467537374
 30
0.0
 11
397.5842215323238
 21
137.4079467537374
 31
0.0
  0
LINE
  5
72C
330
2
100
AcDbEntity
  8
0
100
AcDbLine
 10
399.2170345323238
 20
142.5847117537374
 30
0.0
 11
399.2170345323238
 21
137.4079467537374
 31
0.0
  0
LINE
  5
72D
330
2
100
AcDbEntity
  8
0
100
AcDbLine
 10
404.1896295323238
 20
137.4079467537374
 30
0.0
 11
404.1896295323238
 21
135.9235717537374
 31
0.0
  0
LINE
  5
72E
330
2
100
AcDbEntity
  8
0
100
AcDbLine
 10
406.3790215323238
 20
137.4079467537374
 30
0.0
 11
406.3790215323238
 21
135.9235717537374
 31
0.0
  0
LINE
  5
72F
330
2
100
AcDbEntity
  8
0
100
AcDbLine
 10
404.1896295323238
 20
135.9235717537374
 30
0.0
 11
406.3790215323238
 21
135.9235717537374
 31
0.0
  0
LINE
  5
730
330
2
100
AcDbEntity
  8
0
100
AcDbLine
 10
405.9792105323237
 20
137.4079467537374
 30
0.0
 11
406.3790215323238
 21
137.4079467537374
 31
0.0
  0
LINE
  5
731
330
2
100
AcDbEntity
  8
0
100
AcDbLine
 10
404.1896295323238
 20
137.4079467537374
 30
0.0
 11
404.4856195323238
 21
137.4079467537374
 31
0.0
  0
LINE
  5
732
330
2
100
AcDbEntity
  8
0
100
AcDbLine
 10
402.2576225323239
 20
142.5847117537374
 30
0.0
 11
404.4856195323238
 21
137.4079467537374
 31
0.0
  0
LINE
  5
733
330
2
100
AcDbEntity
  8
0
100
AcDbLine
 10
403.6248405323237
 20
142.7138317537374
 30
0.0
 11
405.9792105323237
 21
137.4079467537374
 31
0.0
  0
LINE
  5
734
330
2
100
AcDbEntity
  8
0
100
AcDbLine
 10
399.2170345323238
 20
148.4294307537374
 30
0.0
 11
403.6500175323238
 21
148.4265467537374
 31
0.0
  0
LINE
  5
735
330
2
100
AcDbEntity
  8
0
100
AcDbLine
 10
396.8790215323238
 20
150.1735717537374
 30
0.0
 11
402.5752185323238
 21
150.1735717537374
 31
0.0
  0
LINE
  5
736
330
2
100
AcDbEntity
  8
0
100
AcDbLine
 10
396.8790215323238
 20
148.4294307537374
 30
0.0
 11
397.5842215323238
 21
148.4294307537374
 31
0.0
  0
LINE
  5
737
330
2
100
AcDbEntity
  8
0
100
AcDbLine
 10
396.8790215323238
 20
150.1735717537374
 30
0.0
 11
396.8790215323238
 21
148.4294307537374
 31
0.0
  0
LINE
  5
739
330
2
100
AcDbEntity
  8
0
100
AcDbLine
 10
306.3790215323237
 20
230.9235717537374
 30
0.0
 11
299.3790215323238
 21
230.9235717537374
 31
0.0
  0
LINE
  5
73A
330
2
100
AcDbEntity
  8
0
100
AcDbLine
 10
244.8790215323238
 20
198.9235717537374
 30
0.0
 11
290.8790215323238
 21
200.5299257537374
 31
0.0
  0
ARC
  5
73B
330
2
100
AcDbEntity
  8
0
100
AcDbCircle
 10
237.8790215323238
 20
196.9235867537374
 30
0.0
 40
2.0
100
AcDbArc
 50
90.0
 51
180.0
  0
ARC
  5
73C
330
2
100
AcDbEntity
  8
0
100
AcDbCircle
 10
288.3790215323238
 20
208.4591097537373
 30
0.0
 40
2.5
100
AcDbArc
 50
315.0
 51
0.0
  0
ARC
  5
73D
330
2
100
AcDbEntity
  8
0
100
AcDbCircle
 10
282.6645135323238
 20
202.7445857537374
 30
0.0
 40
2.5
100
AcDbArc
 50
271.9999999999995
 51
315.0
  0
LINE
  5
73E
330
2
100
AcDbEntity
  8
0
100
AcDbLine
 10
290.1467975323238
 20
206.6913327537374
 30
0.0
 11
284.4322745323238
 21
200.9768247537374
 31
0.0
  0
ARC
  5
73F
330
2
100
AcDbEntity
  8
0
100
AcDbCircle
 10
292.8790515323238
 20
228.9236937537374
 30
0.0
 40
2.0
100
AcDbArc
 50
90.0
 51
180.0
  0
LINE
  5
740
330
2
100
AcDbEntity
  8
0
100
AcDbLine
 10
292.8790215323238
 20
230.9236787537374
 30
0.0
 11
299.3790215323238
 21
230.9236787537374
 31
0.0
  0
ARC
  5
741
330
2
100
AcDbEntity
  8
0
100
AcDbCircle
 10
319.3790215323238
 20
240.2291747537374
 30
0.0
 40
8.0
100
AcDbArc
 50
124.6638029999998
 51
180.0
  0
LINE
  5
742
330
2
100
AcDbEntity
  8
0
100
AcDbLine
 10
333.5690235323238
 20
159.2117567537373
 30
0.0
 11
347.2568295323237
 21
220.8354517537374
 31
0.0
  0
LINE
  5
743
330
2
100
AcDbEntity
  8
0
100
AcDbLine
 10
330.7380305323238
 20
159.8405717537374
 30
0.0
 11
344.4258355323238
 21
221.4642667537374
 31
0.0
  0
ARC
  5
744
330
2
100
AcDbEntity
  8
0
100
AcDbCircle
 10
306.3790065323238
 20
235.9235717537373
 30
0.0
 40
5.0
100
AcDbArc
 50
270.0
 51
0.0
  0
LINE
  5
745
330
2
100
AcDbEntity
  8
0
100
AcDbLine
 10
311.3790215323238
 20
235.4235717537374
 30
0.0
 11
311.3790215323238
 21
240.2291287537374
 31
0.0
  0
ARC
  5
746
330
2
100
AcDbEntity
  8
0
100
AcDbCircle
 10
387.3790215323237
 20
211.9235717537374
 30
0.0
 40
16.0
100
AcDbArc
 50
18.20990000000007
 51
341.7900999999999
  0
LINE
  5
747
330
2
100
AcDbEntity
  8
0
100
AcDbLine
 10
406.3790215323238
 20
206.9236327537374
 30
0.0
 11
406.3790215323238
 21
216.9236327537374
 31
0.0
  0
LINE
  5
748
330
2
100
AcDbEntity
  8
0
100
AcDbLine
 10
398.3790215323238
 20
206.9236177537374
 30
0.0
 11
398.3790215323238
 21
216.9236177537374
 31
0.0
  0
LINE
  5
749
330
2
100
AcDbEntity
  8
0
100
AcDbLine
 10
406.3790215323238
 20
206.9236327537374
 30
0.0
 11
398.3790215323238
 21
206.9236177537374
 31
0.0
  0
LINE
  5
74A
330
2
100
AcDbEntity
  8
0
100
AcDbLine
 10
406.3790215323238
 20
216.9236327537374
 30
0.0
 11
398.3790215323238
 21
216.9236177537374
 31
0.0
  0
LINE
  5
74B
330
2
100
AcDbEntity
  8
0
100
AcDbLine
 10
360.8756335323238
 20
276.9235717537374
 30
0.0
 11
413.8824395323238
 21
276.9235717537374
 31
0.0
  0
LINE
  5
74C
330
2
100
AcDbEntity
  8
0
100
AcDbLine
 10
314.8289875323238
 20
246.8091917537374
 30
0.0
 11
356.3256155323238
 21
275.5036347537374
 31
0.0
  0
ARC
  5
74D
330
2
100
AcDbEntity
  8
0
100
AcDbCircle
 10
360.8756335323238
 20
268.9235717537374
 30
0.0
 40
8.0
100
AcDbArc
 50
90.0
 51
124.6636960000001
  0
ARC
  5
74E
330
2
100
AcDbEntity
  8
0
100
AcDbCircle
 10
413.8824395323238
 20
268.9235717537374
 30
0.0
 40
8.0
100
AcDbArc
 50
55.33668900000004
 51
90.0
  0
LINE
  5
74F
330
2
100
AcDbEntity
  8
0
100
AcDbLine
 10
125.8790255323237
 20
477.4767708378909
 30
0.0
 11
235.8790215323238
 21
477.4767708378909
 31
0.0
  0
LINE
  5
750
330
2
100
AcDbEntity
  8
0
100
AcDbLine
 10
125.8790255323237
 20
535.4767708378907
 30
0.0
 11
235.8790215323238
 21
535.4767708378907
 31
0.0
  0
LINE
  5
751
330
2
100
AcDbEntity
  8
0
100
AcDbLine
 10
125.8790255323237
 20
461.4767708378908
 30
0.0
 11
244.8790215323238
 21
461.4767708378908
 31
0.0
  0
LINE
  5
752
330
2
100
AcDbEntity
  8
0
100
AcDbLine
 10
125.8790255323237
 20
551.4767708378907
 30
0.0
 11
244.8790215323238
 21
551.4767708378907
 31
0.0
  0
LINE
  5
753
330
2
100
AcDbEntity
  8
0
100
AcDbLine
 10
68.87903553232388
 20
548.4767708378907
 30
0.0
 11
68.87900553232384
 21
464.4767408378908
 31
0.0
  0
LINE
  5
754
330
2
100
AcDbEntity
  8
0
100
AcDbLine
 10
116.3790255323237
 20
553.4767708378907
 30
0.0
 11
116.3790255323237
 21
459.4767708378908
 31
0.0
  0
LINE
  5
755
330
2
100
AcDbEntity
  8
0
100
AcDbLine
 10
125.8790255323238
 20
531.4767708378908
 30
0.0
 11
125.8790255323237
 21
551.4767708378907
 31
0.0
  0
ARC
  5
756
330
2
100
AcDbEntity
  8
0
100
AcDbCircle
 10
73.87900553232384
 20
464.4767708378908
 30
0.0
 40
5.0
100
AcDbArc
 50
180.0
 51
270.0
  0
LINE
  5
757
330
2
100
AcDbEntity
  8
0
100
AcDbLine
 10
116.3790255323237
 20
477.4767708378909
 30
0.0
 11
72.40399553232385
 21
477.4767708378909
 31
0.0
  0
LINE
  5
758
330
2
100
AcDbEntity
  8
0
100
AcDbLine
 10
125.8790255323237
 20
461.4767708378908
 30
0.0
 11
125.8790255323237
 21
481.4767708378908
 31
0.0
  0
LINE
  5
759
330
2
100
AcDbEntity
  8
0
100
AcDbLine
 10
73.87900553232384
 20
459.4767708378908
 30
0.0
 11
116.3790255323237
 21
459.4767708378908
 31
0.0
  0
ARC
  5
75A
330
2
100
AcDbEntity
  8
0
100
AcDbCircle
 10
116.3790255323237
 20
467.2069048378907
 30
0.0
 40
3.0
100
AcDbArc
 50
0.0
 51
90.0
  0
ARC
  5
75B
330
2
100
AcDbEntity
  8
0
100
AcDbCircle
 10
116.3790255323237
 20
467.2069048378907
 30
0.0
 40
4.5
100
AcDbArc
 50
0.0
 51
90.0
  0
ARC
  5
75C
330
2
100
AcDbEntity
  8
0
100
AcDbCircle
 10
116.3790255323237
 20
467.2069048378907
 30
0.0
 40
1.5
100
AcDbArc
 50
0.0
 51
90.0
  0
LINE
  5
75D
330
2
100
AcDbEntity
  8
0
100
AcDbLine
 10
116.3790255323237
 20
461.4767708378908
 30
0.0
 11
125.8790255323237
 21
461.4767708378908
 31
0.0
  0
LINE
  5
75E
330
2
100
AcDbEntity
  8
HOJO
100
AcDbLine
 10
119.3790255323238
 20
463.2069048378907
 30
0.0
 11
120.8790255323237
 21
462.7069048378907
 31
0.0
  0
LINE
  5
75F
330
2
100
AcDbEntity
  8
HOJO
100
AcDbLine
 10
117.8790255323237
 20
462.2069048378907
 30
0.0
 11
119.3790255323238
 21
462.7069048378907
 31
0.0
  0
LINE
  5
760
330
2
100
AcDbEntity
  8
0
100
AcDbLine
 10
120.8790255323237
 20
467.2069048378907
 30
0.0
 11
120.8790255323237
 21
462.7069048378907
 31
0.0
  0
LINE
  5
761
330
2
100
AcDbEntity
  8
0
100
AcDbLine
 10
119.3790255323238
 20
467.2069048378907
 30
0.0
 11
119.3790255323238
 21
462.7069048378907
 31
0.0
  0
LINE
  5
762
330
2
100
AcDbEntity
  8
0
100
AcDbLine
 10
117.8790255323237
 20
467.2069048378907
 30
0.0
 11
117.8790255323237
 21
462.1913098378907
 31
0.0
  0
LINE
  5
763
330
2
100
AcDbEntity
  8
0
100
AcDbLine
 10
125.8790255323237
 20
477.4767708378909
 30
0.0
 11
116.3790255323237
 21
477.4767708378909
 31
0.0
  0
ARC
  5
772
330
2
100
AcDbEntity
  8
0
100
AcDbCircle
 10
73.87903553232388
 20
548.4767708378907
 30
0.0
 40
5.0
100
AcDbArc
 50
90.0
 51
180.0
  0
LINE
  5
773
330
2
100
AcDbEntity
  8
0
100
AcDbLine
 10
116.3790255323237
 20
535.4767708378907
 30
0.0
 11
72.40399553232385
 21
535.4767708378907
 31
0.0
  0
LINE
  5
774
330
2
100
AcDbEntity
  8
0
100
AcDbLine
 10
73.87900553232384
 20
553.4767708378907
 30
0.0
 11
116.3790255323237
 21
553.4767708378907
 31
0.0
  0
LINE
  5
775
330
2
100
AcDbEntity
  8
0
100
AcDbLine
 10
125.8790255323237
 20
535.4767708378907
 30
0.0
 11
116.3790255323237
 21
535.4767708378907
 31
0.0
  0
LINE
  5
776
330
2
100
AcDbEntity
  8
0
100
AcDbLine
 10
116.3790255323237
 20
551.4767708378907
 30
0.0
 11
125.8790255323237
 21
551.4767708378907
 31
0.0
  0
LINE
  5
778
330
2
100
AcDbEntity
  8
0
100
AcDbLine
 10
244.8790215323238
 20
555.4887648378909
 30
0.0
 11
244.8790215323238
 21
457.4647478378908
 31
0.0
  0
LINE
  5
779
330
2
100
AcDbEntity
  8
0
100
AcDbLine
 10
290.8790215323238
 20
444.4767708378908
 30
0.0
 11
290.8790215323238
 21
568.4767708378907
 31
0.0
  0
LINE
  5
77A
330
2
100
AcDbEntity
  8
0
100
AcDbLine
 10
311.3788235323238
 20
506.4767708378908
 30
0.0
 11
312.1128475323238
 21
548.5291088378907
 31
0.0
  0
LINE
  5
77B
330
2
100
AcDbEntity
  8
0
100
AcDbLine
 10
299.3790215323238
 20
570.4767708378907
 30
0.0
 11
299.3790215323238
 21
442.4767708378908
 31
0.0
  0
LINE
  5
77C
330
2
100
AcDbEntity
  8
0
100
AcDbLine
 10
358.3790215323237
 20
548.4767708378907
 30
0.0
 11
358.3790215323237
 21
464.4767708378908
 31
0.0
  0
LINE
  5
77D
330
2
100
AcDbEntity
  8
0
100
AcDbLine
 10
416.3790215323238
 20
548.4767708378907
 30
0.0
 11
416.3790215323238
 21
464.4767708378908
 31
0.0
  0
LINE
  5
77E
330
2
100
AcDbEntity
  8
CENTER
100
AcDbLine
 10
387.3790215323237
 20
636.4767708378907
 30
0.0
 11
387.3790215323237
 21
376.4767708378907
 31
0.0
  0
ARC
  5
77F
330
2
100
AcDbEntity
  8
0
100
AcDbCircle
 10
301.9513485323237
 20
447.4767708378908
 30
0.0
 40
5.0
100
AcDbArc
 50
270.0
 51
344.9999999999996
  0
ARC
  5
780
330
2
100
AcDbEntity
  8
0
100
AcDbCircle
 10
292.8790215323238
 20
444.4767708378908
 30
0.0
 40
2.0
100
AcDbArc
 50
180.0
 51
270.0
  0
LINE
  5
781
330
2
100
AcDbEntity
  8
0
100
AcDbLine
 10
292.8790215323238
 20
442.4767708378908
 30
0.0
 11
299.3790215323238
 21
442.4767708378908
 31
0.0
  0
LINE
  5
782
330
2
100
AcDbEntity
  8
0
100
AcDbLine
 10
301.9513485323237
 20
442.4767708378908
 30
0.0
 11
299.3790215323238
 21
442.4767708378908
 31
0.0
  0
LINE
  5
783
330
2
100
AcDbEntity
  8
0
100
AcDbLine
 10
245.3787165323237
 20
456.9473218378909
 30
0.0
 11
290.8790215323238
 21
455.3583938378908
 31
0.0
  0
LINE
  5
784
330
2
100
AcDbEntity
  8
0
100
AcDbLine
 10
244.8790215323238
 20
461.4767708378908
 30
0.0
 11
288.4426355323238
 21
459.9555008378908
 31
0.0
  0
LINE
  5
785
330
2
100
AcDbEntity
  8
0
100
AcDbLine
 10
235.8790215323238
 20
477.4767708378909
 30
0.0
 11
235.8790215323238
 21
463.4767408378908
 31
0.0
  0
LINE
  5
786
330
2
100
AcDbEntity
  8
0
100
AcDbLine
 10
244.8790215323238
 20
457.4647478378908
 30
0.0
 11
245.3787165323237
 21
456.9473218378909
 31
0.0
  0
ARC
  5
787
330
2
100
AcDbEntity
  8
0
100
AcDbCircle
 10
237.8790215323238
 20
463.4767708378908
 30
0.0
 40
2.0
100
AcDbArc
 50
180.0
 51
270.0
  0
LINE
  5
788
330
2
100
AcDbEntity
  8
0
100
AcDbLine
 10
283.7360315323238
 20
528.2722728378908
 30
0.0
 11
283.7360315323238
 21
484.5596878378909
 31
0.0
  0
ARC
  5
789
330
2
100
AcDbEntity
  8
0
100
AcDbCircle
 10
288.3554005323237
 20
457.4569958378909
 30
0.0
 40
2.5
100
AcDbArc
 50
0.1042919999999583
 51
88.00000000000043
  0
LINE
  5
78A
330
2
100
AcDbEntity
  8
0
100
AcDbLine
 10
284.3411795323238
 20
482.4767708378908
 30
0.0
 11
290.8510065323238
 21
482.4767708378908
 31
0.0
  0
LINE
  5
78B
330
2
100
AcDbEntity
  8
0
100
AcDbLine
 10
283.7360315323238
 20
530.4767708378907
 30
0.0
 11
290.8510065323238
 21
530.4767708378907
 31
0.0
  0
ARC
  5
78D
330
2
100
AcDbEntity
  8
0
100
AcDbCircle
 10
352.1202015323237
 20
449.4767708378908
 30
0.0
 40
5.0
100
AcDbArc
 50
196.389542
 51
270.0
  0
ARC
  5
78E
330
2
100
AcDbEntity
  8
0
100
AcDbCircle
 10
339.8790215323238
 20
446.4767708378908
 30
0.0
 40
6.5
100
AcDbArc
 50
128.7593079999999
 51
50.28486300000015
  0
LINE
  5
78F
330
2
100
AcDbEntity
  8
0
100
AcDbLine
 10
306.7809835323238
 20
446.1826738378909
 30
0.0
 11
309.8860255323238
 21
457.7708688378909
 31
0.0
  0
LINE
  5
790
330
2
100
AcDbEntity
  8
0
100
AcDbLine
 10
321.4354335323238
 20
436.6755318378908
 30
0.0
 11
312.3806385323238
 21
460.8980358378907
 31
0.0
  0
LINE
  5
791
330
2
100
AcDbEntity
  8
0
100
AcDbLine
 10
422.6378415323238
 20
444.4767708378908
 30
0.0
 11
352.1202015323237
 21
444.4767708378908
 31
0.0
  0
LINE
  5
792
330
2
100
AcDbEntity
  8
0
100
AcDbLine
 10
328.9289785323238
 20
431.4767708378908
 30
0.0
 11
371.3790215323238
 21
431.4767708378908
 31
0.0
  0
ARC
  5
794
330
2
100
AcDbEntity
  8
0
100
AcDbCircle
 10
328.9289785323238
 20
439.4767708378908
 30
0.0
 40
8.0
100
AcDbArc
 50
200.4966130000002
 51
270.0
  0
LINE
  5
795
330
2
100
AcDbEntity
  8
0
100
AcDbLine
 10
402.5777215323238
 20
436.4767708378908
 30
0.0
 11
402.5777215323238
 21
386.4767708378908
 31
0.0
  0
LINE
  5
796
330
2
100
AcDbEntity
  8
0
100
AcDbLine
 10
406.3790215323238
 20
386.4767708378908
 30
0.0
 11
406.3790215323238
 21
436.4767708378908
 31
0.0
  0
LINE
  5
797
330
2
100
AcDbEntity
  8
0
100
AcDbLine
 10
371.3790215323238
 20
441.4767708378908
 30
0.0
 11
371.3790215323238
 21
386.4767708378908
 31
0.0
  0
LINE
  5
798
330
2
100
AcDbEntity
  8
0
100
AcDbLine
 10
406.3790215323238
 20
386.4767708378908
 30
0.0
 11
371.3790215323238
 21
386.4767708378908
 31
0.0
  0
LINE
  5
799
330
2
100
AcDbEntity
  8
0
100
AcDbLine
 10
369.8790215323238
 20
441.4767708378908
 30
0.0
 11
404.8790215323237
 21
441.4767708378908
 31
0.0
  0
LINE
  5
79A
330
2
100
AcDbEntity
  8
0
100
AcDbLine
 10
369.8790215323238
 20
444.4767708378908
 30
0.0
 11
369.8790215323238
 21
441.4767708378908
 31
0.0
  0
LINE
  5
79B
330
2
100
AcDbEntity
  8
0
100
AcDbLine
 10
403.3790215323238
 20
441.4767708378908
 30
0.0
 11
403.3790215323238
 21
436.4767708378908
 31
0.0
  0
LINE
  5
79C
330
2
100
AcDbEntity
  8
0
100
AcDbLine
 10
402.5777215323238
 20
436.4767708378908
 30
0.0
 11
406.3790215323238
 21
436.4767708378908
 31
0.0
  0
LINE
  5
79D
330
2
100
AcDbEntity
  8
0
100
AcDbLine
 10
404.8790215323237
 20
444.4767708378908
 30
0.0
 11
404.8790215323237
 21
441.4767708378908
 31
0.0
  0
LINE
  5
79E
330
2
100
AcDbEntity
  8
0
100
AcDbLine
 10
311.3788235323238
 20
506.4767708378908
 30
0.0
 11
312.1128475323238
 21
464.4244028378908
 31
0.0
  0
ARC
  5
79F
330
2
100
AcDbEntity
  8
0
100
AcDbCircle
 10
336.6350335323238
 20
456.4767708378908
 30
0.0
 40
5.0
100
AcDbArc
 50
196.1721650000001
 51
270.0
  0
ARC
  5
7A0
330
2
100
AcDbEntity
  8
0
100
AcDbCircle
 10
314.7156605323238
 20
456.4767708378908
 30
0.0
 40
5.0
100
AcDbArc
 50
90.0
 51
164.9999999999996
  0
ARC
  5
7A1
330
2
100
AcDbEntity
  8
0
100
AcDbCircle
 10
315.1123895323238
 20
464.4767708378908
 30
0.0
 40
3.0
100
AcDbArc
 50
181.0000000000001
 51
270.0
  0
ARC
  5
7A2
330
2
100
AcDbEntity
  8
0
100
AcDbCircle
 10
326.2230155323238
 20
456.4767708378908
 30
0.0
 40
5.0
100
AcDbArc
 50
16.17215899999997
 51
90.0
  0
LINE
  5
7A3
330
2
100
AcDbEntity
  8
0
100
AcDbLine
 10
331.8328785323237
 20
455.0841318378908
 30
0.0
 11
331.0251705323238
 21
457.8693798378908
 31
0.0
  0
LINE
  5
7A4
330
2
100
AcDbEntity
  8
0
100
AcDbLine
 10
329.9790275323238
 20
461.4767708378908
 30
0.0
 11
329.9758235323238
 21
461.4878488378908
 31
0.0
  0
LINE
  5
7A5
330
2
100
AcDbEntity
  8
0
100
AcDbLine
 10
336.6350335323238
 20
451.4767708378908
 30
0.0
 11
346.3202145323239
 21
451.4767708378908
 31
0.0
  0
LINE
  5
7A6
330
2
100
AcDbEntity
  8
0
100
AcDbLine
 10
347.3233875323237
 20
448.0659438378909
 30
0.0
 11
346.3202145323239
 21
451.4767708378908
 31
0.0
  0
ARC
  5
7A7
330
2
100
AcDbEntity
  8
0
100
AcDbCircle
 10
301.9513485323237
 20
565.4767708378907
 30
0.0
 40
5.0
100
AcDbArc
 50
15.00000000000037
 51
90.0
  0
LINE
  5
7A8
330
2
100
AcDbEntity
  8
0
100
AcDbLine
 10
245.3787165323237
 20
556.0062208378907
 30
0.0
 11
290.8790215323238
 21
557.5951188378907
 31
0.0
  0
LINE
  5
7A9
330
2
100
AcDbEntity
  8
0
100
AcDbLine
 10
244.8790215323238
 20
551.4767708378907
 30
0.0
 11
288.4426355323238
 21
552.9980418378908
 31
0.0
  0
LINE
  5
7AA
330
2
100
AcDbEntity
  8
0
100
AcDbLine
 10
235.8790215323238
 20
549.4767708378907
 30
0.0
 11
235.8790215323238
 21
535.4767708378907
 31
0.0
  0
ARC
  5
7AB
330
2
100
AcDbEntity
  8
0
100
AcDbCircle
 10
237.8790215323238
 20
549.4767708378907
 30
0.0
 40
2.0
100
AcDbArc
 50
90.0
 51
180.0
  0
LINE
  5
7AC
330
2
100
AcDbEntity
  8
0
100
AcDbLine
 10
244.8790215323238
 20
555.4887648378909
 30
0.0
 11
245.3787165323237
 21
556.0062208378907
 31
0.0
  0
ARC
  5
7AD
330
2
100
AcDbEntity
  8
0
100
AcDbCircle
 10
288.3554005323237
 20
555.4965158378908
 30
0.0
 40
2.5
100
AcDbArc
 50
271.9999999999995
 51
359.8957209999999
  0
LINE
  5
7AE
330
2
100
AcDbEntity
  8
0
100
AcDbLine
 10
290.8790215323238
 20
553.0831248378907
 30
0.0
 11
290.8510065323238
 21
553.0821488378908
 31
0.0
  0
ARC
  5
7AF
330
2
100
AcDbEntity
  8
0
100
AcDbCircle
 10
292.8790215323238
 20
568.4767708378907
 30
0.0
 40
2.0
100
AcDbArc
 50
90.0
 51
180.0
  0
LINE
  5
7B0
330
2
100
AcDbEntity
  8
0
100
AcDbLine
 10
292.8790215323238
 20
570.4767708378907
 30
0.0
 11
299.3790215323238
 21
570.4767708378907
 31
0.0
  0
LINE
  5
7B1
330
2
100
AcDbEntity
  8
0
100
AcDbLine
 10
301.9513485323237
 20
570.4767708378907
 30
0.0
 11
299.3790215323238
 21
570.4767708378907
 31
0.0
  0
LINE
  5
7B2
330
2
100
AcDbEntity
  8
0
100
AcDbLine
 10
402.5777215323238
 20
576.4767708378907
 30
0.0
 11
402.5777215323238
 21
626.4767708378907
 31
0.0
  0
LINE
  5
7B3
330
2
100
AcDbEntity
  8
0
100
AcDbLine
 10
406.3790215323238
 20
626.4767708378907
 30
0.0
 11
406.3790215323238
 21
576.4767708378907
 31
0.0
  0
LINE
  5
7B4
330
2
100
AcDbEntity
  8
0
100
AcDbLine
 10
371.3790215323238
 20
571.4767708378907
 30
0.0
 11
371.3790215323238
 21
626.4767708378907
 31
0.0
  0
LINE
  5
7B5
330
2
100
AcDbEntity
  8
0
100
AcDbLine
 10
422.6378415323238
 20
568.4767708378907
 30
0.0
 11
352.1202015323237
 21
568.4767708378907
 31
0.0
  0
LINE
  5
7B6
330
2
100
AcDbEntity
  8
0
100
AcDbLine
 10
328.9289785323238
 20
581.4767708378907
 30
0.0
 11
371.3790215323238
 21
581.4767708378907
 31
0.0
  0
LINE
  5
7B8
330
2
100
AcDbEntity
  8
0
100
AcDbLine
 10
321.4354335323238
 20
576.2779798378909
 30
0.0
 11
312.3806385323238
 21
552.0554758378908
 31
0.0
  0
ARC
  5
7B9
330
2
100
AcDbEntity
  8
0
100
AcDbCircle
 10
336.6350335323238
 20
556.4767708378907
 30
0.0
 40
5.0
100
AcDbArc
 50
90.0
 51
163.8278349999998
  0
ARC
  5
7BB
330
2
100
AcDbEntity
  8
0
100
AcDbCircle
 10
339.8790215323238
 20
566.4767708378907
 30
0.0
 40
6.5
100
AcDbArc
 50
309.7151369999998
 51
231.240692
  0
ARC
  5
7BC
330
2
100
AcDbEntity
  8
0
100
AcDbCircle
 10
326.2230155323238
 20
556.4767708378907
 30
0.0
 40
5.0
100
AcDbArc
 50
270.0
 51
343.827841
  0
ARC
  5
7BD
330
2
100
AcDbEntity
  8
0
100
AcDbCircle
 10
314.7156605323238
 20
556.4767708378907
 30
0.0
 40
5.0
100
AcDbArc
 50
195.0000000000003
 51
270.0
  0
ARC
  5
7BE
330
2
100
AcDbEntity
  8
0
100
AcDbCircle
 10
315.1123895323238
 20
548.4767708378907
 30
0.0
 40
3.0
100
AcDbArc
 50
90.0
 51
178.9999999999998
  0
LINE
  5
7BF
330
2
100
AcDbEntity
  8
0
100
AcDbLine
 10
329.9790275323238
 20
551.4767708378907
 30
0.0
 11
329.9758235323238
 21
551.4656628378908
 31
0.0
  0
LINE
  5
7C0
330
2
100
AcDbEntity
  8
0
100
AcDbLine
 10
306.7809835323238
 20
566.7708688378907
 30
0.0
 11
309.8860255323238
 21
555.1826738378907
 31
0.0
  0
LINE
  5
7C1
330
2
100
AcDbEntity
  8
0
100
AcDbLine
 10
331.8328785323237
 20
557.8693798378909
 30
0.0
 11
331.0251705323238
 21
555.0841318378908
 31
0.0
  0
ARC
  5
7C2
330
2
100
AcDbEntity
  8
0
100
AcDbCircle
 10
352.1202015323237
 20
563.4767708378907
 30
0.0
 40
5.0
100
AcDbArc
 50
90.0
 51
163.6104580000001
  0
LINE
  5
7C3
330
2
100
AcDbEntity
  8
0
100
AcDbLine
 10
347.3233875323237
 20
564.8875988378907
 30
0.0
 11
346.3202145323239
 21
561.4767708378907
 31
0.0
  0
LINE
  5
7C4
330
2
100
AcDbEntity
  8
0
100
AcDbLine
 10
336.6350335323238
 20
561.4767708378907
 30
0.0
 11
346.3202145323239
 21
561.4767708378907
 31
0.0
  0
ARC
  5
7C5
330
2
100
AcDbEntity
  8
0
100
AcDbCircle
 10
328.9289785323238
 20
573.4767708378907
 30
0.0
 40
8.0
100
AcDbArc
 50
90.0
 51
159.5033869999996
  0
LINE
  5
7C6
330
2
100
AcDbEntity
  8
0
100
AcDbLine
 10
403.3790215323238
 20
571.4767708378907
 30
0.0
 11
403.3790215323238
 21
576.4767708378907
 31
0.0
  0
LINE
  5
7C7
330
2
100
AcDbEntity
  8
0
100
AcDbLine
 10
369.8790215323238
 20
571.4767708378907
 30
0.0
 11
404.8790215323237
 21
571.4767708378907
 31
0.0
  0
LINE
  5
7C8
330
2
100
AcDbEntity
  8
0
100
AcDbLine
 10
369.8790215323238
 20
568.4767708378907
 30
0.0
 11
369.8790215323238
 21
571.4767708378907
 31
0.0
  0
LINE
  5
7C9
330
2
100
AcDbEntity
  8
0
100
AcDbLine
 10
404.8790215323237
 20
568.4767708378907
 30
0.0
 11
404.8790215323237
 21
571.4767708378907
 31
0.0
  0
LINE
  5
7CA
330
2
100
AcDbEntity
  8
0
100
AcDbLine
 10
402.5777215323238
 20
576.4767708378907
 30
0.0
 11
406.3790215323238
 21
576.4767708378907
 31
0.0
  0
LINE
  5
7CB
330
2
100
AcDbEntity
  8
0
100
AcDbLine
 10
406.3790215323238
 20
626.4767708378907
 30
0.0
 11
371.3790215323238
 21
626.4767708378907
 31
0.0
  0
LINE
  5
7CC
330
2
100
AcDbEntity
  8
0
100
AcDbLine
 10
638.4131787362587
 20
244.4235717537373
 30
0.0
 11
723.0913397362586
 21
244.4235717537373
 31
0.0
  0
LINE
  5
7CD
330
2
100
AcDbEntity
  8
0
100
AcDbLine
 10
638.7863477362587
 20
276.1893947537374
 30
0.0
 11
680.8387767362586
 21
276.9235717537374
 31
0.0
  0
LINE
  5
7CE
330
2
100
AcDbEntity
  8
0
100
AcDbLine
 10
652.3387767362586
 20
73.42356975373741
 30
0.0
 11
709.3387767362586
 21
73.42356975373741
 31
0.0
  0
LINE
  5
7CF
330
2
100
AcDbEntity
  8
CENTER
100
AcDbLine
 10
550.8387457362585
 20
211.9235717537374
 30
0.0
 11
810.8387767362588
 21
211.9235717537374
 31
0.0
  0
LINE
  5
7D0
330
2
100
AcDbEntity
  8
CENTER
100
AcDbLine
 10
606.8387767362586
 20
166.9235717537373
 30
0.0
 11
754.8387767362586
 21
166.9235717537373
 31
0.0
  0
LINE
  5
7D2
330
2
100
AcDbEntity
  8
0
100
AcDbLine
 10
635.8387767362586
 20
273.1898527537374
 30
0.0
 11
635.8387767362586
 21
71.92356975373741
 31
0.0
  0
LINE
  5
7D3
330
2
100
AcDbEntity
  8
0
100
AcDbLine
 10
625.8387767362586
 20
127.6795687537374
 30
0.0
 11
625.8387767362586
 21
215.8339717537373
 31
0.0
  0
LINE
  5
7D4
330
2
100
AcDbEntity
  8
0
100
AcDbLine
 10
463.3790215323237
 20
240.2291287537374
 30
0.0
 11
463.3790215323237
 21
71.92356975373741
 31
0.0
  0
LINE
  5
7D5
330
2
100
AcDbEntity
  8
CENTER
100
AcDbLine
 10
434.8790215323238
 20
94.92357175373744
 30
0.0
 11
434.8790215323238
 21
66.92356975373741
 31
0.0
  0
LINE
  5
7D6
330
2
100
AcDbEntity
  8
HIDS
100
AcDbLine
 10
428.3790215323238
 20
89.92357175373744
 30
0.0
 11
428.3790215323238
 21
71.92356975373741
 31
0.0
  0
LINE
  5
7D7
330
2
100
AcDbEntity
  8
0
100
AcDbLine
 10
449.3790215323238
 20
87.85700875373743
 30
0.0
 11
449.3790215323238
 21
71.92356975373741
 31
0.0
  0
LINE
  5
7D8
330
2
100
AcDbEntity
  8
HIDS
100
AcDbLine
 10
441.3790215323238
 20
89.92357175373744
 30
0.0
 11
441.3790215323238
 21
71.92356975373741
 31
0.0
  0
LINE
  5
7D9
330
2
100
AcDbEntity
  8
CENTER
100
AcDbLine
 10
620.8387767362586
 20
94.9235717537374
 30
0.0
 11
620.8387767362587
 21
66.92356975373741
 31
0.0
  0
LINE
  5
7DA
330
2
100
AcDbEntity
  8
0
100
AcDbLine
 10
607.9277657362587
 20
90.27173175373741
 30
0.0
 11
633.3319407362587
 21
94.50577075373743
 31
0.0
  0
LINE
  5
7DB
330
2
100
AcDbEntity
  8
0
100
AcDbLine
 10
608.3387767362586
 20
89.92357175373744
 30
0.0
 11
631.8387767362586
 21
89.92357175373744
 31
0.0
  0
LINE
  5
7DC
330
2
100
AcDbEntity
  8
0
100
AcDbLine
 10
605.8387767362586
 20
71.92356975373741
 30
0.0
 11
650.8387767362586
 21
71.92356975373741
 31
0.0
  0
LINE
  5
7DD
330
2
100
AcDbEntity
  8
HIDS
100
AcDbLine
 10
614.3387767362586
 20
89.92357175373744
 30
0.0
 11
614.3387767362586
 21
71.92356975373741
 31
0.0
  0
LINE
  5
7DE
330
2
100
AcDbEntity
  8
0
100
AcDbLine
 10
605.8387767362586
 20
87.80575075373741
 30
0.0
 11
605.8387767362586
 21
71.92356975373741
 31
0.0
  0
ARC
  5
7DF
330
2
100
AcDbEntity
  8
0
100
AcDbCircle
 10
608.3387767362586
 20
87.80576975373742
 30
0.0
 40
2.5
100
AcDbArc
 50
99.46275299999982
 51
180.0
  0
ARC
  5
7E0
330
2
100
AcDbEntity
  8
0
100
AcDbCircle
 10
608.3387767362586
 20
87.42359075373741
 30
0.0
 40
2.5
100
AcDbArc
 50
90.0
 51
180.0
  0
ARC
  5
7E1
330
2
100
AcDbEntity
  8
0
100
AcDbCircle
 10
631.8387767362586
 20
93.92352975373743
 30
0.0
 40
4.0
100
AcDbArc
 50
270.0
 51
0.0
  0
LINE
  5
7E2
330
2
100
AcDbEntity
  8
HIDS
100
AcDbLine
 10
627.3387767362586
 20
89.92357175373744
 30
0.0
 11
627.3387767362586
 21
71.92356975373741
 31
0.0
  0
ARC
  5
7E3
330
2
100
AcDbEntity
  8
0
100
AcDbCircle
 10
632.8387767362586
 20
97.46494975373742
 30
0.0
 40
3.0
100
AcDbArc
 50
279.4625170000001
 51
0.0
  0
LINE
  5
7E4
330
2
100
AcDbEntity
  8
0
100
AcDbLine
 10
650.8387767362586
 20
71.92356975373741
 30
0.0
 11
652.3387767362586
 21
73.42356975373741
 31
0.0
  0
LINE
  5
7E5
330
2
100
AcDbEntity
  8
0
100
AcDbLine
 10
629.4461377362587
 20
122.8774287537374
 30
0.0
 11
632.2313547362587
 21
122.0697127537374
 31
0.0
  0
ARC
  5
7E6
330
2
100
AcDbEntity
  8
0
100
AcDbCircle
 10
630.8387767362586
 20
127.6796067537374
 30
0.0
 40
5.0
100
AcDbArc
 50
180.0
 51
253.8282009999997
  0
ARC
  5
7E7
330
2
100
AcDbEntity
  8
0
100
AcDbCircle
 10
633.8387767362586
 20
117.9022287537374
 30
0.0
 40
2.0
100
AcDbArc
 50
30.94791
 51
53.21712100000005
  0
ARC
  5
7E8
330
2
100
AcDbEntity
  8
0
100
AcDbCircle
 10
639.8265697362586
 20
125.9113497537374
 30
0.0
 40
8.0
100
AcDbArc
 50
211.0014039999998
 51
233.2169950000002
  0
ARC
  5
7E9
330
2
100
AcDbEntity
  8
0
100
AcDbCircle
 10
630.8387767362586
 20
117.2675507537374
 30
0.0
 40
5.0
100
AcDbArc
 50
0.0
 51
73.82791899999978
  0
ARC
  5
7EA
330
2
100
AcDbEntity
  8
0
100
AcDbCircle
 10
455.3790215323238
 20
240.2290827537374
 30
0.0
 40
8.0
100
AcDbArc
 50
0.0
 51
55.33673899999975
  0
LINE
  5
7EB
330
2
100
AcDbEntity
  8
0
100
AcDbLine
 10
427.5012135323238
 20
220.8355287537374
 30
0.0
 11
441.1890185323239
 21
159.2118097537374
 31
0.0
  0
LINE
  5
7EC
330
2
100
AcDbEntity
  8
0
100
AcDbLine
 10
430.3322375323239
 20
221.4643427537374
 30
0.0
 11
444.0200125323237
 21
159.8406327537373
 31
0.0
  0
LINE
  5
7ED
330
2
100
AcDbEntity
  8
0
100
AcDbLine
 10
618.8387767362586
 20
176.6647677537374
 30
0.0
 11
618.8387767362586
 21
247.1823907537374
 31
0.0
  0
LINE
  5
7EE
330
2
100
AcDbEntity
  8
0
100
AcDbLine
 10
618.8387767362586
 20
194.4235717537374
 30
0.0
 11
615.8387767362586
 21
194.4235717537374
 31
0.0
  0
LINE
  5
7EF
330
2
100
AcDbEntity
  8
0
100
AcDbLine
 10
618.8387767362586
 20
229.4235717537373
 30
0.0
 11
615.8387767362586
 21
229.4235717537373
 31
0.0
  0
LINE
  5
7F0
330
2
100
AcDbEntity
  8
0
100
AcDbLine
 10
615.8387767362586
 20
229.4235717537373
 30
0.0
 11
615.8387767362586
 21
194.4235717537374
 31
0.0
  0
LINE
  5
7F1
330
2
100
AcDbEntity
  8
0
100
AcDbLine
 10
560.8387457362587
 20
195.9235717537374
 30
0.0
 11
560.8387457362587
 21
227.9235717537374
 31
0.0
  0
LINE
  5
7F2
330
2
100
AcDbEntity
  8
0
100
AcDbLine
 10
615.8387767362586
 20
195.9235717537374
 30
0.0
 11
560.8387457362587
 21
195.9235717537374
 31
0.0
  0
LINE
  5
7F3
330
2
100
AcDbEntity
  8
0
100
AcDbLine
 10
605.8387767362586
 20
206.9235717537373
 30
0.0
 11
560.8387457362587
 21
206.9235717537373
 31
0.0
  0
LINE
  5
7F4
330
2
100
AcDbEntity
  8
0
100
AcDbLine
 10
605.8387767362586
 20
216.9235717537373
 30
0.0
 11
560.8387457362587
 21
216.9235717537373
 31
0.0
  0
LINE
  5
7F5
330
2
100
AcDbEntity
  8
0
100
AcDbLine
 10
615.8387767362586
 20
227.9235717537374
 30
0.0
 11
560.8387457362587
 21
227.9235717537374
 31
0.0
  0
ARC
  5
7F6
330
2
100
AcDbEntity
  8
0
100
AcDbCircle
 10
605.8387767362586
 20
211.9235717537374
 30
0.0
 40
5.0
100
AcDbArc
 50
270.0
 51
90.0
  0
ARC
  5
7F7
330
2
100
AcDbEntity
  8
0
100
AcDbCircle
 10
621.8387767362586
 20
167.8717837537374
 30
0.0
 40
4.0
100
AcDbArc
 50
0.0
 51
73.61064899999971
  0
ARC
  5
7F8
330
2
100
AcDbEntity
  8
0
100
AcDbCircle
 10
623.8387767362586
 20
176.6647977537374
 30
0.0
 40
5.0
100
AcDbArc
 50
180.0
 51
253.6107940000003
  0
LINE
  5
7F9
330
2
100
AcDbEntity
  8
0
100
AcDbLine
 10
622.4279487362586
 20
171.8679377537374
 30
0.0
 11
622.9673777362587
 21
171.7092617537374
 31
0.0
  0
LINE
  5
7FB
330
2
100
AcDbEntity
  8
0
100
AcDbLine
 10
632.2495437362586
 20
254.8679227537373
 30
0.0
 11
622.4279487362586
 21
251.9791897537373
 31
0.0
  0
ARC
  5
7FC
330
2
100
AcDbEntity
  8
0
100
AcDbCircle
 10
623.8387767362586
 20
247.1824067537374
 30
0.0
 40
5.0
100
AcDbArc
 50
106.3898999999998
 51
180.0
  0
ARC
  5
7FD
330
2
100
AcDbEntity
  8
0
100
AcDbCircle
 10
630.8387767362586
 20
259.6647517537373
 30
0.0
 40
5.0
100
AcDbArc
 50
286.3897709999995
 51
0.0
  0
ARC
  5
7FE
330
2
100
AcDbEntity
  8
0
100
AcDbCircle
 10
638.8387767362586
 20
273.1898527537374
 30
0.0
 40
3.0
100
AcDbArc
 50
91.00060300000007
 51
180.0
  0
LINE
  5
800
330
2
100
AcDbEntity
  8
0
100
AcDbLine
 10
735.8387767362586
 20
127.6795907537374
 30
0.0
 11
735.8387767362586
 21
215.8339717537373
 31
0.0
  0
LINE
  5
801
330
2
100
AcDbEntity
  8
0
100
AcDbLine
 10
725.8387767362586
 20
273.1903257537374
 30
0.0
 11
725.8387767362586
 21
71.92356975373741
 31
0.0
  0
LINE
  5
802
330
2
100
AcDbEntity
  8
CENTER
100
AcDbLine
 10
680.8387767362586
 20
61.92356975373744
 30
0.0
 11
680.8387767362586
 21
286.9235717537374
 31
0.0
  0
LINE
  5
803
330
2
100
AcDbEntity
  8
CENTER
100
AcDbLine
 10
740.8387767362586
 20
94.9235717537374
 30
0.0
 11
740.8387767362587
 21
66.92356975373741
 31
0.0
  0
ARC
  5
804
330
2
100
AcDbEntity
  8
0
100
AcDbCircle
 10
730.8387767362586
 20
127.6795687537374
 30
0.0
 40
5.0
100
AcDbArc
 50
286.1723019999999
 51
0.0
  0
LINE
  5
805
330
2
100
AcDbEntity
  8
0
100
AcDbLine
 10
753.7497267362586
 20
90.27175075373742
 30
0.0
 11
728.3455517362585
 21
94.50578975373742
 31
0.0
  0
LINE
  5
806
330
2
100
AcDbEntity
  8
0
100
AcDbLine
 10
753.3387767362586
 20
89.92357175373744
 30
0.0
 11
729.8387767362586
 21
89.92357175373744
 31
0.0
  0
LINE
  5
807
330
2
100
AcDbEntity
  8
0
100
AcDbLine
 10
710.8387767362586
 20
71.92356975373741
 30
0.0
 11
755.8387767362586
 21
71.92356975373741
 31
0.0
  0
ARC
  5
808
330
2
100
AcDbEntity
  8
0
100
AcDbCircle
 10
729.8387767362586
 20
93.92357175373744
 30
0.0
 40
4.0
100
AcDbArc
 50
180.0
 51
270.0
  0
LINE
  5
809
330
2
100
AcDbEntity
  8
0
100
AcDbLine
 10
710.8387767362586
 20
71.92356975373741
 30
0.0
 11
709.3387767362586
 21
73.42356975373741
 31
0.0
  0
ARC
  5
80A
330
2
100
AcDbEntity
  8
0
100
AcDbCircle
 10
728.8387767362586
 20
97.46499175373742
 30
0.0
 40
3.0
100
AcDbArc
 50
180.0
 51
260.5379030000001
  0
ARC
  5
80B
330
2
100
AcDbEntity
  8
0
100
AcDbCircle
 10
727.8387767362586
 20
117.9022287537374
 30
0.0
 40
2.0
100
AcDbArc
 50
126.7828829999998
 51
149.0520939999995
  0
ARC
  5
80C
330
2
100
AcDbEntity
  8
0
100
AcDbCircle
 10
730.8387767362586
 20
117.2675887537374
 30
0.0
 40
5.0
100
AcDbArc
 50
106.172501
 51
180.0
  0
ARC
  5
80D
330
2
100
AcDbEntity
  8
0
100
AcDbCircle
 10
721.8509837362586
 20
125.9113497537374
 30
0.0
 40
8.0
100
AcDbArc
 50
306.7830009999998
 51
328.9986000000002
  0
LINE
  5
80E
330
2
100
AcDbEntity
  8
0
100
AcDbLine
 10
732.2313547362587
 20
122.8774287537374
 30
0.0
 11
729.4461377362587
 21
122.0697127537374
 31
0.0
  0
LINE
  5
80F
330
2
100
AcDbEntity
  8
HIDS
100
AcDbLine
 10
734.3387767362586
 20
89.92357175373744
 30
0.0
 11
734.3387767362586
 21
71.92356975373741
 31
0.0
  0
LINE
  5
810
330
2
100
AcDbEntity
  8
HIDS
100
AcDbLine
 10
747.3387767362586
 20
89.92357175373744
 30
0.0
 11
747.3387767362586
 21
71.92356975373741
 31
0.0
  0
LINE
  5
811
330
2
100
AcDbEntity
  8
0
100
AcDbLine
 10
755.8387767362586
 20
87.80575075373741
 30
0.0
 11
755.8387767362586
 21
71.92356975373741
 31
0.0
  0
ARC
  5
812
330
2
100
AcDbEntity
  8
0
100
AcDbCircle
 10
753.3387767362586
 20
87.80575075373741
 30
0.0
 40
2.5
100
AcDbArc
 50
0.0
 51
80.53768199999993
  0
ARC
  5
813
330
2
100
AcDbEntity
  8
0
100
AcDbCircle
 10
753.3387767362586
 20
87.42357175373744
 30
0.0
 40
2.5
100
AcDbArc
 50
0.0
 51
90.0
  0
LINE
  5
814
330
2
100
AcDbEntity
  8
0
100
AcDbLine
 10
755.8387767362586
 20
206.9235717537373
 30
0.0
 11
800.8387767362586
 21
206.9235717537373
 31
0.0
  0
LINE
  5
815
330
2
100
AcDbEntity
  8
0
100
AcDbLine
 10
755.8387767362586
 20
216.9235717537373
 30
0.0
 11
800.8387767362586
 21
216.9235717537373
 31
0.0
  0
LINE
  5
816
330
2
100
AcDbEntity
  8
0
100
AcDbLine
 10
745.8387767362586
 20
195.9235717537374
 30
0.0
 11
800.8387767362586
 21
195.9235717537374
 31
0.0
  0
LINE
  5
817
330
2
100
AcDbEntity
  8
0
100
AcDbLine
 10
745.8387767362586
 20
227.9235717537374
 30
0.0
 11
800.8387767362586
 21
227.9235717537374
 31
0.0
  0
LINE
  5
818
330
2
100
AcDbEntity
  8
0
100
AcDbLine
 10
742.8387767362586
 20
176.6647677537374
 30
0.0
 11
742.8387767362586
 21
247.1823907537374
 31
0.0
  0
LINE
  5
819
330
2
100
AcDbEntity
  8
0
100
AcDbLine
 10
745.8387767362586
 20
229.4235717537373
 30
0.0
 11
745.8387767362586
 21
194.4235717537374
 31
0.0
  0
ARC
  5
81A
330
2
100
AcDbEntity
  8
0
100
AcDbCircle
 10
737.8387767362586
 20
176.6647517537374
 30
0.0
 40
5.0
100
AcDbArc
 50
286.3896790000003
 51
0.0
  0
ARC
  5
81B
330
2
100
AcDbEntity
  8
0
100
AcDbCircle
 10
739.8387767362586
 20
167.8718217537374
 30
0.0
 40
4.0
100
AcDbArc
 50
106.3899989999996
 51
180.0
  0
LINE
  5
81C
330
2
100
AcDbEntity
  8
0
100
AcDbLine
 10
739.2495437362586
 20
171.8679377537374
 30
0.0
 11
738.7101757362586
 21
171.7092547537374
 31
0.0
  0
LINE
  5
81D
330
2
100
AcDbEntity
  8
0
100
AcDbLine
 10
742.8387767362586
 20
194.4235717537374
 30
0.0
 11
745.8387767362586
 21
194.4235717537374
 31
0.0
  0
ARC
  5
81E
330
2
100
AcDbEntity
  8
0
100
AcDbCircle
 10
755.8387767362586
 20
211.9235717537374
 30
0.0
 40
5.0
100
AcDbArc
 50
90.0
 51
270.0
  0
LINE
  5
81F
330
2
100
AcDbEntity
  8
0
100
AcDbLine
 10
742.8387767362586
 20
229.4235717537373
 30
0.0
 11
745.8387767362586
 21
229.4235717537373
 31
0.0
  0
LINE
  5
820
330
2
100
AcDbEntity
  8
0
100
AcDbLine
 10
739.2495437362586
 20
251.9792047537374
 30
0.0
 11
729.4279487362587
 21
254.8679227537373
 31
0.0
  0
LINE
  5
821
330
2
100
AcDbEntity
  8
0
100
AcDbLine
 10
722.8911447362586
 20
276.1898677537374
 30
0.0
 11
680.8387767362586
 21
276.9235717537374
 31
0.0
  0
ARC
  5
822
330
2
100
AcDbEntity
  8
0
100
AcDbCircle
 10
730.8387767362586
 20
259.6647827537374
 30
0.0
 40
5.0
100
AcDbArc
 50
180.0
 51
253.6107940000003
  0
ARC
  5
823
330
2
100
AcDbEntity
  8
0
100
AcDbCircle
 10
722.8387767362586
 20
273.1903107537374
 30
0.0
 40
3.0
100
AcDbArc
 50
0.0
 51
89.00057999999992
  0
ARC
  5
824
330
2
100
AcDbEntity
  8
0
100
AcDbCircle
 10
737.8387767362586
 20
247.1823757537374
 30
0.0
 40
5.0
100
AcDbArc
 50
0.0
 51
73.61052699999977
  0
LINE
  5
825
330
2
100
AcDbEntity
  8
0
100
AcDbLine
 10
800.8387767362586
 20
195.9235717537374
 30
0.0
 11
800.8387767362586
 21
227.9235717537374
 31
0.0
  0
LINE
  5
826
330
2
100
AcDbEntity
  8
0
100
AcDbLine
 10
463.3792355323238
 20
506.4767708378908
 30
0.0
 11
462.5937435323238
 21
551.4767708378907
 31
0.0
  0
ARC
  5
827
330
2
100
AcDbEntity
  8
0
100
AcDbCircle
 10
434.8790215323238
 20
446.4767708378908
 30
0.0
 40
6.5
100
AcDbArc
 50
129.7151339999998
 51
51.24068799999973
  0
ARC
  5
829
330
2
100
AcDbEntity
  8
0
100
AcDbCircle
 10
422.6378415323238
 20
449.4767708378908
 30
0.0
 40
5.0
100
AcDbArc
 50
270.0
 51
343.6104600000002
  0
LINE
  5
82A
330
2
100
AcDbEntity
  8
0
100
AcDbLine
 10
453.3226245323239
 20
436.6755318378908
 30
0.0
 11
462.5937435323238
 21
461.4767708378908
 31
0.0
  0
ARC
  5
82B
330
2
100
AcDbEntity
  8
0
100
AcDbCircle
 10
445.8290645323238
 20
439.4767708378908
 30
0.0
 40
8.0
100
AcDbArc
 50
270.0
 51
339.5033819999998
  0
LINE
  5
82D
330
2
100
AcDbEntity
  8
0
100
AcDbLine
 10
463.3792355323238
 20
506.4767708378908
 30
0.0
 11
462.5937435323238
 21
461.4767708378908
 31
0.0
  0
LINE
  5
82E
330
2
100
AcDbEntity
  8
0
100
AcDbLine
 10
438.1230095323238
 20
451.4767708378908
 30
0.0
 11
428.4378595323238
 21
451.4767708378908
 31
0.0
  0
LINE
  5
82F
330
2
100
AcDbEntity
  8
0
100
AcDbLine
 10
427.4346545323237
 20
448.0659438378909
 30
0.0
 11
428.4378595323238
 21
451.4767708378908
 31
0.0
  0
ARC
  5
830
330
2
100
AcDbEntity
  8
0
100
AcDbCircle
 10
448.5350275323237
 20
456.4767708378908
 30
0.0
 40
5.0
100
AcDbArc
 50
90.0
 51
163.8278349999998
  0
ARC
  5
831
330
2
100
AcDbEntity
  8
0
100
AcDbCircle
 10
438.1230095323238
 20
456.4767708378908
 30
0.0
 40
5.0
100
AcDbArc
 50
270.0
 51
343.827841
  0
LINE
  5
832
330
2
100
AcDbEntity
  8
0
100
AcDbLine
 10
442.9251645323238
 20
455.0841318378908
 30
0.0
 11
443.7328725323238
 21
457.8693798378908
 31
0.0
  0
LINE
  5
833
330
2
100
AcDbEntity
  8
0
100
AcDbLine
 10
444.7790155323239
 20
461.4767708378908
 30
0.0
 11
444.7822505323237
 21
461.4878488378908
 31
0.0
  0
ARC
  5
834
330
2
100
AcDbEntity
  8
0
100
AcDbCircle
 10
459.6456535323238
 20
464.4767708378908
 30
0.0
 40
3.0
100
AcDbArc
 50
270.0
 51
358.9999999999998
  0
LINE
  5
836
330
2
100
AcDbEntity
  8
CENTER
100
AcDbLine
 10
434.8790215323238
 20
556.1291138378907
 30
0.0
 11
434.8790215323238
 21
576.8244278378907
 31
0.0
  0
LINE
  5
837
330
2
100
AcDbEntity
  8
0
100
AcDbLine
 10
453.3226245323239
 20
576.2779798378909
 30
0.0
 11
462.5937435323238
 21
551.4767708378907
 31
0.0
  0
ARC
  5
838
330
2
100
AcDbEntity
  8
0
100
AcDbCircle
 10
448.5350275323237
 20
556.4767708378907
 30
0.0
 40
5.0
100
AcDbArc
 50
196.1721650000001
 51
270.0
  0
LINE
  5
839
330
2
100
AcDbEntity
  8
0
100
AcDbLine
 10
444.7790155323239
 20
551.4767708378907
 30
0.0
 11
444.7822505323237
 21
551.4656628378908
 31
0.0
  0
ARC
  5
83A
330
2
100
AcDbEntity
  8
0
100
AcDbCircle
 10
434.8790215323238
 20
566.4767708378907
 30
0.0
 40
6.5
100
AcDbArc
 50
308.7593120000002
 51
230.2848660000001
  0
LINE
  5
83B
330
2
100
AcDbEntity
  8
CENTER
100
AcDbLine
 10
424.5313645323237
 20
566.4767708378907
 30
0.0
 11
445.2266785323238
 21
566.4767708378907
 31
0.0
  0
LINE
  5
83C
330
2
100
AcDbEntity
  8
0
100
AcDbLine
 10
438.1230095323238
 20
561.4767708378907
 30
0.0
 11
428.4378595323238
 21
561.4767708378907
 31
0.0
  0
LINE
  5
83D
330
2
100
AcDbEntity
  8
0
100
AcDbLine
 10
427.4346545323237
 20
564.8875988378907
 30
0.0
 11
428.4378595323238
 21
561.4767708378907
 31
0.0
  0
ARC
  5
83E
330
2
100
AcDbEntity
  8
0
100
AcDbCircle
 10
422.6378415323238
 20
563.4767708378907
 30
0.0
 40
5.0
100
AcDbArc
 50
16.38953999999972
 51
90.0
  0
ARC
  5
83F
330
2
100
AcDbEntity
  8
0
100
AcDbCircle
 10
438.1230095323238
 20
556.4767708378907
 30
0.0
 40
5.0
100
AcDbArc
 50
16.17215899999997
 51
90.0
  0
LINE
  5
840
330
2
100
AcDbEntity
  8
0
100
AcDbLine
 10
442.9251645323238
 20
557.8693798378909
 30
0.0
 11
443.7328725323238
 21
555.0841318378908
 31
0.0
  0
ARC
  5
841
330
2
100
AcDbEntity
  8
0
100
AcDbCircle
 10
459.6456535323238
 20
548.4767708378907
 30
0.0
 40
3.0
100
AcDbArc
 50
1.000000000000147
 51
90.0
  0
ARC
  5
842
330
2
100
AcDbEntity
  8
0
100
AcDbCircle
 10
445.8290645323238
 20
573.4767708378907
 30
0.0
 40
8.0
100
AcDbArc
 50
20.49661800000011
 51
90.0
  0
LINE
  5
935
330
2
100
AcDbEntity
  8
CENTER
100
AcDbLine
 10
329.5313645323237
 20
566.4767708378907
 30
0.0
 11
350.2266785323238
 21
566.4767708378907
 31
0.0
  0
LINE
  5
936
330
2
100
AcDbEntity
  8
CENTER
100
AcDbLine
 10
339.8790215323238
 20
556.1291138378907
 30
0.0
 11
339.8790215323238
 21
576.8244278378907
 31
0.0
  0
LINE
  5
937
330
2
100
AcDbEntity
  8
CENTER
100
AcDbLine
 10
329.5313645323237
 20
446.4767708378908
 30
0.0
 11
350.2266785323238
 21
446.4767708378908
 31
0.0
  0
LINE
  5
938
330
2
100
AcDbEntity
  8
CENTER
100
AcDbLine
 10
339.8790215323238
 20
436.1291138378908
 30
0.0
 11
339.8790215323238
 21
456.8244278378909
 31
0.0
  0
LINE
  5
939
330
2
100
AcDbEntity
  8
CENTER
100
AcDbLine
 10
424.5313645323237
 20
446.4767708378908
 30
0.0
 11
445.2266785323238
 21
446.4767708378908
 31
0.0
  0
LINE
  5
93A
330
2
100
AcDbEntity
  8
CENTER
100
AcDbLine
 10
434.8790215323238
 20
436.1291138378908
 30
0.0
 11
434.8790215323238
 21
456.8244278378909
 31
0.0
  0
TEXT
  5
950
330
2
100
AcDbEntity
  8
TITLE
100
AcDbText
 10
511.6185536151157
 20
472.4537899918743
 30
0.0
 40
7.5
  1
HLMN-32T-600~900-T90WK
 41
0.8
100
AcDbText
  0
TEXT
  5
951
330
2
100
AcDbEntity
  8
TITLE
100
AcDbText
 10
511.6185536151157
 20
484.4537899918743
 30
0.0
 40
7.5
  1
HLMN-32T-600~900-T90K
 41
0.8
100
AcDbText
  0
TEXT
  5
952
330
2
100
AcDbEntity
  8
TITLE
100
AcDbText
 10
511.6185536151157
 20
496.4537899918743
 30
0.0
 40
7.5
  1
HLMN-32T-1200~1800-T60WK
 41
0.8
100
AcDbText
  0
TEXT
  5
953
330
2
100
AcDbEntity
  8
TITLE
100
AcDbText
 10
511.6185536151157
 20
508.4537899918744
 30
0.0
 40
7.5
  1
HLMN-32T-1200~1800-T60K
 41
0.8
100
AcDbText
  0
TEXT
  5
954
330
2
100
AcDbEntity
  8
TITLE
100
AcDbText
 10
511.6185536151157
 20
520.4537899918744
 30
0.0
 40
7.5
  1
HLMN-32T-1200~1800-T40WK
 41
0.8
100
AcDbText
  0
TEXT
  5
955
330
2
100
AcDbEntity
  8
TITLE
100
AcDbText
 10
511.6185536151157
 20
532.4537899918744
 30
0.0
 40
7.5
  1
HLMN-32T-1200~1800-T40K
 41
0.8
100
AcDbText
  0
TEXT
  5
956
330
2
100
AcDbEntity
  8
TITLE
100
AcDbText
 10
665.2829345607377
 20
472.4537899918743
 30
0.0
 40
7.5
  1
HLMN-32T-600~900-S90WK
 41
0.8
100
AcDbText
  0
TEXT
  5
957
330
2
100
AcDbEntity
  8
TITLE
100
AcDbText
 10
665.2829345607377
 20
484.4537899918743
 30
0.0
 40
7.5
  1
HLMN-32T-600~900-S90K
 41
0.8
100
AcDbText
  0
TEXT
  5
958
330
2
100
AcDbEntity
  8
TITLE
100
AcDbText
 10
665.2829345607377
 20
496.4537899918743
 30
0.0
 40
7.5
  1
HLMN-32T-1200~1800-S60WK
 41
0.8
100
AcDbText
  0
TEXT
  5
959
330
2
100
AcDbEntity
  8
TITLE
100
AcDbText
 10
665.2829345607377
 20
508.4537899918744
 30
0.0
 40
7.5
  1
HLMN-32T-1200~1800-S60K
 41
0.8
100
AcDbText
  0
TEXT
  5
95A
330
2
100
AcDbEntity
  8
TITLE
100
AcDbText
 10
665.2829345607377
 20
520.4537899918744
 30
0.0
 40
7.5
  1
HLMN-32T-1200~1800-S40WK
 41
0.8
100
AcDbText
  0
TEXT
  5
95B
330
2
100
AcDbEntity
  8
TITLE
100
AcDbText
 10
665.2829345607377
 20
532.4537899918744
 30
0.0
 40
7.5
  1
HLMN-32T-1200~1800-S40K
 41
0.8
100
AcDbText
  0
LINE
  5
B96
330
2
100
AcDbEntity
  8
CENTER
100
AcDbLine
 10
227.2025775039824
 20
166.9235717537373
 30
0.0
 11
319.0492110877485
 21
166.9235717537373
 31
0.0
  0
ARC
  5
1455
330
2
100
AcDbEntity
  8
0
100
AcDbCircle
 10
680.8387767362586
 20
166.9235717537373
 30
0.0
 40
63.5
100
AcDbArc
 50
167.5216944567993
 51
209.9866742701368
  0
ARC
  5
1456
330
2
100
AcDbEntity
  8
0
100
AcDbCircle
 10
680.8387767362586
 20
166.9235717537373
 30
0.0
 40
63.5
100
AcDbArc
 50
330.0133473936957
 51
12.47825543178493
  0
LINE
  5
1B78
330
2
100
AcDbEntity
  8
0
100
AcDbLine
 10
116.8790185323239
 20
244.4235867537374
 30
0.0
 11
116.8790185323239
 21
202.4235717537373
 31
0.0
  0
LINE
  5
1B7A
330
2
100
AcDbEntity
  8
CENTER
100
AcDbLine
 10
141.8790255323237
 20
189.0340757537374
 30
0.0
 11
141.8790255323237
 21
255.8110867537374
 31
0.0
  0
LINE
  5
1B7B
330
2
100
AcDbEntity
  8
0
100
AcDbLine
 10
166.8790255323237
 20
244.4235867537374
 30
0.0
 11
166.8790255323237
 21
202.4235717537373
 31
0.0
  0
LINE
  5
1B80
330
2
100
AcDbEntity
  8
0
100
AcDbLine
 10
116.8790185323239
 20
202.4235717537373
 30
0.0
 11
166.8790255323237
 21
202.4235717537373
 31
0.0
  0
LINE
  5
1B81
330
2
100
AcDbEntity
  8
0
100
AcDbLine
 10
118.3790185323239
 20
200.4235717537373
 30
0.0
 11
164.8790255323238
 21
200.4235717537373
 31
0.0
  0
LINE
  5
1B83
330
2
100
AcDbEntity
  8
0
100
AcDbLine
 10
118.3790185323239
 20
200.4235717537373
 30
0.0
 11
118.3790185323239
 21
198.9235717537374
 31
0.0
  0
LINE
  5
1B84
330
2
100
AcDbEntity
  8
0
100
AcDbLine
 10
116.8790185323239
 20
202.4235717537373
 30
0.0
 11
118.8790185323239
 21
200.4235717537373
 31
0.0
  0
LINE
  5
1B85
330
2
100
AcDbEntity
  8
0
100
AcDbLine
 10
164.3790255323238
 20
200.4235717537373
 30
0.0
 11
164.3790255323238
 21
198.9235717537374
 31
0.0
  0
LINE
  5
1B86
330
2
100
AcDbEntity
  8
0
100
AcDbLine
 10
164.8790255323238
 20
200.4235717537373
 30
0.0
 11
166.8790255323237
 21
202.4235717537373
 31
0.0
  0
LINE
  5
1B8F
330
2
100
AcDbEntity
  8
0
100
AcDbLine
 10
124.3790255323238
 20
244.4235867537374
 30
0.0
 11
159.3790255323237
 21
244.4235867537374
 31
0.0
  0
LINE
  5
1B90
330
2
100
AcDbEntity
  8
0
100
AcDbLine
 10
121.7169343483503
 20
245.4235867537373
 30
0.0
 11
162.0411167162974
 21
245.4235867537374
 31
0.0
  0
LINE
  5
1B91
330
2
100
AcDbEntity
  8
CENTER
100
AcDbLine
 10
106.8354185511152
 20
228.4235717537374
 30
0.0
 11
176.9226325135323
 21
228.4235717537374
 31
0.0
  0
LINE
  5
1B92
330
2
100
AcDbEntity
  8
0
100
AcDbLine
 10
116.8790185323239
 20
213.4235717537374
 30
0.0
 11
166.8790255323237
 21
213.4235717537374
 31
0.0
  0
LINE
  5
1B93
330
2
100
AcDbEntity
  8
0
100
AcDbLine
 10
116.8790185323239
 20
212.4235717537374
 30
0.0
 11
166.8790255323237
 21
212.4235717537374
 31
0.0
  0
LINE
  5
1B94
330
2
100
AcDbEntity
  8
0
100
AcDbLine
 10
116.0040185323239
 20
217.9235717537374
 30
0.0
 11
118.0040185323239
 21
217.9235717537374
 31
0.0
  0
ARC
  5
1B95
330
2
100
AcDbEntity
  8
0
100
AcDbCircle
 10
122.4860362859167
 20
243.9296994779838
 30
0.0
 40
1.3
100
AcDbArc
 50
5.000000000000026
 51
74.1191499917157
  0
LINE
  5
1B96
330
2
100
AcDbEntity
  8
0
100
AcDbLine
 10
124.3790255323238
 20
242.9235867537374
 30
0.0
 11
116.8790255323237
 21
242.9235867537375
 31
0.0
  0
LINE
  5
1B97
330
2
100
AcDbEntity
  8
0
100
AcDbLine
 10
116.0040185323239
 20
238.9235717537374
 30
0.0
 11
118.0040185323239
 21
238.9235717537374
 31
0.0
  0
LINE
  5
1B98
330
2
100
AcDbEntity
  8
0
100
AcDbLine
 10
120.0915255318686
 20
244.0065867537374
 30
0.0
 11
120.6665255327786
 21
244.0065867537374
 31
0.0
  0
ARC
  5
1B99
330
2
100
AcDbEntity
  8
0
100
AcDbCircle
 10
120.3790255323238
 20
236.5235867537375
 30
0.0
 40
9.0
100
AcDbArc
 50
74.1191499917157
 51
105.880850008278
  0
LINE
  5
1B9A
330
2
100
AcDbEntity
  8
0
100
AcDbLine
 10
119.0411167162972
 20
245.4235867537374
 30
0.0
 11
117.8790255323237
 21
245.4235867537374
 31
0.0
  0
LINE
  5
1B9B
330
2
100
AcDbEntity
  8
0
100
AcDbLine
 10
118.3492857091596
 20
245.0760282911151
 30
0.0
 11
118.3290255323238
 21
245.2870050365766
 31
0.0
  0
SPLINE
  5
1B9C
330
2
100
AcDbEntity
  8
0
100
AcDbSpline
210
0.0
220
0.0
230
1.0
 70
     8
 71
     3
 72
    11
 73
     7
 74
     0
 42
0.0000000001
 43
0.0000000001
 40
0.0
 40
0.0
 40
0.0
 40
0.0
 40
0.4601364636755307
 40
1.04988694485363
 40
1.713742833862792
 40
2.320347933405154
 40
2.320347933405154
 40
2.320347933405154
 40
2.320347933405179
 10
120.0915255318686
 20
244.0065867537374
 30
0.0
 10
120.0691078747609
 20
244.1616101934173
 30
0.0
 10
120.0179578195275
 20
244.5153250113349
 30
0.0
 10
119.5820726579938
 20
244.9400526829365
 30
0.0
 10
118.9770219429865
 20
245.1592398629023
 30
0.0
 10
118.5518373188108
 20
245.0902485632917
 30
0.0
 10
118.3492857091596
 20
245.0760282911151
 30
0.0
  0
SPLINE
  5
1B9D
330
2
100
AcDbEntity
  8
0
100
AcDbSpline
210
0.0
220
0.0
230
1.0
 70
     8
 71
     3
 72
    11
 73
     7
 74
     0
 42
0.0000000001
 43
0.0000000001
 40
0.0
 40
0.0
 40
0.0
 40
0.0
 40
0.4601364636755307
 40
1.04988694485363
 40
1.713742833862792
 40
2.320347933405154
 40
2.320347933405154
 40
2.320347933405154
 40
2.320347933405179
 10
120.6665255327786
 20
244.0065867537374
 30
0.0
 10
120.6889431898866
 20
244.1616101934173
 30
0.0
 10
120.7400932451198
 20
244.5153250113349
 30
0.0
 10
121.1759784066534
 20
244.9400526829365
 30
0.0
 10
121.7810291216608
 20
245.1592398629023
 30
0.0
 10
122.2062137458367
 20
245.0902485632917
 30
0.0
 10
122.4087653554877
 20
245.0760282911151
 30
0.0
  0
LINE
  5
1B9E
330
2
100
AcDbEntity
  8
0
100
AcDbLine
 10
122.4087653554877
 20
245.0760282911151
 30
0.0
 11
122.4290255323237
 21
245.2870050365766
 31
0.0
  0
ARC
  5
1B9F
330
2
100
AcDbEntity
  8
0
100
AcDbCircle
 10
118.2720147787308
 20
243.9296994779838
 30
0.0
 40
1.3
100
AcDbArc
 50
105.880850008278
 51
174.9999999999999
  0
LINE
  5
1BA0
330
2
100
AcDbEntity
  8
0
100
AcDbLine
 10
117.8790255323237
 20
245.4235867537374
 30
0.0
 11
116.8790255323237
 21
244.4235867537374
 31
0.0
  0
LINE
  5
1BA1
330
2
100
AcDbEntity
  8
0
100
AcDbLine
 10
116.8790255323237
 20
242.9235867537375
 30
0.0
 11
116.9769616712117
 21
244.0430019435557
 31
0.0
  0
LINE
  5
1BA2
330
2
100
AcDbEntity
  8
0
100
AcDbLine
 10
124.8790255323237
 20
245.4235867537374
 30
0.0
 11
124.3790255323238
 21
244.9235867537374
 31
0.0
  0
LINE
  5
1BA3
330
2
100
AcDbEntity
  8
0
100
AcDbLine
 10
124.3790255323238
 20
244.9235867537374
 30
0.0
 11
123.3240029219441
 21
244.9235867537374
 31
0.0
  0
LINE
  5
1BA4
330
2
100
AcDbEntity
  8
0
100
AcDbLine
 10
124.3790255323238
 20
242.9235867537374
 30
0.0
 11
124.3790255323238
 21
244.9235867537374
 31
0.0
  0
LINE
  5
1BA5
330
2
100
AcDbEntity
  8
0
100
AcDbLine
 10
123.8790255323237
 20
242.9235867537375
 30
0.0
 11
123.7810893934358
 21
244.0430019435557
 31
0.0
  0
LINE
  5
1BA6
330
2
100
AcDbEntity
  8
0
100
AcDbLine
 10
164.7169343483503
 20
245.4235867537374
 30
0.0
 11
165.8790255323237
 21
245.4235867537374
 31
0.0
  0
SPLINE
  5
1BA7
330
2
100
AcDbEntity
  8
0
100
AcDbSpline
210
0.0
220
0.0
230
1.0
 70
     8
 71
     3
 72
    11
 73
     7
 74
     0
 42
0.0000000001
 43
0.0000000001
 40
0.0
 40
0.0
 40
0.0
 40
0.0
 40
0.4601364636755307
 40
1.04988694485363
 40
1.713742833862792
 40
2.320347933405154
 40
2.320347933405154
 40
2.320347933405154
 40
2.320347933405179
 10
163.6665255327789
 20
244.0065867537374
 30
0.0
 10
163.6889431898866
 20
244.1616101934173
 30
0.0
 10
163.74009324512
 20
244.5153250113349
 30
0.0
 10
164.1759784066537
 20
244.9400526829365
 30
0.0
 10
164.781029121661
 20
245.1592398629023
 30
0.0
 10
165.2062137458369
 20
245.0902485632917
 30
0.0
 10
165.4087653554879
 20
245.0760282911151
 30
0.0
  0
LINE
  5
1BA8
330
2
100
AcDbEntity
  8
0
100
AcDbLine
 10
163.6665255327789
 20
244.0065867537374
 30
0.0
 11
163.0915255318689
 21
244.0065867537374
 31
0.0
  0
LINE
  5
1BA9
330
2
100
AcDbEntity
  8
0
100
AcDbLine
 10
165.4087653554879
 20
245.0760282911151
 30
0.0
 11
165.4290255323239
 21
245.2870050365766
 31
0.0
  0
LINE
  5
1BAA
330
2
100
AcDbEntity
  8
0
100
AcDbLine
 10
165.8790255323237
 20
245.4235867537374
 30
0.0
 11
166.8790255323237
 21
244.4235867537374
 31
0.0
  0
ARC
  5
1BAB
330
2
100
AcDbEntity
  8
0
100
AcDbCircle
 10
165.4860362859167
 20
243.9296994779838
 30
0.0
 40
1.3
100
AcDbArc
 50
5.000000000000026
 51
74.1191499917157
  0
LINE
  5
1BAC
330
2
100
AcDbEntity
  8
0
100
AcDbLine
 10
159.3790255323237
 20
244.9235867537374
 30
0.0
 11
160.4340481427034
 21
244.9235867537374
 31
0.0
  0
ARC
  5
1BAD
330
2
100
AcDbEntity
  8
0
100
AcDbCircle
 10
161.2720147787308
 20
243.9296994779838
 30
0.0
 40
1.3
100
AcDbArc
 50
105.880850008278
 51
174.9999999999999
  0
LINE
  5
1BAE
330
2
100
AcDbEntity
  8
0
100
AcDbLine
 10
158.8790255323238
 20
245.4235867537374
 30
0.0
 11
159.3790255323237
 21
244.9235867537374
 31
0.0
  0
LINE
  5
1BAF
330
2
100
AcDbEntity
  8
0
100
AcDbLine
 10
161.3492857091598
 20
245.0760282911151
 30
0.0
 11
161.3290255323238
 21
245.2870050365766
 31
0.0
  0
ARC
  5
1BB0
330
2
100
AcDbEntity
  8
0
100
AcDbCircle
 10
163.3790255323237
 20
236.5235867537375
 30
0.0
 40
9.0
100
AcDbArc
 50
74.1191499917157
 51
105.880850008278
  0
SPLINE
  5
1BB1
330
2
100
AcDbEntity
  8
0
100
AcDbSpline
210
0.0
220
0.0
230
1.0
 70
     8
 71
     3
 72
    11
 73
     7
 74
     0
 42
0.0000000001
 43
0.0000000001
 40
0.0
 40
0.0
 40
0.0
 40
0.0
 40
0.4601364636755307
 40
1.04988694485363
 40
1.713742833862792
 40
2.320347933405154
 40
2.320347933405154
 40
2.320347933405154
 40
2.320347933405179
 10
163.0915255318689
 20
244.0065867537374
 30
0.0
 10
163.0691078747608
 20
244.1616101934173
 30
0.0
 10
163.0179578195277
 20
244.5153250113349
 30
0.0
 10
162.5820726579941
 20
244.9400526829365
 30
0.0
 10
161.9770219429867
 20
245.1592398629023
 30
0.0
 10
161.5518373188108
 20
245.0902485632917
 30
0.0
 10
161.3492857091598
 20
245.0760282911151
 30
0.0
  0
LINE
  5
1BB2
330
2
100
AcDbEntity
  8
0
100
AcDbLine
 10
159.3790255323237
 20
242.9235867537374
 30
0.0
 11
166.8790255323237
 21
242.9235867537375
 31
0.0
  0
LINE
  5
1BB3
330
2
100
AcDbEntity
  8
0
100
AcDbLine
 10
159.3790255323237
 20
242.9235867537374
 30
0.0
 11
159.3790255323237
 21
244.9235867537374
 31
0.0
  0
LINE
  5
1BB4
330
2
100
AcDbEntity
  8
0
100
AcDbLine
 10
159.8790255323238
 20
242.9235867537375
 30
0.0
 11
159.9769616712117
 21
244.0430019435557
 31
0.0
  0
LINE
  5
1BB5
330
2
100
AcDbEntity
  8
0
100
AcDbLine
 10
166.8790255323237
 20
242.9235867537375
 30
0.0
 11
166.781089393436
 21
244.0430019435557
 31
0.0
  0
LINE
  5
1C0D
330
2
100
AcDbEntity
  8
CENTER
100
AcDbLine
 10
141.8790255323237
 20
471.4331638566823
 30
0.0
 11
141.8790255323237
 21
541.5203778190994
 31
0.0
  0
LINE
  5
1C0E
330
2
100
AcDbEntity
  8
0
100
AcDbLine
 10
166.8790255323237
 20
529.4767708378908
 30
0.0
 11
166.8788275323238
 21
483.4767708378907
 31
0.0
  0
LINE
  5
1C0F
330
2
100
AcDbEntity
  8
0
100
AcDbLine
 10
116.8789185323237
 20
483.4767708378907
 30
0.0
 11
116.8789185323237
 21
529.4767708378908
 31
0.0
  0
LINE
  5
1C10
330
2
100
AcDbEntity
  8
0
100
AcDbLine
 10
118.8789185323237
 20
523.9767708378908
 30
0.0
 11
118.8789185323237
 21
488.9767708378908
 31
0.0
  0
LINE
  5
1C11
330
2
100
AcDbEntity
  8
0
100
AcDbLine
 10
164.8788275323238
 20
523.9767708378908
 30
0.0
 11
164.8788275323238
 21
488.9767708378908
 31
0.0
  0
LINE
  5
1C12
330
2
100
AcDbEntity
  8
0
100
AcDbLine
 10
118.8789185323237
 20
481.4767708378908
 30
0.0
 11
164.8788275323238
 21
481.4767708378908
 31
0.0
  0
LINE
  5
1C13
330
2
100
AcDbEntity
  8
0
100
AcDbLine
 10
159.3788275323238
 20
483.4767708378907
 30
0.0
 11
124.3789185323237
 21
483.4767708378907
 31
0.0
  0
LINE
  5
1C14
330
2
100
AcDbEntity
  8
0
100
AcDbLine
 10
124.3789185323237
 20
484.9766788378907
 30
0.0
 11
124.3789185323237
 21
481.4767708378908
 31
0.0
  0
CIRCLE
  5
1C15
330
2
100
AcDbEntity
  8
0
100
AcDbCircle
 10
120.3789185323237
 20
484.9766788378907
 30
0.0
 40
3.500000000000028
  0
LINE
  5
1C16
330
2
100
AcDbEntity
  8
0
100
AcDbLine
 10
116.8789185323237
 20
483.4767708378907
 30
0.0
 11
118.8789185323237
 21
481.4767708378908
 31
0.0
  0
ARC
  5
1C17
330
2
100
AcDbEntity
  8
0
100
AcDbCircle
 10
120.3789185323237
 20
484.9766788378907
 30
0.0
 40
4.0
100
AcDbArc
 50
0.0
 51
90.0
  0
ARC
  5
1C18
330
2
100
AcDbEntity
  8
0
100
AcDbCircle
 10
120.3789185323237
 20
484.9766788378907
 30
0.0
 40
2.049999999999998
100
AcDbArc
 50
81.93803991601789
 51
90.0
  0
ARC
  5
1C19
330
2
100
AcDbEntity
  8
0
100
AcDbCircle
 10
120.3789185323237
 20
484.9766788378907
 30
0.0
 40
2.049999999999998
100
AcDbArc
 50
90.0
 51
98.06196008398211
  0
ARC
  5
1C1A
330
2
100
AcDbEntity
  8
0
100
AcDbCircle
 10
120.3789185323237
 20
484.9766788378907
 30
0.0
 40
2.049999999999998
100
AcDbArc
 50
180.0
 51
188.0619600839816
  0
ARC
  5
1C1B
330
2
100
AcDbEntity
  8
0
100
AcDbCircle
 10
120.3789185323237
 20
484.9766788378907
 30
0.0
 40
2.049999999999998
100
AcDbArc
 50
351.9380399160183
 51
0.0
  0
ARC
  5
1C1C
330
2
100
AcDbEntity
  8
0
100
AcDbCircle
 10
120.3789185323237
 20
484.9766788378907
 30
0.0
 40
2.049999999999998
100
AcDbArc
 50
270.0
 51
278.061960083982
  0
ARC
  5
1C1D
330
2
100
AcDbEntity
  8
0
100
AcDbCircle
 10
120.3789185323237
 20
484.9766788378907
 30
0.0
 40
2.049999999999998
100
AcDbArc
 50
261.9380399160178
 51
270.0
  0
ARC
  5
1C1E
330
2
100
AcDbEntity
  8
0
100
AcDbCircle
 10
122.4086185323237
 20
482.9469788378908
 30
0.0
 40
1.742199999999999
100
AcDbArc
 50
89.99869033450025
 51
180.0013096654997
  0
ARC
  5
1C1F
330
2
100
AcDbEntity
  8
0
100
AcDbCircle
 10
118.3492185323236
 20
482.9469788378908
 30
0.0
 40
1.742199999999999
100
AcDbArc
 50
359.9986903345002
 51
90.00130966549322
  0
ARC
  5
1C20
330
2
100
AcDbEntity
  8
0
100
AcDbCircle
 10
122.4086185323237
 20
487.0063788378907
 30
0.0
 40
1.742199999999999
100
AcDbArc
 50
179.9986903345002
 51
270.0013096654997
  0
ARC
  5
1C21
330
2
100
AcDbEntity
  8
0
100
AcDbCircle
 10
120.3789185323237
 20
484.9766788378907
 30
0.0
 40
2.049999999999998
100
AcDbArc
 50
171.9380399160183
 51
180.0
  0
ARC
  5
1C22
330
2
100
AcDbEntity
  8
0
100
AcDbCircle
 10
118.3492185323236
 20
487.0063788378907
 30
0.0
 40
1.742199999999999
100
AcDbArc
 50
269.9986903345067
 51
0.0013096654997424
  0
ARC
  5
1C23
330
2
100
AcDbEntity
  8
0
100
AcDbCircle
 10
120.3789185323237
 20
484.9766788378907
 30
0.0
 40
2.049999999999998
100
AcDbArc
 50
0.0
 51
8.061960083981649
  0
LINE
  5
1C24
330
2
100
AcDbEntity
  8
0
100
AcDbLine
 10
120.3789185323237
 20
488.9767708378908
 30
0.0
 11
116.8789185323237
 21
488.9767708378908
 31
0.0
  0
LINE
  5
1C25
330
2
100
AcDbEntity
  8
0
100
AcDbLine
 10
164.8788275323238
 20
481.4767708378908
 30
0.0
 11
166.8788275323238
 21
483.4767708378907
 31
0.0
  0
LINE
  5
1C26
330
2
100
AcDbEntity
  8
0
100
AcDbLine
 10
166.8788275323238
 20
483.4767708378907
 30
0.0
 11
164.8788275323238
 21
481.4767708378908
 31
0.0
  0
LINE
  5
1C27
330
2
100
AcDbEntity
  8
0
100
AcDbLine
 10
159.3788275323238
 20
484.9766788378907
 30
0.0
 11
159.3788275323238
 21
481.4767708378908
 31
0.0
  0
CIRCLE
  5
1C28
330
2
100
AcDbEntity
  8
0
100
AcDbCircle
 10
163.3790255323237
 20
484.9766788378907
 30
0.0
 40
3.500000000000028
  0
ARC
  5
1C29
330
2
100
AcDbEntity
  8
0
100
AcDbCircle
 10
163.3790255323237
 20
484.9766788378907
 30
0.0
 40
2.049999999999998
100
AcDbArc
 50
90.0
 51
98.06196008398211
  0
ARC
  5
1C2A
330
2
100
AcDbEntity
  8
0
100
AcDbCircle
 10
163.3790255323237
 20
484.9766788378907
 30
0.0
 40
2.049999999999998
100
AcDbArc
 50
81.93803991601789
 51
90.0
  0
ARC
  5
1C2B
330
2
100
AcDbEntity
  8
0
100
AcDbCircle
 10
163.3790255323237
 20
484.9766788378907
 30
0.0
 40
2.049999999999998
100
AcDbArc
 50
351.9380399160183
 51
0.0
  0
ARC
  5
1C2C
330
2
100
AcDbEntity
  8
0
100
AcDbCircle
 10
163.3790255323237
 20
484.9766788378907
 30
0.0
 40
2.049999999999998
100
AcDbArc
 50
261.9380399160178
 51
270.0
  0
ARC
  5
1C2D
330
2
100
AcDbEntity
  8
0
100
AcDbCircle
 10
163.3790255323237
 20
484.9766788378907
 30
0.0
 40
2.049999999999998
100
AcDbArc
 50
270.0
 51
278.061960083982
  0
ARC
  5
1C2E
330
2
100
AcDbEntity
  8
0
100
AcDbCircle
 10
165.4087255323238
 20
482.9469788378908
 30
0.0
 40
1.742199999999999
100
AcDbArc
 50
89.99869033450025
 51
180.0013096654997
  0
ARC
  5
1C2F
330
2
100
AcDbEntity
  8
0
100
AcDbCircle
 10
165.4087255323238
 20
487.0063788378907
 30
0.0
 40
1.742199999999999
100
AcDbArc
 50
179.9986903345002
 51
270.0013096654997
  0
ARC
  5
1C30
330
2
100
AcDbEntity
  8
0
100
AcDbCircle
 10
163.3790255323237
 20
484.9766788378907
 30
0.0
 40
2.049999999999998
100
AcDbArc
 50
0.0
 51
8.061960083981649
  0
LINE
  5
1C31
330
2
100
AcDbEntity
  8
0
100
AcDbLine
 10
163.3788275323238
 20
488.9767708378908
 30
0.0
 11
166.8788275323238
 21
488.9767708378908
 31
0.0
  0
ARC
  5
1C32
330
2
100
AcDbEntity
  8
0
100
AcDbCircle
 10
163.3790255323237
 20
484.9766788378907
 30
0.0
 40
2.049999999999998
100
AcDbArc
 50
180.0
 51
188.0619600839816
  0
ARC
  5
1C33
330
2
100
AcDbEntity
  8
0
100
AcDbCircle
 10
163.3790255323237
 20
484.9766788378907
 30
0.0
 40
2.049999999999998
100
AcDbArc
 50
171.9380399160183
 51
180.0
  0
ARC
  5
1C34
330
2
100
AcDbEntity
  8
0
100
AcDbCircle
 10
161.3493255323237
 20
482.9469788378908
 30
0.0
 40
1.742199999999999
100
AcDbArc
 50
359.9986903345002
 51
90.00130966549322
  0
ARC
  5
1C35
330
2
100
AcDbEntity
  8
0
100
AcDbCircle
 10
161.3493255323237
 20
487.0063788378907
 30
0.0
 40
1.742199999999999
100
AcDbArc
 50
269.9986903345067
 51
0.0013096654997424
  0
ARC
  5
1C36
330
2
100
AcDbEntity
  8
0
100
AcDbCircle
 10
163.3790255323237
 20
484.9766788378907
 30
0.0
 40
4.0
100
AcDbArc
 50
90.0
 51
180.0
  0
LINE
  5
1C37
330
2
100
AcDbEntity
  8
0
100
AcDbLine
 10
159.3788275323238
 20
529.4767708378908
 30
0.0
 11
124.3789185323237
 21
529.4767708378908
 31
0.0
  0
LINE
  5
1C38
330
2
100
AcDbEntity
  8
0
100
AcDbLine
 10
118.8789185323237
 20
531.4767708378908
 30
0.0
 11
164.8788275323238
 21
531.4767708378908
 31
0.0
  0
ARC
  5
1C3A
330
2
100
AcDbEntity
  8
0
100
AcDbCircle
 10
122.4086185323237
 20
530.0064708378906
 30
0.0
 40
1.742199999999999
100
AcDbArc
 50
179.9986903345002
 51
270.0013096654997
  0
ARC
  5
1C3B
330
2
100
AcDbEntity
  8
0
100
AcDbCircle
 10
118.3492185323236
 20
530.0064708378906
 30
0.0
 40
1.742199999999999
100
AcDbArc
 50
269.9986903345067
 51
0.0013096654997424
  0
LINE
  5
1C3C
330
2
100
AcDbEntity
  8
0
100
AcDbLine
 10
124.3789185323237
 20
527.9767708378908
 30
0.0
 11
124.3789185323237
 21
531.4765868378908
 31
0.0
  0
CIRCLE
  5
1C3D
330
2
100
AcDbEntity
  8
0
100
AcDbCircle
 10
120.3789185323237
 20
527.9767708378908
 30
0.0
 40
3.500000000000028
  0
ARC
  5
1C3E
330
2
100
AcDbEntity
  8
0
100
AcDbCircle
 10
120.3789185323237
 20
527.9767708378908
 30
0.0
 40
4.0
100
AcDbArc
 50
270.0
 51
0.0
  0
ARC
  5
1C3F
330
2
100
AcDbEntity
  8
0
100
AcDbCircle
 10
122.4086185323237
 20
525.9470708378907
 30
0.0
 40
1.742199999999999
100
AcDbArc
 50
89.99869033450025
 51
180.0013096654997
  0
ARC
  5
1C40
330
2
100
AcDbEntity
  8
0
100
AcDbCircle
 10
120.3789185323237
 20
527.9767708378908
 30
0.0
 40
2.049999999999998
100
AcDbArc
 50
270.0
 51
278.061960083982
  0
ARC
  5
1C41
330
2
100
AcDbEntity
  8
0
100
AcDbCircle
 10
118.3492185323236
 20
525.9470708378907
 30
0.0
 40
1.742199999999999
100
AcDbArc
 50
359.9986903345002
 51
90.00130966549322
  0
ARC
  5
1C42
330
2
100
AcDbEntity
  8
0
100
AcDbCircle
 10
120.3789185323237
 20
527.9767708378908
 30
0.0
 40
2.049999999999998
100
AcDbArc
 50
261.9380399160178
 51
270.0
  0
ARC
  5
1C43
330
2
100
AcDbEntity
  8
0
100
AcDbCircle
 10
120.3789185323237
 20
527.9767708378908
 30
0.0
 40
2.049999999999998
100
AcDbArc
 50
180.0
 51
188.0619600839816
  0
ARC
  5
1C44
330
2
100
AcDbEntity
  8
0
100
AcDbCircle
 10
120.3789185323237
 20
527.9767708378908
 30
0.0
 40
2.049999999999998
100
AcDbArc
 50
171.9380399160183
 51
180.0
  0
ARC
  5
1C45
330
2
100
AcDbEntity
  8
0
100
AcDbCircle
 10
120.3789185323237
 20
527.9767708378908
 30
0.0
 40
2.049999999999998
100
AcDbArc
 50
351.9380399160183
 51
0.0
  0
ARC
  5
1C46
330
2
100
AcDbEntity
  8
0
100
AcDbCircle
 10
120.3789185323237
 20
527.9767708378908
 30
0.0
 40
2.049999999999998
100
AcDbArc
 50
0.0
 51
8.061960083981649
  0
LINE
  5
1C47
330
2
100
AcDbEntity
  8
0
100
AcDbLine
 10
120.3789185323237
 20
523.9767708378908
 30
0.0
 11
116.8789185323237
 21
523.9767708378908
 31
0.0
  0
ARC
  5
1C48
330
2
100
AcDbEntity
  8
0
100
AcDbCircle
 10
120.3789185323237
 20
527.9767708378908
 30
0.0
 40
2.049999999999998
100
AcDbArc
 50
81.93803991601789
 51
90.0
  0
ARC
  5
1C49
330
2
100
AcDbEntity
  8
0
100
AcDbCircle
 10
120.3789185323237
 20
527.9767708378908
 30
0.0
 40
2.049999999999998
100
AcDbArc
 50
90.0
 51
98.06196008398211
  0
LINE
  5
1C4A
330
2
100
AcDbEntity
  8
0
100
AcDbLine
 10
116.8789185323237
 20
529.4767708378908
 30
0.0
 11
118.8789185323237
 21
531.4767708378908
 31
0.0
  0
LINE
  5
1C4B
330
2
100
AcDbEntity
  8
0
100
AcDbLine
 10
116.8789185323237
 20
529.4767708378908
 30
0.0
 11
118.8789185323237
 21
531.4767708378908
 31
0.0
  0
ARC
  5
1C4C
330
2
100
AcDbEntity
  8
0
100
AcDbCircle
 10
165.4087255323238
 20
530.0064708378906
 30
0.0
 40
1.742199999999999
100
AcDbArc
 50
179.9986903345002
 51
270.0013096654997
  0
LINE
  5
1C4D
330
2
100
AcDbEntity
  8
0
100
AcDbLine
 10
159.3788275323238
 20
527.9767708378908
 30
0.0
 11
159.3788275323238
 21
531.4765868378908
 31
0.0
  0
ARC
  5
1C4E
330
2
100
AcDbEntity
  8
0
100
AcDbCircle
 10
161.3493255323237
 20
530.0064708378906
 30
0.0
 40
1.742199999999999
100
AcDbArc
 50
269.9986903345067
 51
0.0013096654997424
  0
CIRCLE
  5
1C4F
330
2
100
AcDbEntity
  8
0
100
AcDbCircle
 10
163.3790255323237
 20
527.9767708378908
 30
0.0
 40
3.500000000000028
  0
ARC
  5
1C50
330
2
100
AcDbEntity
  8
0
100
AcDbCircle
 10
165.4087255323238
 20
525.9470708378907
 30
0.0
 40
1.742199999999999
100
AcDbArc
 50
89.99869033450025
 51
180.0013096654997
  0
LINE
  5
1C51
330
2
100
AcDbEntity
  8
0
100
AcDbLine
 10
163.3788275323238
 20
523.9767708378908
 30
0.0
 11
166.8788275323238
 21
523.9767708378908
 31
0.0
  0
ARC
  5
1C52
330
2
100
AcDbEntity
  8
0
100
AcDbCircle
 10
163.3790255323237
 20
527.9767708378908
 30
0.0
 40
2.049999999999998
100
AcDbArc
 50
261.9380399160178
 51
270.0
  0
ARC
  5
1C53
330
2
100
AcDbEntity
  8
0
100
AcDbCircle
 10
163.3790255323237
 20
527.9767708378908
 30
0.0
 40
2.049999999999998
100
AcDbArc
 50
270.0
 51
278.061960083982
  0
ARC
  5
1C54
330
2
100
AcDbEntity
  8
0
100
AcDbCircle
 10
163.3790255323237
 20
527.9767708378908
 30
0.0
 40
2.049999999999998
100
AcDbArc
 50
351.9380399160183
 51
0.0
  0
ARC
  5
1C55
330
2
100
AcDbEntity
  8
0
100
AcDbCircle
 10
163.3790255323237
 20
527.9767708378908
 30
0.0
 40
2.049999999999998
100
AcDbArc
 50
0.0
 51
8.061960083981649
  0
ARC
  5
1C56
330
2
100
AcDbEntity
  8
0
100
AcDbCircle
 10
163.3790255323237
 20
527.9767708378908
 30
0.0
 40
2.049999999999998
100
AcDbArc
 50
180.0
 51
188.0619600839816
  0
ARC
  5
1C57
330
2
100
AcDbEntity
  8
0
100
AcDbCircle
 10
163.3790255323237
 20
527.9767708378908
 30
0.0
 40
2.049999999999998
100
AcDbArc
 50
171.9380399160183
 51
180.0
  0
ARC
  5
1C58
330
2
100
AcDbEntity
  8
0
100
AcDbCircle
 10
161.3493255323237
 20
525.9470708378907
 30
0.0
 40
1.742199999999999
100
AcDbArc
 50
359.9986903345002
 51
90.00130966549322
  0
ARC
  5
1C59
330
2
100
AcDbEntity
  8
0
100
AcDbCircle
 10
163.3790255323237
 20
527.9767708378908
 30
0.0
 40
4.0
100
AcDbArc
 50
180.0
 51
270.0
  0
LINE
  5
1C5A
330
2
100
AcDbEntity
  8
0
100
AcDbLine
 10
166.8790255323237
 20
529.4767708378908
 30
0.0
 11
164.8788275323238
 21
531.4767708378908
 31
0.0
  0
LINE
  5
1C5B
330
2
100
AcDbEntity
  8
0
100
AcDbLine
 10
166.8788275323238
 20
529.4767708378908
 30
0.0
 11
164.8788275323238
 21
531.4767708378908
 31
0.0
  0
LINE
  5
1C5C
330
2
100
AcDbEntity
  8
0
100
AcDbLine
 10
166.8788275323238
 20
529.4767708378908
 30
0.0
 11
164.8788275323238
 21
531.4767708378908
 31
0.0
  0
ARC
  5
1C5D
330
2
100
AcDbEntity
  8
0
100
AcDbCircle
 10
163.3790255323237
 20
527.9767708378908
 30
0.0
 40
2.049999999999998
100
AcDbArc
 50
90.0
 51
98.06196008398211
  0
ARC
  5
1C5E
330
2
100
AcDbEntity
  8
0
100
AcDbCircle
 10
163.3790255323237
 20
527.9767708378908
 30
0.0
 40
2.049999999999998
100
AcDbArc
 50
81.93803991601789
 51
90.0
  0
ENDSEC
  0
SECTION
  2
OBJECTS
  0
DICTIONARY
  5
7
330
0
100
AcDbDictionary
  3
ACAD_GROUP
350
75
  3
ACAD_LAYOUT
350
61
  3
ACAD_MLINESTYLE
350
76
  3
ACAD_PLOTSETTINGS
350
77
  3
ACAD_PLOTSTYLENAME
350
6
  3
ACADDIM
350
480
  3
ACDBHEADERROUNDTRIPXREC
350
1D2F
  3
ACDBVARIABLEDICTIONARY
350
102
  3
DWGPROPS
350
3D2
  0
DICTIONARY
  5
1D50
330
2
100
AcDbDictionary
280
     1
  3
ACAD_LAYOUTSELFREF
360
1D51
  0
DICTIONARY
  5
1D52
330
1D29
100
AcDbDictionary
280
     1
  3
ACAD_LAYOUTSELFREF
360
1D53
  0
DICTIONARY
  5
75
102
{ACAD_REACTORS
330
7
102
}
330
7
100
AcDbDictionary
  0
DICTIONARY
  5
61
102
{ACAD_REACTORS
330
7
102
}
330
7
100
AcDbDictionary
  0
DICTIONARY
  5
76
102
{ACAD_REACTORS
330
7
102
}
330
7
100
AcDbDictionary
  3
STANDARD
350
78
  0
DICTIONARY
  5
77
102
{ACAD_REACTORS
330
7
102
}
330
7
100
AcDbDictionary
  0
ACDBDICTIONARYWDFLT
  5
6
102
{ACAD_REACTORS
330
7
102
}
330
7
100
AcDbDictionary
281
     1
  3
Normal
350
5
100
AcDbDictionaryWithDefault
340
5
  0
XRECORD
  5
480
102
{ACAD_REACTORS
330
7
102
}
330
7
100
AcDbXrecord
 90
   990106
  3

 60
     0
 61
     0
 62
     1
 63
     3
 64
     1
 65
     0
 66
     0
 67
     3
 68
     1
 69
     0
 70
     0
 71
     0
 72
     0
 40
0.0
170
     2
340
0
  0
DICTIONARY
  5
1D2F
102
{ACAD_REACTORS
330
7
102
}
330
7
100
AcDbDictionary
  3
CEPSNTYPE
350
1D39
  3
DIMSTYLEDATA
350
1D3D
  3
FINGERPRINTGUID
350
1D3A
  3
HYPERLINKBASE
350
1D32
  3
INSUNITS
350
1D38
  3
LAYOUTDICT
350
1D34
  3
LWETCUNION
350
1D37
  3
PLOTSETDICT
350
1D35
  3
PLOTSTYLNAMDICT
350
1D36
  3
PSVPSCALE
350
1D3C
  3
PUCSBASE
350
1D40
  3
PUCSORGBACK
350
1D46
  3
PUCSORGBOTTOM
350
1D42
  3
PUCSORGFRONT
350
1D45
  3
PUCSORGLEFT
350
1D43
  3
PUCSORGRIGHT
350
1D44
  3
PUCSORGTOP
350
1D41
  3
PUCSORTHOREF
350
1D3E
  3
PUCSORTHOVIEW
350
1D3F
  3
STYLESHEET
350
1D33
  3
TSTACKALIGN
350
1D30
  3
TSTACKSIZE
350
1D31
  3
UCSBASE
350
1D49
  3
UCSORGBACK
350
1D4F
  3
UCSORGBOTTOM
350
1D4B
  3
UCSORGFRONT
350
1D4E
  3
UCSORGLEFT
350
1D4C
  3
UCSORGRIGHT
350
1D4D
  3
UCSORGTOP
350
1D4A
  3
UCSORTHOREF
350
1D47
  3
UCSORTHOVIEW
350
1D48
  3
VERSIONGUID
350
1D3B
  0
DICTIONARY
  5
102
102
{ACAD_REACTORS
330
7
102
}
330
7
100
AcDbDictionary
  3
DIMASSOC
350
103
  0
XRECORD
  5
3D2
102
{ACAD_REACTORS
330
7
102
}
330
7
100
AcDbXrecord
  1
DWGPROPS COOKIE
  2

  3

  4

  6

  7

  8

  9

300
=
301
=
302
=
303
=
304
=
305
=
306
=
307
=
308
=
309
=
 40
0.5353330671296296
 41
2452052.431989363
 42
2453406.550756377
  1

 90
        0
  0
XRECORD
  5
1D51
102
{ACAD_REACTORS
330
1D50
102
}
330
1D50
100
AcDbXrecord
340
2
  0
XRECORD
  5
1D53
102
{ACAD_REACTORS
330
1D52
102
}
330
1D52
100
AcDbXrecord
340
1D29
  0
MLINESTYLE
  5
78
102
{ACAD_REACTORS
330
76
102
}
330
76
100
AcDbMlineStyle
  2
STANDARD
 70
     0
  3

 62
     0
 51
90.0
 52
90.0
 71
     2
 49
0.5
 62
   256
  6
BYLAYER
 49
-0.5
 62
   256
  6
BYLAYER
  0
ACDBPLACEHOLDER
  5
5
102
{ACAD_REACTORS
330
6
102
}
330
6
100
AcDbPlaceHolder
280
     0
  0
XRECORD
  5
1D39
102
{ACAD_REACTORS
330
1D2F
102
}
330
1D2F
100
AcDbXrecord
 90
        0
  0
XRECORD
  5
1D3D
102
{ACAD_REACTORS
330
1D2F
102
}
330
1D2F
100
AcDbXrecord
1000
DSTYLE
1002
{
1070
   179
 70
     2
1070
   277
 70
     6
1002
}
  0
XRECORD
  5
1D3A
102
{ACAD_REACTORS
330
1D2F
102
}
330
1D2F
100
AcDbXrecord
  1
{6385560B-F4B1-4644-A7C2-A3E32AC3D232}
  0
XRECORD
  5
1D32
102
{ACAD_REACTORS
330
1D2F
102
}
330
1D2F
100
AcDbXrecord
  1

  0
XRECORD
  5
1D38
102
{ACAD_REACTORS
330
1D2F
102
}
330
1D2F
100
AcDbXrecord
 90
        0
  0
XRECORD
  5
1D34
102
{ACAD_REACTORS
330
1D2F
102
}
330
1D2F
100
AcDbXrecord
340
61
  0
XRECORD
  5
1D37
102
{ACAD_REACTORS
330
1D2F
102
}
330
1D2F
100
AcDbXrecord
 90
    10781
  0
XRECORD
  5
1D35
102
{ACAD_REACTORS
330
1D2F
102
}
330
1D2F
100
AcDbXrecord
340
77
  0
XRECORD
  5
1D36
102
{ACAD_REACTORS
330
1D2F
102
}
330
1D2F
100
AcDbXrecord
340
6
  0
XRECORD
  5
1D3C
102
{ACAD_REACTORS
330
1D2F
102
}
330
1D2F
100
AcDbXrecord
 40
0.0
  0
XRECORD
  5
1D40
102
{ACAD_REACTORS
330
1D2F
102
}
330
1D2F
100
AcDbXrecord
340
0
  0
XRECORD
  5
1D46
102
{ACAD_REACTORS
330
1D2F
102
}
330
1D2F
100
AcDbXrecord
 10
0.0
 20
0.0
 30
0.0
  0
XRECORD
  5
1D42
102
{ACAD_REACTORS
330
1D2F
102
}
330
1D2F
100
AcDbXrecord
 10
0.0
 20
0.0
 30
0.0
  0
XRECORD
  5
1D45
102
{ACAD_REACTORS
330
1D2F
102
}
330
1D2F
100
AcDbXrecord
 10
0.0
 20
0.0
 30
0.0
  0
XRECORD
  5
1D43
102
{ACAD_REACTORS
330
1D2F
102
}
330
1D2F
100
AcDbXrecord
 10
0.0
 20
0.0
 30
0.0
  0
XRECORD
  5
1D44
102
{ACAD_REACTORS
330
1D2F
102
}
330
1D2F
100
AcDbXrecord
 10
0.0
 20
0.0
 30
0.0
  0
XRECORD
  5
1D41
102
{ACAD_REACTORS
330
1D2F
102
}
330
1D2F
100
AcDbXrecord
 10
0.0
 20
0.0
 30
0.0
  0
XRECORD
  5
1D3E
102
{ACAD_REACTORS
330
1D2F
102
}
330
1D2F
100
AcDbXrecord
340
0
  0
XRECORD
  5
1D3F
102
{ACAD_REACTORS
330
1D2F
102
}
330
1D2F
100
AcDbXrecord
 70
     0
  0
XRECORD
  5
1D33
102
{ACAD_REACTORS
330
1D2F
102
}
330
1D2F
100
AcDbXrecord
  1
Sekkei.ctb
  0
XRECORD
  5
1D30
102
{ACAD_REACTORS
330
1D2F
102
}
330
1D2F
100
AcDbXrecord
 90
        1
  0
XRECORD
  5
1D31
102
{ACAD_REACTORS
330
1D2F
102
}
330
1D2F
100
AcDbXrecord
 90
       70
  0
XRECORD
  5
1D49
102
{ACAD_REACTORS
330
1D2F
102
}
330
1D2F
100
AcDbXrecord
340
0
  0
XRECORD
  5
1D4F
102
{ACAD_REACTORS
330
1D2F
102
}
330
1D2F
100
AcDbXrecord
 10
0.0
 20
0.0
 30
0.0
  0
XRECORD
  5
1D4B
102
{ACAD_REACTORS
330
1D2F
102
}
330
1D2F
100
AcDbXrecord
 10
0.0
 20
0.0
 30
0.0
  0
XRECORD
  5
1D4E
102
{ACAD_REACTORS
330
1D2F
102
}
330
1D2F
100
AcDbXrecord
 10
0.0
 20
0.0
 30
0.0
  0
XRECORD
  5
1D4C
102
{ACAD_REACTORS
330
1D2F
102
}
330
1D2F
100
AcDbXrecord
 10
0.0
 20
0.0
 30
0.0
  0
XRECORD
  5
1D4D
102
{ACAD_REACTORS
330
1D2F
102
}
330
1D2F
100
AcDbXrecord
 10
0.0
 20
0.0
 30
0.0
  0
XRECORD
  5
1D4A
102
{ACAD_REACTORS
330
1D2F
102
}
330
1D2F
100
AcDbXrecord
 10
0.0
 20
0.0
 30
0.0
  0
XRECORD
  5
1D47
102
{ACAD_REACTORS
330
1D2F
102
}
330
1D2F
100
AcDbXrecord
340
0
  0
XRECORD
  5
1D48
102
{ACAD_REACTORS
330
1D2F
102
}
330
1D2F
100
AcDbXrecord
 70
     0
  0
XRECORD
  5
1D3B
102
{ACAD_REACTORS
330
1D2F
102
}
330
1D2F
100
AcDbXrecord
  1
{75550063-2698-4A1E-8271-CFEFBD0F3C69}
  0
DICTIONARYVAR
  5
103
102
{ACAD_REACTORS
330
102
102
}
330
102
100
DictionaryVariables
280
     0
  1
1
  0
ENDSEC
  0
EOF
