  0
SECTION
  2
HEADER
  9
$ACADVER
  1
AC1014
  9
$ACADMAINTVER
 70
     9
  9
$DWGCODEPAGE
  3
ANSI_932
  9
$INSBASE
 10
0.0
 20
0.0
 30
0.0
  9
$EXTMIN
 10
67.95799406273545
 20
88.14159075625724
 30
0.0
  9
$EXTMAX
 10
1422.915684569602
 20
740.1011412429298
 30
0.0
  9
$LIMMIN
 10
-160.9296012394556
 20
-53.76712529001679
  9
$LIMMAX
 10
1685.688081617427
 20
959.4130389366599
  9
$ORTHOMODE
 70
     1
  9
$REGENMODE
 70
     1
  9
$FILLMODE
 70
     1
  9
$QTEXTMODE
 70
     0
  9
$MIRRTEXT
 70
     0
  9
$DRAGMODE
 70
     2
  9
$LTSCALE
 40
4.0
  9
$OSMODE
 70
    37
  9
$ATTMODE
 70
     1
  9
$TEXTSIZE
 40
2.0
  9
$TRACEWID
 40
1.0
  9
$TEXTSTYLE
  7
STANDARD
  9
$CLAYER
  8
0
  9
$CELTYPE
  6
BYLAYER
  9
$CECOLOR
 62
   256
  9
$CELTSCALE
 40
1.0
  9
$DELOBJ
 70
     1
  9
$DISPSILH
 70
     0
  9
$DIMSCALE
 40
4.0
  9
$DIMASZ
 40
1.8
  9
$DIMEXO
 40
0.625
  9
$DIMDLI
 40
3.75
  9
$DIMRND
 40
0.0
  9
$DIMDLE
 40
0.0
  9
$DIMEXE
 40
0.8
  9
$DIMTP
 40
0.0
  9
$DIMTM
 40
0.0
  9
$DIMTXT
 40
1.8
  9
$DIMCEN
 40
2.5
  9
$DIMTSZ
 40
0.0
  9
$DIMTOL
 70
     0
  9
$DIMLIM
 70
     0
  9
$DIMTIH
 70
     0
  9
$DIMTOH
 70
     0
  9
$DIMSE1
 70
     0
  9
$DIMSE2
 70
     0
  9
$DIMTAD
 70
     1
  9
$DIMZIN
 70
     8
  9
$DIMBLK
  1

  9
$DIMASO
 70
     1
  9
$DIMSHO
 70
     1
  9
$DIMPOST
  1

  9
$DIMAPOST
  1

  9
$DIMALT
 70
     0
  9
$DIMALTD
 70
     4
  9
$DIMALTF
 40
0.0394
  9
$DIMLFAC
 40
1.0
  9
$DIMTOFL
 70
     1
  9
$DIMTVP
 40
0.0
  9
$DIMTIX
 70
     0
  9
$DIMSOXD
 70
     0
  9
$DIMSAH
 70
     0
  9
$DIMBLK1
  1

  9
$DIMBLK2
  1

  9
$DIMSTYLE
  2
STANDARD
  9
$DIMCLRD
 70
     0
  9
$DIMCLRE
 70
     0
  9
$DIMCLRT
 70
     0
  9
$DIMTFAC
 40
1.0
  9
$DIMGAP
 40
0.75
  9
$DIMJUST
 70
     0
  9
$DIMSD1
 70
     0
  9
$DIMSD2
 70
     0
  9
$DIMTOLJ
 70
     1
  9
$DIMTZIN
 70
     0
  9
$DIMALTZ
 70
     0
  9
$DIMALTTZ
 70
     0
  9
$DIMFIT
 70
     3
  9
$DIMUPT
 70
     0
  9
$DIMUNIT
 70
     8
  9
$DIMDEC
 70
     2
  9
$DIMTDEC
 70
     2
  9
$DIMALTU
 70
     8
  9
$DIMALTTD
 70
     4
  9
$DIMTXSTY
  7
STANDARD
  9
$DIMAUNIT
 70
     0
  9
$LUNITS
 70
     2
  9
$LUPREC
 70
     3
  9
$SKETCHINC
 40
1.0
  9
$FILLETRAD
 40
10.0
  9
$AUNITS
 70
     0
  9
$AUPREC
 70
     2
  9
$MENU
  1
.
  9
$ELEVATION
 40
0.0
  9
$PELEVATION
 40
0.0
  9
$THICKNESS
 40
0.0
  9
$LIMCHECK
 70
     0
  9
$BLIPMODE
 70
     0
  9
$CHAMFERA
 40
0.0
  9
$CHAMFERB
 40
0.0
  9
$CHAMFERC
 40
20.0
  9
$CHAMFERD
 40
0.0
  9
$SKPOLY
 70
     0
  9
$TDCREATE
 40
2453753.550053159
  9
$TDUPDATE
 40
2453832.466914965
  9
$TDINDWG
 40
0.1405673495
  9
$TDUSRTIMER
 40
0.1405673495
  9
$USRTIMER
 70
     1
  9
$ANGBASE
 50
0.0
  9
$ANGDIR
 70
     0
  9
$PDMODE
 70
     0
  9
$PDSIZE
 40
-10.0
  9
$PLINEWID
 40
0.0
  9
$COORDS
 70
     0
  9
$SPLFRAME
 70
     0
  9
$SPLINETYPE
 70
     6
  9
$SPLINESEGS
 70
     8
  9
$ATTDIA
 70
     0
  9
$ATTREQ
 70
     1
  9
$HANDLING
 70
-16383
  9
$HANDSEED
  5
1875
  9
$SURFTAB1
 70
     6
  9
$SURFTAB2
 70
     6
  9
$SURFTYPE
 70
     6
  9
$SURFU
 70
     6
  9
$SURFV
 70
     6
  9
$UCSNAME
  2

  9
$UCSORG
 10
0.0
 20
0.0
 30
0.0
  9
$UCSXDIR
 10
1.0
 20
0.0
 30
0.0
  9
$UCSYDIR
 10
0.0
 20
1.0
 30
0.0
  9
$PUCSNAME
  2

  9
$PUCSORG
 10
0.0
 20
0.0
 30
0.0
  9
$PUCSXDIR
 10
1.0
 20
0.0
 30
0.0
  9
$PUCSYDIR
 10
0.0
 20
1.0
 30
0.0
  9
$USERI1
 70
     0
  9
$USERI2
 70
     0
  9
$USERI3
 70
     0
  9
$USERI4
 70
     0
  9
$USERI5
 70
     0
  9
$USERR1
 40
0.0
  9
$USERR2
 40
0.0
  9
$USERR3
 40
0.0
  9
$USERR4
 40
0.0
  9
$USERR5
 40
0.0
  9
$WORLDVIEW
 70
     1
  9
$SHADEDGE
 70
     3
  9
$SHADEDIF
 70
    70
  9
$TILEMODE
 70
     1
  9
$MAXACTVP
 70
    48
  9
$PINSBASE
 10
0.0
 20
0.0
 30
0.0
  9
$PLIMCHECK
 70
     0
  9
$PEXTMIN
 10
0.0
 20
0.0
 30
0.0
  9
$PEXTMAX
 10
0.0
 20
0.0
 30
0.0
  9
$PLIMMIN
 10
0.0
 20
0.0
  9
$PLIMMAX
 10
12.0
 20
9.0
  9
$UNITMODE
 70
     0
  9
$VISRETAIN
 70
     1
  9
$PLINEGEN
 70
     0
  9
$PSLTSCALE
 70
     1
  9
$TREEDEPTH
 70
  3020
  9
$PICKSTYLE
 70
     1
  9
$CMLSTYLE
  2
STANDARD
  9
$CMLJUST
 70
     0
  9
$CMLSCALE
 40
1.0
  9
$PROXYGRAPHICS
 70
     1
  9
$MEASUREMENT
 70
     0
  0
ENDSEC
  0
SECTION
  2
CLASSES
  0
CLASS
  1
DICTIONARYVAR
  2
AcDbDictionaryVar
  3
AutoCAD 2000
 90
        0
280
     0
281
     0
  0
CLASS
  1
ACDBDICTIONARYWDFLT
  2
AcDbDictionaryWithDefault
  3
AutoCAD 2000
 90
        0
280
     0
281
     0
  0
CLASS
  1
ACDBPLACEHOLDER
  2
AcDbPlaceHolder
  3
AutoCAD 2000
 90
        0
280
     0
281
     0
  0
CLASS
  1
LAYOUT
  2
AcDbLayout
  3
AutoCAD 2000
 90
        0
280
     0
281
     0
  0
CLASS
  1
LONG_TRANSACTION
  2
AcDbLongTransaction
  3
AutoCAD 2000
 90
        0
280
     0
281
     0
  0
CLASS
  1
LWPOLYLINE
  2
AcDbPolyline
  3
AutoCAD 2000
 90
        0
280
     0
281
     1
  0
CLASS
  1
HATCH
  2
AcDbHatch
  3
AutoCAD 2000
 90
        0
280
     0
281
     1
  0
CLASS
  1
XRECORD
  2
AcDbXrecord
  3
AutoCAD 2000
 90
        0
280
     0
281
     0
  0
ENDSEC
  0
SECTION
  2
TABLES
  0
TABLE
  2
VPORT
  5
6E
330
0
100
AcDbSymbolTable
 70
     2
  0
VPORT
  5
184F
330
6E
100
AcDbSymbolTableRecord
100
AcDbViewportTableRecord
  2
*ACTIVE
 70
     0
 10
0.0
 20
0.0
 11
1.0
 21
1.0
 12
730.820836785727
 22
391.0606489894798
 13
0.0
 23
0.0
 14
10.0
 24
10.0
 15
24.0
 25
24.0
 16
0.0
 26
0.0
 36
1.0
 17
0.0
 27
0.0
 37
0.0
 40
888.0244722553305
 41
1.566970091027308
 42
50.0
 43
0.0
 44
0.0
 50
0.0
 51
0.0
 71
     0
 72
   100
 73
     1
 74
     3
 75
     0
 76
     0
 77
     0
 78
     0
  0
ENDTAB
  0
TABLE
  2
LTYPE
  5
69
330
0
100
AcDbSymbolTable
 70
     3
  0
LTYPE
  5
6A
330
69
100
AcDbSymbolTableRecord
100
AcDbLinetypeTableRecord
  2
BYBLOCK
 70
     0
  3

 72
    65
 73
     0
 40
0.0
  0
LTYPE
  5
6B
330
69
100
AcDbSymbolTableRecord
100
AcDbLinetypeTableRecord
  2
BYLAYER
 70
     0
  3

 72
    65
 73
     0
 40
0.0
  0
LTYPE
  5
8
330
69
100
AcDbSymbolTableRecord
100
AcDbLinetypeTableRecord
  2
CONTINUOUS
 70
     0
  3
Solid line
 72
    65
 73
     0
 40
0.0
  0
LTYPE
  5
27C
330
69
100
AcDbSymbolTableRecord
100
AcDbLinetypeTableRecord
  2
SEKKEI_A2_
 70
     0
  3
center(A2)  ____ _ ____ _ ____ _ ____ _ ____ _ 
 72
    65
 73
     4
 40
14.28749999999999
 49
9.525
 74
     0
 49
-1.587499999999999
 74
     0
 49
1.587499999999999
 74
     0
 49
-1.587499999999999
 74
     0
  0
LTYPE
  5
2B4
330
69
100
AcDbSymbolTableRecord
100
AcDbLinetypeTableRecord
  2
HIDDEN2
 70
     0
  3
Hidden (.5x) _ _ _ _ _ _ _ _ _ _ _ _ _ _ _ _ _
 72
    65
 73
     2
 40
4.762499999999999
 49
3.174999999999999
 74
     0
 49
-1.587499999999999
 74
     0
  0
ENDTAB
  0
TABLE
  2
LAYER
  5
66
330
0
100
AcDbSymbolTable
 70
     9
  0
LAYER
  5
5E
330
66
100
AcDbSymbolTableRecord
100
AcDbLayerTableRecord
  2
0
 70
     0
 62
     7
  6
CONTINUOUS
  0
LAYER
  5
3E
330
66
100
AcDbSymbolTableRecord
100
AcDbLayerTableRecord
  2
CENTER
 70
     0
 62
     3
  6
SEKKEI_A2_
  0
LAYER
  5
2B5
330
66
100
AcDbSymbolTableRecord
100
AcDbLayerTableRecord
  2
HIDS
 70
     0
 62
     1
  6
HIDDEN2
  0
LAYER
  5
2BA
330
66
100
AcDbSymbolTableRecord
100
AcDbLayerTableRecord
  2
HOJO
 70
     0
 62
     4
  6
CONTINUOUS
  0
LAYER
  5
3FA
330
66
100
AcDbSymbolTableRecord
100
AcDbLayerTableRecord
  2
TITLE
 70
     0
 62
     4
  6
CONTINUOUS
  0
ENDTAB
  0
TABLE
  2
STYLE
  5
67
330
0
100
AcDbSymbolTable
 70
     1
  0
STYLE
  5
16
330
67
100
AcDbSymbolTableRecord
100
AcDbTextStyleTableRecord
  2
STANDARD
 70
     0
 40
0.0
 41
1.0
 50
0.0
 71
     0
 42
2.0
  3
simplex.shx
  4
extfont.shx
  0
ENDTAB
  0
TABLE
  2
VIEW
  5
6C
330
0
100
AcDbSymbolTable
 70
     0
  0
ENDTAB
  0
TABLE
  2
UCS
  5
6D
330
0
100
AcDbSymbolTable
 70
     0
  0
ENDTAB
  0
TABLE
  2
APPID
  5
70
330
0
100
AcDbSymbolTable
 70
     1
  0
APPID
  5
71
330
70
100
AcDbSymbolTableRecord
100
AcDbRegAppTableRecord
  2
ACAD
 70
     0
  0
ENDTAB
  0
TABLE
  2
DIMSTYLE
  5
72
330
0
100
AcDbSymbolTable
 70
     2
  0
DIMSTYLE
105
73
330
72
100
AcDbSymbolTableRecord
100
AcDbDimStyleTableRecord
  2
STANDARD
 70
     0
  3

  4

  5

  6

  7

 40
4.0
 41
1.8
 42
0.625
 43
3.75
 44
0.8
 45
0.0
 46
0.0
 47
0.0
 48
0.0
140
1.8
141
2.5
142
0.0
143
0.0394
144
1.0
145
0.0
146
1.0
147
0.75
 71
     0
 72
     0
 73
     0
 74
     0
 75
     0
 76
     0
 77
     1
 78
     8
170
     0
171
     4
172
     1
173
     0
174
     0
175
     0
176
     0
177
     0
178
     0
270
     8
271
     2
272
     2
273
     8
274
     4
340
16
275
     0
280
     0
281
     0
282
     0
283
     1
284
     0
285
     0
286
     0
287
     3
288
     0
  0
ENDTAB
  0
TABLE
  2
BLOCK_RECORD
  5
1
330
0
100
AcDbSymbolTable
 70
    59
  0
BLOCK_RECORD
  5
2
102
{ACAD_XDICTIONARY
360
1871
102
}
330
1
100
AcDbSymbolTableRecord
100
AcDbBlockTableRecord
  2
*MODEL_SPACE
  0
BLOCK_RECORD
  5
184A
102
{ACAD_XDICTIONARY
360
1873
102
}
330
1
100
AcDbSymbolTableRecord
100
AcDbBlockTableRecord
  2
*PAPER_SPACE
  0
ENDTAB
  0
ENDSEC
  0
SECTION
  2
BLOCKS
  0
BLOCK
  5
5D
330
2
100
AcDbEntity
  8
0
100
AcDbBlockBegin
  2
*MODEL_SPACE
 70
     0
 10
0.0
 20
0.0
 30
0.0
  3
*MODEL_SPACE
  1

  0
ENDBLK
  5
5F
330
2
100
AcDbEntity
  8
0
100
AcDbBlockEnd
  0
BLOCK
  5
184C
330
184A
100
AcDbEntity
 67
     1
  8
0
100
AcDbBlockBegin
  2
*PAPER_SPACE
 70
     0
 10
0.0
 20
0.0
 30
0.0
  3
*PAPER_SPACE
  1

  0
ENDBLK
  5
184D
330
184A
100
AcDbEntity
 67
     1
  8
0
100
AcDbBlockEnd
  0
ENDSEC
  0
SECTION
  2
ENTITIES
  0
ARC
  5
67D
330
2
100
AcDbEntity
  8
0
100
AcDbCircle
 10
1060.915715569602
 20
235.6415947562572
 30
0.0
 40
105.0
100
AcDbArc
 50
230.4788969999999
 51
309.5216059999998
  0
ARC
  5
67E
330
2
100
AcDbEntity
  8
0
100
AcDbCircle
 10
1060.915715569602
 20
235.6415947562572
 30
0.0
 40
105.0
100
AcDbArc
 50
50.65557900000023
 51
129.5215000000003
  0
ARC
  5
67F
330
2
100
AcDbEntity
  8
0
100
AcDbCircle
 10
1030.915715569602
 20
197.6415877562572
 30
0.0
 40
38.0
100
AcDbArc
 50
167.4772949999996
 51
270.0
  0
ARC
  5
680
330
2
100
AcDbEntity
  8
0
100
AcDbCircle
 10
1030.915715569602
 20
197.6415877562572
 30
0.0
 40
34.0
100
AcDbArc
 50
167.4772949999996
 51
270.0
  0
ARC
  5
681
330
2
100
AcDbEntity
  8
0
100
AcDbCircle
 10
1060.915715569602
 20
268.1415947562573
 30
0.0
 40
48.0
100
AcDbArc
 50
167.4772949999996
 51
12.5225799999996
  0
ARC
  5
682
330
2
100
AcDbEntity
  8
0
100
AcDbCircle
 10
1060.915715569602
 20
268.1415947562573
 30
0.0
 40
52.0
100
AcDbArc
 50
12.52259999999983
 51
167.4772949999996
  0
CIRCLE
  5
683
330
2
100
AcDbEntity
  8
0
100
AcDbCircle
 10
1060.915715569602
 20
268.1415947562573
 30
0.0
 40
46.0
  0
ARC
  5
684
330
2
100
AcDbEntity
  8
0
100
AcDbCircle
 10
1027.158299569602
 20
125.1415907562573
 30
0.0
 40
3.0
100
AcDbArc
 50
90.0
 51
134.9996949999997
  0
ARC
  5
685
330
2
100
AcDbEntity
  8
0
100
AcDbCircle
 10
1029.101323569602
 20
335.6415947562572
 30
0.0
 40
10.0
100
AcDbArc
 50
90.0
 51
125.3399960000002
  0
LINE
  5
686
330
2
100
AcDbEntity
  8
0
100
AcDbLine
 10
1150.915684569602
 20
123.1415907562572
 30
0.0
 11
970.9157155696022
 21
123.1415907562572
 31
0.0
  0
LINE
  5
687
330
2
100
AcDbEntity
  8
0
100
AcDbLine
 10
1150.915684569602
 20
103.1415907562572
 30
0.0
 11
970.9157155696022
 21
103.1415907562572
 31
0.0
  0
LINE
  5
688
330
2
100
AcDbEntity
  8
CENTER
100
AcDbLine
 10
1129.182988549342
 20
268.1415947562573
 30
0.0
 11
992.6484225528106
 21
268.1415947562573
 31
0.0
  0
LINE
  5
689
330
2
100
AcDbEntity
  8
CENTER
100
AcDbLine
 10
534.9579959526463
 20
585.1011412429595
 30
0.0
 11
67.95830514731824
 21
585.1011412429597
 31
0.0
  0
LINE
  5
68A
330
2
100
AcDbEntity
  8
0
100
AcDbLine
 10
387.1772381473178
 20
512.1013542429595
 30
0.0
 11
472.7381511473181
 21
512.1013542429595
 31
0.0
  0
LINE
  5
68B
330
2
100
AcDbEntity
  8
0
100
AcDbLine
 10
516.1021031473183
 20
533.1013542429594
 30
0.0
 11
343.814078147318
 21
533.1013542429595
 31
0.0
  0
LINE
  5
68C
330
2
100
AcDbEntity
  8
0
100
AcDbLine
 10
387.1772381473178
 20
658.1013852429596
 30
0.0
 11
472.7381511473181
 21
658.1013852429596
 31
0.0
  0
LINE
  5
68D
330
2
100
AcDbEntity
  8
0
100
AcDbLine
 10
516.1021031473183
 20
637.1013852429594
 30
0.0
 11
343.814078147318
 21
637.1013852429596
 31
0.0
  0
LINE
  5
68F
330
2
100
AcDbEntity
  8
0
100
AcDbLine
 10
498.8268041473181
 20
675.1009272429596
 30
0.0
 11
452.9576941473183
 21
675.1009882429595
 31
0.0
  0
ARC
  5
690
330
2
100
AcDbEntity
  8
0
100
AcDbCircle
 10
758.9568833380067
 20
340.8033377562572
 30
0.0
 40
4.0
100
AcDbArc
 50
0.0
 51
89.00035899999958
  0
LINE
  5
691
330
2
100
AcDbEntity
  8
0
100
AcDbLine
 10
745.9568833380067
 20
103.1415907562572
 30
0.0
 11
800.9568833380066
 21
103.1415907562572
 31
0.0
  0
LINE
  5
692
330
2
100
AcDbEntity
  8
CENTER
100
AcDbLine
 10
622.9568873380067
 20
268.1415947562573
 30
0.0
 11
865.9568833380067
 21
268.1415947562573
 31
0.0
  0
LINE
  5
693
330
2
100
AcDbEntity
  8
CENTER
100
AcDbLine
 10
624.9568833380067
 20
214.6415877562572
 30
0.0
 11
796.9568833380066
 21
214.6415877562572
 31
0.0
  0
ARC
  5
694
330
2
100
AcDbEntity
  8
0
100
AcDbCircle
 10
710.9568833380067
 20
214.6415877562572
 30
0.0
 40
71.0
100
AcDbArc
 50
173.9317930000003
 51
201.6309050000002
  0
LINE
  5
695
330
2
100
AcDbEntity
  8
0
100
AcDbLine
 10
644.9568873380067
 20
168.9216927562572
 30
0.0
 11
644.9568873380067
 21
272.2818687562572
 31
0.0
  0
LINE
  5
696
330
2
100
AcDbEntity
  8
0
100
AcDbLine
 10
658.9568873380066
 20
340.8029717562573
 30
0.0
 11
658.9568873380066
 21
103.1415907562572
 31
0.0
  0
LINE
  5
697
330
2
100
AcDbEntity
  8
CENTER
100
AcDbLine
 10
710.9568833380067
 20
88.14159075625724
 30
0.0
 11
710.9568833380067
 21
360.6416107562572
 31
0.0
  0
LINE
  5
699
330
2
100
AcDbEntity
  8
0
100
AcDbLine
 10
623.5654873380067
 20
123.4848297562572
 30
0.0
 11
656.3482873380068
 21
127.7983717562572
 31
0.0
  0
LINE
  5
69A
330
2
100
AcDbEntity
  8
0
100
AcDbLine
 10
623.9568873380068
 20
123.1415907562572
 30
0.0
 11
653.9568873380066
 21
123.1415907562572
 31
0.0
  0
LINE
  5
69B
330
2
100
AcDbEntity
  8
0
100
AcDbLine
 10
620.9568873380068
 20
103.1415907562572
 30
0.0
 11
675.9568873380067
 21
103.1415907562572
 31
0.0
  0
LINE
  5
69C
330
2
100
AcDbEntity
  8
0
100
AcDbLine
 10
620.9568873380068
 20
120.5104707562572
 30
0.0
 11
620.9568873380068
 21
103.1416107562572
 31
0.0
  0
LINE
  5
69D
330
2
100
AcDbEntity
  8
HIDS
100
AcDbLine
 10
633.4568873380068
 20
123.1415907562572
 30
0.0
 11
633.4568873380068
 21
103.1415907562572
 31
0.0
  0
ARC
  5
69E
330
2
100
AcDbEntity
  8
0
100
AcDbCircle
 10
623.9568873380068
 20
120.5104917562572
 30
0.0
 40
3.0
100
AcDbArc
 50
97.49629199999963
 51
180.0
  0
ARC
  5
69F
330
2
100
AcDbEntity
  8
0
100
AcDbCircle
 10
623.9568873380068
 20
120.1416107562572
 30
0.0
 40
3.0
100
AcDbArc
 50
90.0
 51
180.0
  0
LINE
  5
6A0
330
2
100
AcDbEntity
  8
HIDS
100
AcDbLine
 10
648.4568873380067
 20
123.1415907562572
 30
0.0
 11
648.4568873380067
 21
103.1415907562572
 31
0.0
  0
LINE
  5
6A1
330
2
100
AcDbEntity
  8
CENTER
100
AcDbLine
 10
640.9568873380067
 20
130.1415907562572
 30
0.0
 11
640.9568873380067
 21
96.14159075625728
 31
0.0
  0
LINE
  5
6A2
330
2
100
AcDbEntity
  8
0
100
AcDbLine
 10
677.4568873380067
 20
104.6415907562572
 30
0.0
 11
744.4568833380067
 21
104.6415907562572
 31
0.0
  0
LINE
  5
6A3
330
2
100
AcDbEntity
  8
0
100
AcDbLine
 10
675.9568873380067
 20
103.1415907562572
 30
0.0
 11
677.4568873380067
 21
104.6415907562572
 31
0.0
  0
LINE
  5
6A4
330
2
100
AcDbEntity
  8
0
100
AcDbLine
 10
745.9568833380067
 20
103.1415907562572
 30
0.0
 11
744.4568833380067
 21
104.6415907562572
 31
0.0
  0
LINE
  5
6A5
330
2
100
AcDbEntity
  8
0
100
AcDbLine
 10
657.9568873380067
 20
151.6415907562572
 30
0.0
 11
657.9568873380067
 21
157.8305907562572
 31
0.0
  0
ARC
  5
6A6
330
2
100
AcDbEntity
  8
0
100
AcDbCircle
 10
655.9568873380067
 20
130.7727287562572
 30
0.0
 40
3.0
100
AcDbArc
 50
277.4961169999997
 51
0.0
  0
ARC
  5
6A7
330
2
100
AcDbEntity
  8
0
100
AcDbCircle
 10
653.9568873380066
 20
128.1415907562573
 30
0.0
 40
5.0
100
AcDbArc
 50
270.0
 51
0.0
  0
ARC
  5
6A8
330
2
100
AcDbEntity
  8
0
100
AcDbCircle
 10
662.9568873380066
 20
151.6415907562572
 30
0.0
 40
5.0
100
AcDbArc
 50
180.0
 51
216.865204
  0
LINE
  5
6A9
330
2
100
AcDbEntity
  8
0
100
AcDbLine
 10
650.0338873380067
 20
162.1910337562573
 30
0.0
 11
653.8798883380068
 21
161.0921487562572
 31
0.0
  0
ARC
  5
6AA
330
2
100
AcDbEntity
  8
0
100
AcDbCircle
 10
651.9568873380067
 20
168.9217537562572
 30
0.0
 40
7.0
100
AcDbArc
 50
180.0
 51
254.0549009999996
  0
ARC
  5
6AB
330
2
100
AcDbEntity
  8
0
100
AcDbCircle
 10
651.9568873380067
 20
154.3614517562572
 30
0.0
 40
7.0
100
AcDbArc
 50
0.0
 51
74.05468800000033
  0
LINE
  5
6AC
330
2
100
AcDbEntity
  8
0
100
AcDbLine
 10
637.9568873380068
 20
227.4217007562572
 30
0.0
 11
637.9568873380068
 21
308.8614737562572
 31
0.0
  0
ARC
  5
6AD
330
2
100
AcDbEntity
  8
0
100
AcDbCircle
 10
644.9568873380067
 20
227.4217467562572
 30
0.0
 40
7.0
100
AcDbArc
 50
180.0
 51
240.0001980000002
  0
ARC
  5
6AE
330
2
100
AcDbEntity
  8
0
100
AcDbCircle
 10
637.9568873380068
 20
215.2973717562572
 30
0.0
 40
7.0
100
AcDbArc
 50
0.0
 51
60.00009199999957
  0
LINE
  5
6AF
330
2
100
AcDbEntity
  8
0
100
AcDbLine
 10
662.8870863380068
 20
344.8023767562572
 30
0.0
 11
710.9568833380067
 21
345.6416107562573
 31
0.0
  0
LINE
  5
6B0
330
2
100
AcDbEntity
  8
0
100
AcDbLine
 10
663.4014863380067
 20
306.6415947562572
 30
0.0
 11
759.1886803380067
 21
306.6415947562572
 31
0.0
  0
ARC
  5
6B1
330
2
100
AcDbEntity
  8
0
100
AcDbCircle
 10
651.9568873380067
 20
325.4216857562572
 30
0.0
 40
7.0
100
AcDbArc
 50
285.945557
 51
0.0
  0
LINE
  5
6B2
330
2
100
AcDbEntity
  8
0
100
AcDbLine
 10
643.0338873380068
 20
315.5921567562572
 30
0.0
 11
653.8798883380068
 21
318.6910337562573
 31
0.0
  0
ARC
  5
6B3
330
2
100
AcDbEntity
  8
0
100
AcDbCircle
 10
644.9568873380067
 20
308.8615047562572
 30
0.0
 40
7.0
100
AcDbArc
 50
105.9458009999998
 51
180.0
  0
ARC
  5
6B4
330
2
100
AcDbEntity
  8
0
100
AcDbCircle
 10
662.9568873380066
 20
340.8029867562572
 30
0.0
 40
4.0
100
AcDbArc
 50
91.00058000000009
 51
180.0
  0
LINE
  5
6B5
330
2
100
AcDbEntity
  8
0
100
AcDbLine
 10
759.0266923380068
 20
344.8027277562573
 30
0.0
 11
710.9568833380067
 21
345.6416107562573
 31
0.0
  0
LINE
  5
6B6
330
2
100
AcDbEntity
  8
0
100
AcDbLine
 10
975.9157155696023
 20
278.0679867562572
 30
0.0
 11
975.9157155696023
 21
193.2151877562572
 31
0.0
  0
LINE
  5
6B7
330
2
100
AcDbEntity
  8
0
100
AcDbLine
 10
970.9157155696022
 20
301.4735957562572
 30
0.0
 11
970.9157155696022
 21
103.1415907562572
 31
0.0
  0
ARC
  5
6B8
330
2
100
AcDbEntity
  8
0
100
AcDbCircle
 10
710.9568833380067
 20
214.6415877562572
 30
0.0
 40
71.0
100
AcDbArc
 50
338.36908
 51
6.068255999999881
  0
LINE
  5
6BA
330
2
100
AcDbEntity
  8
0
100
AcDbLine
 10
776.9568833380067
 20
168.9217077562572
 30
0.0
 11
776.9568833380067
 21
272.2818687562572
 31
0.0
  0
LINE
  5
6BC
330
2
100
AcDbEntity
  8
0
100
AcDbLine
 10
800.9568833380066
 20
120.5104707562572
 30
0.0
 11
800.9568833380066
 21
103.1415907562572
 31
0.0
  0
LINE
  5
6BD
330
2
100
AcDbEntity
  8
HIDS
100
AcDbLine
 10
788.4568833380066
 20
123.1415907562572
 30
0.0
 11
788.4568833380066
 21
103.1415907562572
 31
0.0
  0
LINE
  5
6BE
330
2
100
AcDbEntity
  8
HIDS
100
AcDbLine
 10
773.4568833380067
 20
123.1415907562572
 30
0.0
 11
773.4568833380067
 21
103.1415907562572
 31
0.0
  0
LINE
  5
6BF
330
2
100
AcDbEntity
  8
CENTER
100
AcDbLine
 10
780.9568833380067
 20
130.1415907562572
 30
0.0
 11
780.9568833380067
 21
96.14159075625725
 31
0.0
  0
LINE
  5
6C0
330
2
100
AcDbEntity
  8
0
100
AcDbLine
 10
763.9568833380067
 20
157.9670727562572
 30
0.0
 11
763.9568833380067
 21
151.6415907562572
 31
0.0
  0
LINE
  5
6C1
330
2
100
AcDbEntity
  8
0
100
AcDbLine
 10
798.3482873380068
 20
123.4848297562572
 30
0.0
 11
765.5654803380067
 21
127.7983527562572
 31
0.0
  0
LINE
  5
6C2
330
2
100
AcDbEntity
  8
0
100
AcDbLine
 10
767.9568833380066
 20
123.1415907562572
 30
0.0
 11
797.9568833380067
 21
123.1415907562572
 31
0.0
  0
ARC
  5
6C3
330
2
100
AcDbEntity
  8
0
100
AcDbCircle
 10
765.9568833380067
 20
130.7727287562572
 30
0.0
 40
3.0
100
AcDbArc
 50
180.0
 51
262.5043950000001
  0
ARC
  5
6C4
330
2
100
AcDbEntity
  8
0
100
AcDbCircle
 10
767.9568833380066
 20
128.1416107562572
 30
0.0
 40
5.0
100
AcDbArc
 50
180.0
 51
270.0
  0
ARC
  5
6C5
330
2
100
AcDbEntity
  8
0
100
AcDbCircle
 10
758.9568833380067
 20
151.6415907562572
 30
0.0
 40
5.0
100
AcDbArc
 50
323.1301309999996
 51
0.0
  0
ARC
  5
6C6
330
2
100
AcDbEntity
  8
0
100
AcDbCircle
 10
797.9568833380067
 20
120.5104517562572
 30
0.0
 40
3.0
100
AcDbArc
 50
0.0
 51
82.50420399999967
  0
ARC
  5
6C7
330
2
100
AcDbEntity
  8
0
100
AcDbCircle
 10
797.9568833380067
 20
120.1415907562572
 30
0.0
 40
3.0
100
AcDbArc
 50
0.0
 51
90.0
  0
ARC
  5
6C8
330
2
100
AcDbEntity
  8
0
100
AcDbCircle
 10
769.9568833380067
 20
168.9216927562572
 30
0.0
 40
7.0
100
AcDbArc
 50
285.945503
 51
0.0
  0
LINE
  5
6C9
330
2
100
AcDbEntity
  8
0
100
AcDbLine
 10
771.8798883380068
 20
162.1910337562573
 30
0.0
 11
768.0338953380068
 21
161.0921487562572
 31
0.0
  0
ARC
  5
6CA
330
2
100
AcDbEntity
  8
0
100
AcDbCircle
 10
769.9568833380067
 20
154.3615317562572
 30
0.0
 40
7.0
100
AcDbArc
 50
105.9458009999998
 51
180.0
  0
LINE
  5
6CB
330
2
100
AcDbEntity
  8
0
100
AcDbLine
 10
984.9157155696023
 20
120.4562717562572
 30
0.0
 11
984.9157155696023
 21
103.1415907562572
 31
0.0
  0
LINE
  5
6CC
330
2
100
AcDbEntity
  8
HIDS
100
AcDbLine
 10
993.4157155696023
 20
123.1415907562572
 30
0.0
 11
993.4157155696023
 21
103.1415907562572
 31
0.0
  0
LINE
  5
6CD
330
2
100
AcDbEntity
  8
HIDS
100
AcDbLine
 10
1008.415715569602
 20
123.1415907562572
 30
0.0
 11
1008.415715569602
 21
103.1415907562572
 31
0.0
  0
LINE
  5
6CE
330
2
100
AcDbEntity
  8
CENTER
100
AcDbLine
 10
1000.915715569602
 20
130.1415907562571
 30
0.0
 11
1000.915715569602
 21
96.14159075625725
 31
0.0
  0
ARC
  5
6CF
330
2
100
AcDbEntity
  8
0
100
AcDbCircle
 10
1025.915715569602
 20
193.2151877562572
 30
0.0
 40
50.0
100
AcDbArc
 50
180.0
 51
230.4792020000002
  0
ARC
  5
6D0
330
2
100
AcDbEntity
  8
0
100
AcDbCircle
 10
1018.844701569602
 20
128.1415907562573
 30
0.0
 40
5.0
100
AcDbArc
 50
270.0
 51
314.9998889999999
  0
ARC
  5
6D1
330
2
100
AcDbEntity
  8
0
100
AcDbCircle
 10
1024.915715569602
 20
124.1415907562572
 30
0.0
 40
1.0
100
AcDbArc
 50
270.0
 51
0.0
  0
LINE
  5
6D2
330
2
100
AcDbEntity
  8
0
100
AcDbLine
 10
1025.037114569602
 20
127.2629097562572
 30
0.0
 11
1022.380101569602
 21
124.6060307562572
 31
0.0
  0
LINE
  5
6D3
330
2
100
AcDbEntity
  8
0
100
AcDbLine
 10
1025.915715569602
 20
127.0047117562572
 30
0.0
 11
1025.915715569602
 21
124.1415907562572
 31
0.0
  0
LINE
  5
6D4
330
2
100
AcDbEntity
  8
0
100
AcDbLine
 10
783.9568833380067
 20
227.4217007562572
 30
0.0
 11
783.9568833380067
 21
308.8614737562572
 31
0.0
  0
LINE
  5
6D5
330
2
100
AcDbEntity
  8
0
100
AcDbLine
 10
796.9568833380066
 20
262.1415947562573
 30
0.0
 11
850.9568833380066
 21
262.1415947562573
 31
0.0
  0
LINE
  5
6D6
330
2
100
AcDbEntity
  8
0
100
AcDbLine
 10
796.9568833380066
 20
274.1415947562572
 30
0.0
 11
850.9568833380066
 21
274.1415947562572
 31
0.0
  0
LINE
  5
6D7
330
2
100
AcDbEntity
  8
0
100
AcDbLine
 10
785.9568833380067
 20
248.1415947562572
 30
0.0
 11
850.9568833380066
 21
248.1415947562572
 31
0.0
  0
LINE
  5
6D8
330
2
100
AcDbEntity
  8
0
100
AcDbLine
 10
785.9568833380067
 20
288.1415947562572
 30
0.0
 11
850.9568833380066
 21
288.1415947562572
 31
0.0
  0
LINE
  5
6D9
330
2
100
AcDbEntity
  8
0
100
AcDbLine
 10
785.9568833380067
 20
290.6415947562572
 30
0.0
 11
785.9568833380067
 21
245.6415947562573
 31
0.0
  0
ARC
  5
6DA
330
2
100
AcDbEntity
  8
0
100
AcDbCircle
 10
776.9568833380067
 20
227.4216857562572
 30
0.0
 40
7.0
100
AcDbArc
 50
300.0001179999995
 51
0.0
  0
ARC
  5
6DB
330
2
100
AcDbEntity
  8
0
100
AcDbCircle
 10
783.9568833380067
 20
215.2973337562572
 30
0.0
 40
7.0
100
AcDbArc
 50
120.000099
 51
180.0
  0
LINE
  5
6DC
330
2
100
AcDbEntity
  8
0
100
AcDbLine
 10
783.9568833380067
 20
245.6415947562573
 30
0.0
 11
785.9568833380067
 21
245.6415947562573
 31
0.0
  0
ARC
  5
6DD
330
2
100
AcDbEntity
  8
0
100
AcDbCircle
 10
796.9568833380066
 20
268.1415947562573
 30
0.0
 40
6.0
100
AcDbArc
 50
90.0
 51
270.0
  0
LINE
  5
6DE
330
2
100
AcDbEntity
  8
0
100
AcDbLine
 10
783.9568833380067
 20
290.6415947562572
 30
0.0
 11
785.9568833380067
 21
290.6415947562572
 31
0.0
  0
LINE
  5
6DF
330
2
100
AcDbEntity
  8
0
100
AcDbLine
 10
850.9568833380066
 20
248.1415947562572
 30
0.0
 11
850.9568833380066
 21
288.1415947562572
 31
0.0
  0
ARC
  5
6E0
330
2
100
AcDbEntity
  8
0
100
AcDbCircle
 10
769.9568833380067
 20
325.4217467562572
 30
0.0
 40
7.0
100
AcDbArc
 50
180.0
 51
254.0549009999996
  0
LINE
  5
6E1
330
2
100
AcDbEntity
  8
0
100
AcDbLine
 10
768.0338953380068
 20
318.6910337562573
 30
0.0
 11
778.8798883380068
 21
315.5921567562572
 31
0.0
  0
ARC
  5
6E2
330
2
100
AcDbEntity
  8
0
100
AcDbCircle
 10
776.9568833380067
 20
308.8614437562572
 30
0.0
 40
7.0
100
AcDbArc
 50
0.0
 51
74.05476400000004
  0
LINE
  5
6E3
330
2
100
AcDbEntity
  8
0
100
AcDbLine
 10
762.9568833380067
 20
103.1415907562572
 30
0.0
 11
762.9568833380067
 21
340.8033537562572
 31
0.0
  0
ARC
  5
6E4
330
2
100
AcDbEntity
  8
0
100
AcDbCircle
 10
1025.915715569602
 20
278.0679867562572
 30
0.0
 40
50.0
100
AcDbArc
 50
129.5216980000002
 51
180.0
  0
LINE
  5
6E5
330
2
100
AcDbEntity
  8
0
100
AcDbLine
 10
1014.057500569602
 20
278.5492637562572
 30
0.0
 11
997.7245225696021
 21
205.0137107562572
 31
0.0
  0
LINE
  5
6E6
330
2
100
AcDbEntity
  8
0
100
AcDbLine
 10
1010.152714569602
 20
279.4165887562572
 30
0.0
 11
993.8197075696022
 21
205.8810127562572
 31
0.0
  0
LINE
  5
6E7
330
2
100
AcDbEntity
  8
0
100
AcDbLine
 10
1023.317113569602
 20
343.7989287562572
 30
0.0
 11
975.1313225696021
 21
309.6309137562572
 31
0.0
  0
ARC
  5
6E8
330
2
100
AcDbEntity
  8
0
100
AcDbCircle
 10
980.9157155696023
 20
301.4735497562572
 30
0.0
 40
10.0
100
AcDbArc
 50
125.3398969999999
 51
180.0
  0
TEXT
  5
6E9
330
2
100
AcDbEntity
  8
TITLE
100
AcDbText
 10
619.6986851151822
 20
603.8059261976091
 30
0.0
 40
10.0
  1
HLMN-40L-1200~1800-T90K
100
AcDbText
  0
LINE
  5
6EA
330
2
100
AcDbEntity
  8
0
100
AcDbLine
 10
464.9579081473182
 20
538.1013542429594
 30
0.0
 11
464.9579081473182
 21
632.1013852429596
 31
0.0
  0
LINE
  5
6EB
330
2
100
AcDbEntity
  8
0
100
AcDbLine
 10
519.957999147318
 20
585.1009582429594
 30
0.0
 11
519.0502241473182
 21
637.1009272429595
 31
0.0
  0
ARC
  5
6EC
330
2
100
AcDbEntity
  8
0
100
AcDbCircle
 10
504.957816147318
 20
644.1013852429596
 30
0.0
 40
7.0
100
AcDbArc
 50
180.0
 51
270.0
  0
LINE
  5
6ED
330
2
100
AcDbEntity
  8
0
100
AcDbLine
 10
508.2812111473181
 20
668.3583122429595
 30
0.0
 11
519.0502241473182
 21
637.1009272429595
 31
0.0
  0
ARC
  5
6EE
330
2
100
AcDbEntity
  8
0
100
AcDbCircle
 10
490.957816147318
 20
644.1013852429596
 30
0.0
 40
7.0
100
AcDbArc
 50
0.0
 51
90.0
  0
ARC
  5
6EF
330
2
100
AcDbEntity
  8
0
100
AcDbCircle
 10
489.9579991473179
 20
655.1017512429597
 30
0.0
 40
7.5
100
AcDbArc
 50
313.9251100000002
 51
212.2267989999999
  0
ARC
  5
6F1
330
2
100
AcDbEntity
  8
0
100
AcDbCircle
 10
498.8268041473179
 20
665.1009272429596
 30
0.0
 40
10.0
100
AcDbArc
 50
19.01089499999994
 51
90.0
  0
LINE
  5
6F3
330
2
100
AcDbEntity
  8
0
100
AcDbLine
 10
478.0529401473181
 20
655.6569272429595
 30
0.0
 11
481.9576941473183
 21
651.1013852429596
 31
0.0
  0
LINE
  5
6F4
330
2
100
AcDbEntity
  8
0
100
AcDbLine
 10
490.9578161473182
 20
651.1013852429596
 30
0.0
 11
481.9576941473183
 21
651.1013852429596
 31
0.0
  0
ARC
  5
6F5
330
2
100
AcDbEntity
  8
0
100
AcDbCircle
 10
472.7381511473181
 20
651.1013852429596
 30
0.0
 40
7.0
100
AcDbArc
 50
40.60128800000004
 51
90.0
  0
ARC
  5
6F6
330
2
100
AcDbEntity
  8
0
100
AcDbCircle
 10
516.1021031473181
 20
634.1013852429596
 30
0.0
 40
3.0
100
AcDbArc
 50
1.000152999999786
 51
90.0
  0
LINE
  5
6F8
330
2
100
AcDbEntity
  8
0
100
AcDbLine
 10
519.957999147318
 20
585.1009582429594
 30
0.0
 11
519.0500101473181
 21
533.1009272429594
 31
0.0
  0
ARC
  5
6F9
330
2
100
AcDbEntity
  8
0
100
AcDbCircle
 10
490.957816147318
 20
526.1013542429594
 30
0.0
 40
7.0
100
AcDbArc
 50
270.0
 51
0.0
  0
ARC
  5
6FA
330
2
100
AcDbEntity
  8
0
100
AcDbCircle
 10
489.9579991473179
 20
515.1018432429597
 30
0.0
 40
7.5
100
AcDbArc
 50
147.773201
 51
46.0748899999997
  0
LINE
  5
6FC
330
2
100
AcDbEntity
  8
0
100
AcDbLine
 10
508.2808263512538
 20
501.8435166647183
 30
0.0
 11
519.0500101473181
 21
533.1009272429594
 31
0.0
  0
ARC
  5
6FD
330
2
100
AcDbEntity
  8
0
100
AcDbCircle
 10
516.1021031473181
 20
536.1013542429595
 30
0.0
 40
3.0
100
AcDbArc
 50
270.0
 51
358.9998470000002
  0
ARC
  5
6FE
330
2
100
AcDbEntity
  8
0
100
AcDbCircle
 10
504.957816147318
 20
526.1013542429594
 30
0.0
 40
7.0
100
AcDbArc
 50
90.0
 51
180.0
  0
LINE
  5
6FF
330
2
100
AcDbEntity
  8
0
100
AcDbLine
 10
478.0529401473181
 20
514.5457512429596
 30
0.0
 11
481.9576941473183
 21
519.1012932429597
 31
0.0
  0
LINE
  5
701
330
2
100
AcDbEntity
  8
0
100
AcDbLine
 10
490.9578161473182
 20
519.1013542429594
 30
0.0
 11
481.9576941473183
 21
519.1012932429597
 31
0.0
  0
ARC
  5
702
330
2
100
AcDbEntity
  8
0
100
AcDbCircle
 10
472.7381511473181
 20
519.1012932429597
 30
0.0
 40
7.0
100
AcDbArc
 50
270.0
 51
319.398712
  0
LINE
  5
703
330
2
100
AcDbEntity
  8
CENTER
100
AcDbLine
 10
1422.915684569602
 20
199.6415877562572
 30
0.0
 11
1117.425694569602
 21
199.6415877562572
 31
0.0
  0
LINE
  5
704
330
2
100
AcDbEntity
  8
0
100
AcDbLine
 10
1350.415684569602
 20
157.0182277562572
 30
0.0
 11
1231.753941569602
 21
157.0182277562572
 31
0.0
  0
LINE
  5
705
330
2
100
AcDbEntity
  8
0
100
AcDbLine
 10
1350.415684569602
 20
242.2649317562572
 30
0.0
 11
1231.753941569602
 21
242.2649317562572
 31
0.0
  0
LINE
  5
706
330
2
100
AcDbEntity
  8
0
100
AcDbLine
 10
1350.415684569602
 20
146.6415907562573
 30
0.0
 11
1220.415684569602
 21
146.6415907562573
 31
0.0
  0
LINE
  5
707
330
2
100
AcDbEntity
  8
0
100
AcDbLine
 10
1350.415684569602
 20
252.6415947562572
 30
0.0
 11
1220.415684569602
 21
252.6415947562572
 31
0.0
  0
LINE
  5
708
330
2
100
AcDbEntity
  8
0
100
AcDbLine
 10
1145.915684569602
 20
278.0680167562572
 30
0.0
 11
1145.915684569602
 21
193.2151877562572
 31
0.0
  0
ARC
  5
709
330
2
100
AcDbEntity
  8
0
100
AcDbCircle
 10
941.2341055696021
 20
214.6415877562572
 30
0.0
 40
215.181595
100
AcDbArc
 50
347.0178999999996
 51
12.98210000000033
  0
ARC
  5
70A
330
2
100
AcDbEntity
  8
0
100
AcDbCircle
 10
1090.915715569602
 20
197.6415877562572
 30
0.0
 40
38.0
100
AcDbArc
 50
270.0
 51
12.52259999999983
  0
ARC
  5
70B
330
2
100
AcDbEntity
  8
0
100
AcDbCircle
 10
1090.915715569602
 20
197.6415877562572
 30
0.0
 40
34.0
100
AcDbArc
 50
270.0
 51
12.52259999999983
  0
LINE
  5
70C
330
2
100
AcDbEntity
  8
0
100
AcDbLine
 10
1150.915684569602
 20
301.4735957562572
 30
0.0
 11
1150.915684569602
 21
103.1415907562572
 31
0.0
  0
LINE
  5
70D
330
2
100
AcDbEntity
  8
CENTER
100
AcDbLine
 10
1060.915715569602
 20
360.6415947562572
 30
0.0
 11
1060.915715569602
 21
88.14159075625724
 31
0.0
  0
LINE
  5
70E
330
2
100
AcDbEntity
  8
0
100
AcDbLine
 10
1220.415684569602
 20
252.6415947562572
 30
0.0
 11
1220.415684569602
 21
146.6415907562573
 31
0.0
  0
LINE
  5
70F
330
2
100
AcDbEntity
  8
0
100
AcDbLine
 10
1172.915684569602
 20
169.3975917562572
 30
0.0
 11
1172.915684569602
 21
283.6415947562572
 31
0.0
  0
LINE
  5
710
330
2
100
AcDbEntity
  8
0
100
AcDbLine
 10
1230.415684569602
 20
250.6415947562572
 30
0.0
 11
1230.415684569602
 21
148.6415717562572
 31
0.0
  0
LINE
  5
711
330
2
100
AcDbEntity
  8
0
100
AcDbLine
 10
1163.915684569602
 20
143.6415907562573
 30
0.0
 11
1163.915684569602
 21
285.6415947562572
 31
0.0
  0
ARC
  5
712
330
2
100
AcDbEntity
  8
0
100
AcDbCircle
 10
1155.915684569602
 20
138.6415717562572
 30
0.0
 40
5.0
100
AcDbArc
 50
90.0
 51
180.0
  0
LINE
  5
713
330
2
100
AcDbEntity
  8
0
100
AcDbLine
 10
1136.915715569602
 20
120.4562717562572
 30
0.0
 11
1136.915715569602
 21
103.1415907562572
 31
0.0
  0
LINE
  5
714
330
2
100
AcDbEntity
  8
HIDS
100
AcDbLine
 10
1128.415715569601
 20
123.1415907562572
 30
0.0
 11
1128.415715569601
 21
103.1415907562572
 31
0.0
  0
LINE
  5
715
330
2
100
AcDbEntity
  8
HIDS
100
AcDbLine
 10
1113.415715569602
 20
123.1415907562572
 30
0.0
 11
1113.415715569602
 21
103.1415907562572
 31
0.0
  0
LINE
  5
716
330
2
100
AcDbEntity
  8
CENTER
100
AcDbLine
 10
1120.915715569602
 20
130.1415907562572
 30
0.0
 11
1120.915715569602
 21
96.14159075625725
 31
0.0
  0
LINE
  5
717
330
2
100
AcDbEntity
  8
0
100
AcDbLine
 10
1090.915715569602
 20
159.6415877562572
 30
0.0
 11
1030.915715569602
 21
159.6415877562572
 31
0.0
  0
LINE
  5
718
330
2
100
AcDbEntity
  8
0
100
AcDbLine
 10
1090.915715569602
 20
163.6415877562572
 30
0.0
 11
1030.915715569602
 21
163.6415877562572
 31
0.0
  0
LINE
  5
719
330
2
100
AcDbEntity
  8
0
100
AcDbLine
 10
1027.158299569602
 20
128.1415907562573
 30
0.0
 11
1094.673100569602
 21
128.1415907562573
 31
0.0
  0
LINE
  5
71A
330
2
100
AcDbEntity
  8
0
100
AcDbLine
 10
1059.987920569602
 20
194.1474547562572
 30
0.0
 11
1057.730504569602
 21
194.1474547562572
 31
0.0
  0
LINE
  5
71B
330
2
100
AcDbEntity
  8
0
100
AcDbLine
 10
1056.165715569602
 20
195.8915877562572
 30
0.0
 11
1065.665715569602
 21
195.8915877562572
 31
0.0
  0
LINE
  5
71C
330
2
100
AcDbEntity
  8
0
100
AcDbLine
 10
1041.915715569602
 20
183.4907087562572
 30
0.0
 11
1043.748295569602
 21
181.6415877562572
 31
0.0
  0
LINE
  5
71D
330
2
100
AcDbEntity
  8
0
100
AcDbLine
 10
1043.640294569602
 20
195.8915877562572
 30
0.0
 11
1041.915715569602
 21
193.6831297562572
 31
0.0
  0
LINE
  5
71E
330
2
100
AcDbEntity
  8
0
100
AcDbLine
 10
1041.915715569602
 20
193.6831297562572
 30
0.0
 11
1041.915715569602
 21
183.4907087562572
 31
0.0
  0
LINE
  5
71F
330
2
100
AcDbEntity
  8
0
100
AcDbLine
 10
1043.511296569602
 20
192.6690077562572
 30
0.0
 11
1043.511296569602
 21
184.4594277562572
 31
0.0
  0
LINE
  5
720
330
2
100
AcDbEntity
  8
0
100
AcDbLine
 10
1050.042699569602
 20
181.6415877562572
 30
0.0
 11
1051.415715569602
 21
181.6415877562572
 31
0.0
  0
ARC
  5
721
330
2
100
AcDbEntity
  8
0
100
AcDbCircle
 10
1047.073918569602
 20
186.2802517562572
 30
0.0
 40
2.96875
100
AcDbArc
 50
270.0002139999998
 51
0.0001089999998967
  0
LINE
  5
722
330
2
100
AcDbEntity
  8
0
100
AcDbLine
 10
1047.556309569602
 20
189.9169937562572
 30
0.0
 11
1051.415715569602
 21
189.9169937562572
 31
0.0
  0
LINE
  5
723
330
2
100
AcDbEntity
  8
0
100
AcDbLine
 10
1050.042699569602
 20
182.7775127562572
 30
0.0
 11
1048.688695569602
 21
181.6415877562572
 31
0.0
  0
LINE
  5
724
330
2
100
AcDbEntity
  8
0
100
AcDbLine
 10
1047.556309569602
 20
189.9169937562572
 30
0.0
 11
1047.556309569602
 21
188.3583917562572
 31
0.0
  0
LINE
  5
725
330
2
100
AcDbEntity
  8
0
100
AcDbLine
 10
1050.042699569602
 20
188.3583917562572
 30
0.0
 11
1050.042699569602
 21
186.2802517562572
 31
0.0
  0
LINE
  5
726
330
2
100
AcDbEntity
  8
0
100
AcDbLine
 10
1050.042699569602
 20
182.7775127562572
 30
0.0
 11
1050.042699569602
 21
181.6415877562572
 31
0.0
  0
LINE
  5
727
330
2
100
AcDbEntity
  8
0
100
AcDbLine
 10
1050.042699569602
 20
186.8740097562572
 30
0.0
 11
1050.042699569602
 21
188.0615097562572
 31
0.0
  0
LINE
  5
728
330
2
100
AcDbEntity
  8
0
100
AcDbLine
 10
1047.073918569602
 20
183.3115097562572
 30
0.0
 11
1044.601109569602
 21
183.3115097562572
 31
0.0
  0
LINE
  5
729
330
2
100
AcDbEntity
  8
0
100
AcDbLine
 10
1050.042699569602
 20
188.3583917562572
 30
0.0
 11
1047.556309569602
 21
188.3583917562572
 31
0.0
  0
LINE
  5
72A
330
2
100
AcDbEntity
  8
0
100
AcDbLine
 10
1043.511296569602
 20
184.4594277562572
 30
0.0
 11
1044.601109569602
 21
183.3115097562572
 31
0.0
  0
LINE
  5
72B
330
2
100
AcDbEntity
  8
0
100
AcDbLine
 10
1048.688695569602
 20
181.6415877562572
 30
0.0
 11
1043.748295569602
 21
181.6415877562572
 31
0.0
  0
LINE
  5
72C
330
2
100
AcDbEntity
  8
0
100
AcDbLine
 10
1051.415715569602
 20
189.9169937562572
 30
0.0
 11
1051.415715569602
 21
181.6415877562572
 31
0.0
  0
LINE
  5
72D
330
2
100
AcDbEntity
  8
0
100
AcDbLine
 10
1050.042699569602
 20
192.9228297562572
 30
0.0
 11
1051.415715569602
 21
192.9228297562572
 31
0.0
  0
LINE
  5
72E
330
2
100
AcDbEntity
  8
0
100
AcDbLine
 10
1050.028294569602
 20
195.8915877562572
 30
0.0
 11
1051.415715569602
 21
194.3520137562573
 31
0.0
  0
LINE
  5
72F
330
2
100
AcDbEntity
  8
0
100
AcDbLine
 10
1050.042699569602
 20
193.1474547562572
 30
0.0
 11
1050.042699569602
 21
192.9228297562572
 31
0.0
  0
LINE
  5
730
330
2
100
AcDbEntity
  8
0
100
AcDbLine
 10
1043.640294569602
 20
195.8915877562572
 30
0.0
 11
1050.028294569602
 21
195.8915877562572
 31
0.0
  0
LINE
  5
731
330
2
100
AcDbEntity
  8
0
100
AcDbLine
 10
1050.042699569602
 20
193.1474547562572
 30
0.0
 11
1049.143712569602
 21
193.9990097562572
 31
0.0
  0
LINE
  5
732
330
2
100
AcDbEntity
  8
0
100
AcDbLine
 10
1044.583897569602
 20
193.9990097562572
 30
0.0
 11
1043.511296569602
 21
192.6690077562572
 31
0.0
  0
LINE
  5
733
330
2
100
AcDbEntity
  8
0
100
AcDbLine
 10
1049.161717569602
 20
193.9990097562572
 30
0.0
 11
1044.583897569602
 21
193.9990097562572
 31
0.0
  0
LINE
  5
734
330
2
100
AcDbEntity
  8
0
100
AcDbLine
 10
1057.730504569602
 20
194.1474547562572
 30
0.0
 11
1057.220311569602
 21
192.9228297562572
 31
0.0
  0
LINE
  5
735
330
2
100
AcDbEntity
  8
0
100
AcDbLine
 10
1056.165715569602
 20
192.9228297562572
 30
0.0
 11
1057.220311569602
 21
192.9228297562572
 31
0.0
  0
LINE
  5
736
330
2
100
AcDbEntity
  8
0
100
AcDbLine
 10
1051.415715569602
 20
194.3520137562573
 30
0.0
 11
1051.415715569602
 21
192.9228297562572
 31
0.0
  0
LINE
  5
737
330
2
100
AcDbEntity
  8
0
100
AcDbLine
 10
1056.165715569602
 20
192.9228297562572
 30
0.0
 11
1056.165715569602
 21
195.8915877562572
 31
0.0
  0
LINE
  5
738
330
2
100
AcDbEntity
  8
0
100
AcDbLine
 10
1072.753697569602
 20
194.1474547562572
 30
0.0
 11
1077.186711569602
 21
194.1445707562572
 31
0.0
  0
LINE
  5
739
330
2
100
AcDbEntity
  8
0
100
AcDbLine
 10
1072.753697569602
 20
188.3027277562572
 30
0.0
 11
1075.794316569602
 21
188.3027277562572
 31
0.0
  0
LINE
  5
73A
330
2
100
AcDbEntity
  8
0
100
AcDbLine
 10
1076.411503569602
 20
189.7867517562572
 30
0.0
 11
1072.753697569602
 21
189.7867517562572
 31
0.0
  0
LINE
  5
73B
330
2
100
AcDbEntity
  8
0
100
AcDbLine
 10
1070.415715569602
 20
195.8915877562572
 30
0.0
 11
1076.111912569602
 21
195.8915877562572
 31
0.0
  0
LINE
  5
73C
330
2
100
AcDbEntity
  8
0
100
AcDbLine
 10
1072.753697569602
 20
194.1474547562572
 30
0.0
 11
1072.753697569602
 21
189.7867517562572
 31
0.0
  0
LINE
  5
73D
330
2
100
AcDbEntity
  8
0
100
AcDbLine
 10
1071.120701569602
 20
194.1474547562572
 30
0.0
 11
1071.120701569602
 21
183.1259697562573
 31
0.0
  0
LINE
  5
73E
330
2
100
AcDbEntity
  8
0
100
AcDbLine
 10
1061.769322569602
 20
194.1474547562572
 30
0.0
 11
1061.769322569602
 21
183.2001887562572
 31
0.0
  0
LINE
  5
73F
330
2
100
AcDbEntity
  8
0
100
AcDbLine
 10
1059.987920569602
 20
194.1474547562572
 30
0.0
 11
1059.987920569602
 21
183.2001887562572
 31
0.0
  0
LINE
  5
740
330
2
100
AcDbEntity
  8
0
100
AcDbLine
 10
1059.282902569602
 20
183.2001887562572
 30
0.0
 11
1059.987920569602
 21
183.2001887562572
 31
0.0
  0
LINE
  5
741
330
2
100
AcDbEntity
  8
0
100
AcDbLine
 10
1059.282902569602
 20
181.6415877562572
 30
0.0
 11
1062.362920569602
 21
181.6415877562572
 31
0.0
  0
LINE
  5
742
330
2
100
AcDbEntity
  8
0
100
AcDbLine
 10
1062.362920569602
 20
183.2001887562572
 30
0.0
 11
1062.362920569602
 21
181.6415877562572
 31
0.0
  0
LINE
  5
743
330
2
100
AcDbEntity
  8
0
100
AcDbLine
 10
1059.282902569602
 20
183.2001887562572
 30
0.0
 11
1059.282902569602
 21
181.6415877562572
 31
0.0
  0
LINE
  5
744
330
2
100
AcDbEntity
  8
0
100
AcDbLine
 10
1061.769322569602
 20
183.2001887562572
 30
0.0
 11
1062.362920569602
 21
183.2001887562572
 31
0.0
  0
LINE
  5
745
330
2
100
AcDbEntity
  8
0
100
AcDbLine
 10
1070.415715569602
 20
183.1259697562573
 30
0.0
 11
1070.415715569602
 21
181.6415877562572
 31
0.0
  0
LINE
  5
746
330
2
100
AcDbEntity
  8
0
100
AcDbLine
 10
1073.403111569602
 20
183.1259697562573
 30
0.0
 11
1073.403111569602
 21
181.6415877562572
 31
0.0
  0
LINE
  5
747
330
2
100
AcDbEntity
  8
0
100
AcDbLine
 10
1073.403111569602
 20
181.6415877562572
 30
0.0
 11
1070.415715569602
 21
181.6415877562572
 31
0.0
  0
LINE
  5
748
330
2
100
AcDbEntity
  8
0
100
AcDbLine
 10
1072.753697569602
 20
183.1259697562573
 30
0.0
 11
1073.403111569602
 21
183.1259697562573
 31
0.0
  0
LINE
  5
749
330
2
100
AcDbEntity
  8
0
100
AcDbLine
 10
1070.415715569602
 20
183.1259697562573
 30
0.0
 11
1071.120701569602
 21
183.1259697562573
 31
0.0
  0
LINE
  5
74A
330
2
100
AcDbEntity
  8
0
100
AcDbLine
 10
1072.753697569602
 20
188.3027277562572
 30
0.0
 11
1072.753697569602
 21
183.1259697562573
 31
0.0
  0
LINE
  5
74B
330
2
100
AcDbEntity
  8
0
100
AcDbLine
 10
1061.769322569602
 20
194.1474547562572
 30
0.0
 11
1064.244511569602
 21
194.1474547562572
 31
0.0
  0
LINE
  5
74C
330
2
100
AcDbEntity
  8
0
100
AcDbLine
 10
1064.244511569602
 20
194.1474547562572
 30
0.0
 11
1064.674718569602
 21
192.9228297562572
 31
0.0
  0
LINE
  5
74D
330
2
100
AcDbEntity
  8
0
100
AcDbLine
 10
1064.674718569602
 20
192.9228297562572
 30
0.0
 11
1065.665715569602
 21
192.9228297562572
 31
0.0
  0
LINE
  5
74E
330
2
100
AcDbEntity
  8
0
100
AcDbLine
 10
1065.665715569602
 20
192.9228297562572
 30
0.0
 11
1065.665715569602
 21
195.8915877562572
 31
0.0
  0
LINE
  5
74F
330
2
100
AcDbEntity
  8
0
100
AcDbLine
 10
1070.415715569602
 20
194.1474547562572
 30
0.0
 11
1071.120701569602
 21
194.1474547562572
 31
0.0
  0
LINE
  5
750
330
2
100
AcDbEntity
  8
0
100
AcDbLine
 10
1070.415715569602
 20
195.8915877562572
 30
0.0
 11
1070.415715569602
 21
194.1474547562572
 31
0.0
  0
ARC
  5
751
330
2
100
AcDbEntity
  8
0
100
AcDbCircle
 10
1076.111912569602
 20
192.0878687562572
 30
0.0
 40
2.320524
100
AcDbArc
 50
277.4147260000004
 51
62.41184999999949
  0
ARC
  5
752
330
2
100
AcDbEntity
  8
0
100
AcDbCircle
 10
1076.111912569602
 20
192.0878687562572
 30
0.0
 40
3.803712
100
AcDbArc
 50
286.0181269999995
 51
90.00350999999964
  0
LINE
  5
753
330
2
100
AcDbEntity
  8
0
100
AcDbLine
 10
1077.726323569602
 20
183.1259697562573
 30
0.0
 11
1077.726323569602
 21
181.6415877562572
 31
0.0
  0
LINE
  5
754
330
2
100
AcDbEntity
  8
0
100
AcDbLine
 10
1079.915715569602
 20
183.1259697562573
 30
0.0
 11
1079.915715569602
 21
181.6415877562572
 31
0.0
  0
LINE
  5
755
330
2
100
AcDbEntity
  8
0
100
AcDbLine
 10
1077.726323569602
 20
181.6415877562572
 30
0.0
 11
1079.915715569602
 21
181.6415877562572
 31
0.0
  0
LINE
  5
756
330
2
100
AcDbEntity
  8
0
100
AcDbLine
 10
1079.515904569602
 20
183.1259697562573
 30
0.0
 11
1079.915715569602
 21
183.1259697562573
 31
0.0
  0
LINE
  5
757
330
2
100
AcDbEntity
  8
0
100
AcDbLine
 10
1077.726323569602
 20
183.1259697562573
 30
0.0
 11
1078.022099569602
 21
183.1259697562573
 31
0.0
  0
LINE
  5
758
330
2
100
AcDbEntity
  8
0
100
AcDbLine
 10
1075.794316569602
 20
188.3027277562572
 30
0.0
 11
1078.022099569602
 21
183.1259697562573
 31
0.0
  0
LINE
  5
759
330
2
100
AcDbEntity
  8
0
100
AcDbLine
 10
1077.161503569602
 20
188.4318477562572
 30
0.0
 11
1079.515904569602
 21
183.1259697562573
 31
0.0
  0
ARC
  5
75A
330
2
100
AcDbEntity
  8
0
100
AcDbCircle
 10
1095.915715569602
 20
193.2151877562572
 30
0.0
 40
50.0
100
AcDbArc
 50
309.5214499999998
 51
0.0
  0
LINE
  5
75B
330
2
100
AcDbEntity
  8
0
100
AcDbLine
 10
1096.794316569602
 20
127.2629097562572
 30
0.0
 11
1099.451298569602
 21
124.6060917562572
 31
0.0
  0
ARC
  5
75C
330
2
100
AcDbEntity
  8
0
100
AcDbCircle
 10
1096.915715569602
 20
124.1415907562572
 30
0.0
 40
1.0
100
AcDbArc
 50
180.0
 51
270.0
  0
ARC
  5
75D
330
2
100
AcDbEntity
  8
0
100
AcDbCircle
 10
1094.673100569602
 20
125.1415907562573
 30
0.0
 40
3.0
100
AcDbArc
 50
44.99959899999963
 51
90.0
  0
LINE
  5
75E
330
2
100
AcDbEntity
  8
0
100
AcDbLine
 10
1095.915715569602
 20
127.0047117562572
 30
0.0
 11
1095.915715569602
 21
124.1415907562572
 31
0.0
  0
ARC
  5
75F
330
2
100
AcDbEntity
  8
0
100
AcDbCircle
 10
1102.986699569602
 20
128.1415907562573
 30
0.0
 40
5.0
100
AcDbArc
 50
224.9998930000002
 51
270.0
  0
LINE
  5
760
330
2
100
AcDbEntity
  8
0
100
AcDbLine
 10
1191.915684569602
 20
146.6415907562573
 30
0.0
 11
1220.415684569602
 21
146.6415907562573
 31
0.0
  0
LINE
  5
761
330
2
100
AcDbEntity
  8
0
100
AcDbLine
 10
1191.915684569602
 20
148.6415907562573
 30
0.0
 11
1191.915684569602
 21
165.3975917562572
 31
0.0
  0
LINE
  5
762
330
2
100
AcDbEntity
  8
0
100
AcDbLine
 10
1191.915684569602
 20
146.6415907562573
 30
0.0
 11
1174.788670569602
 21
146.6415907562573
 31
0.0
  0
LINE
  5
763
330
2
100
AcDbEntity
  8
0
100
AcDbLine
 10
1170.915684569602
 20
143.6416107562572
 30
0.0
 11
1163.915684569602
 21
143.6416107562572
 31
0.0
  0
LINE
  5
764
330
2
100
AcDbEntity
  8
0
100
AcDbLine
 10
1163.915684569602
 20
143.6415907562573
 30
0.0
 11
1155.915684569602
 21
143.6415907562573
 31
0.0
  0
ARC
  5
765
330
2
100
AcDbEntity
  8
0
100
AcDbCircle
 10
1174.788670569602
 20
144.6415907562573
 30
0.0
 40
2.0
100
AcDbArc
 50
90.0
 51
165.5227199999997
  0
ARC
  5
766
330
2
100
AcDbEntity
  8
0
100
AcDbCircle
 10
1170.915684569602
 20
145.6415907562573
 30
0.0
 40
2.0
100
AcDbArc
 50
270.0
 51
345.5222999999999
  0
ARC
  5
767
330
2
100
AcDbEntity
  8
0
100
AcDbCircle
 10
1193.915684569602
 20
148.6415907562573
 30
0.0
 40
2.0
100
AcDbArc
 50
180.0
 51
270.0
  0
LINE
  5
768
330
2
100
AcDbEntity
  8
0
100
AcDbLine
 10
1174.915684569602
 20
167.3975917562572
 30
0.0
 11
1189.915684569602
 21
167.3975917562572
 31
0.0
  0
ARC
  5
769
330
2
100
AcDbEntity
  8
0
100
AcDbCircle
 10
1174.915684569602
 20
169.3975917562572
 30
0.0
 40
2.0
100
AcDbArc
 50
180.0
 51
270.0
  0
ARC
  5
76A
330
2
100
AcDbEntity
  8
0
100
AcDbCircle
 10
1189.915684569602
 20
165.3976067562572
 30
0.0
 40
2.0
100
AcDbArc
 50
0.0
 51
90.0
  0
ARC
  5
76B
330
2
100
AcDbEntity
  8
0
100
AcDbCircle
 10
1228.415684569602
 20
148.6415907562573
 30
0.0
 40
2.0
100
AcDbArc
 50
270.0
 51
0.0
  0
ARC
  5
76C
330
2
100
AcDbEntity
  8
0
100
AcDbCircle
 10
1155.915684569602
 20
290.6415947562572
 30
0.0
 40
5.0
100
AcDbArc
 50
180.0
 51
270.0
  0
LINE
  5
76D
330
2
100
AcDbEntity
  8
CENTER
100
AcDbLine
 10
1197.976589858238
 20
214.6415877562572
 30
0.0
 11
1117.425694569602
 21
214.6415877562572
 31
0.0
  0
ARC
  5
76E
330
2
100
AcDbEntity
  8
0
100
AcDbCircle
 10
1095.915715569602
 20
278.0680167562572
 30
0.0
 40
50.0
100
AcDbArc
 50
0.0
 51
51.15058900000034
  0
ARC
  5
76F
330
2
100
AcDbEntity
  8
0
100
AcDbCircle
 10
1060.915715569602
 20
268.1415947562573
 30
0.0
 40
20.0
100
AcDbArc
 50
197.457596
 51
162.5424039999999
  0
LINE
  5
770
330
2
100
AcDbEntity
  8
0
100
AcDbLine
 10
1037.915715569602
 20
262.1415947562573
 30
0.0
 11
1045.915715569602
 21
262.1415947562573
 31
0.0
  0
LINE
  5
771
330
2
100
AcDbEntity
  8
0
100
AcDbLine
 10
1037.915715569602
 20
274.1415947562572
 30
0.0
 11
1045.915715569602
 21
274.1415947562572
 31
0.0
  0
LINE
  5
772
330
2
100
AcDbEntity
  8
0
100
AcDbLine
 10
1037.915715569602
 20
274.1415947562572
 30
0.0
 11
1037.915715569602
 21
262.1415947562573
 31
0.0
  0
LINE
  5
773
330
2
100
AcDbEntity
  8
0
100
AcDbLine
 10
1045.915715569602
 20
274.1415947562572
 30
0.0
 11
1045.915715569602
 21
262.1415947562573
 31
0.0
  0
LINE
  5
774
330
2
100
AcDbEntity
  8
0
100
AcDbLine
 10
1124.106908569602
 20
205.0136577562572
 30
0.0
 11
1107.773717569602
 21
278.5492187562572
 31
0.0
  0
LINE
  5
775
330
2
100
AcDbEntity
  8
0
100
AcDbLine
 10
1128.011723569602
 20
205.8809517562572
 30
0.0
 11
1111.678715569602
 21
279.4164977562572
 31
0.0
  0
LINE
  5
776
330
2
100
AcDbEntity
  8
0
100
AcDbLine
 10
1092.730107569602
 20
345.6415947562572
 30
0.0
 11
1029.101323569602
 21
345.6415947562572
 31
0.0
  0
LINE
  5
777
330
2
100
AcDbEntity
  8
0
100
AcDbLine
 10
1146.699925569602
 20
309.6309137562572
 30
0.0
 11
1098.514317569602
 21
343.7989287562572
 31
0.0
  0
ARC
  5
778
330
2
100
AcDbEntity
  8
0
100
AcDbCircle
 10
1092.730107569602
 20
335.6415947562572
 30
0.0
 40
10.0
100
AcDbArc
 50
54.65969800000027
 51
90.0
  0
ARC
  5
779
330
2
100
AcDbEntity
  8
0
100
AcDbCircle
 10
1140.915684569602
 20
301.4736267562572
 30
0.0
 40
10.0
100
AcDbArc
 50
0.0
 51
54.65950000000008
  0
LINE
  5
77A
330
2
100
AcDbEntity
  8
0
100
AcDbLine
 10
1220.415684569602
 20
252.6415947562572
 30
0.0
 11
1175.915745569602
 21
252.6415947562572
 31
0.0
  0
LINE
  5
77B
330
2
100
AcDbEntity
  8
0
100
AcDbLine
 10
1174.415684569602
 20
263.7755667562572
 30
0.0
 11
1193.004002569602
 21
253.0435117562572
 31
0.0
  0
ARC
  5
77C
330
2
100
AcDbEntity
  8
0
100
AcDbCircle
 10
1175.915684569602
 20
255.6415947562573
 30
0.0
 40
3.0
100
AcDbArc
 50
180.0
 51
270.0
  0
ARC
  5
77D
330
2
100
AcDbEntity
  8
0
100
AcDbCircle
 10
1175.915684569602
 20
266.3736357562572
 30
0.0
 40
3.0
100
AcDbArc
 50
180.0
 51
239.9996639999997
  0
LINE
  5
77E
330
2
100
AcDbEntity
  8
0
100
AcDbLine
 10
1170.915684569602
 20
285.6415947562572
 30
0.0
 11
1163.915684569602
 21
285.6415947562572
 31
0.0
  0
LINE
  5
77F
330
2
100
AcDbEntity
  8
0
100
AcDbLine
 10
1163.915684569602
 20
285.6415947562572
 30
0.0
 11
1155.915684569602
 21
285.6415947562572
 31
0.0
  0
ARC
  5
780
330
2
100
AcDbEntity
  8
0
100
AcDbCircle
 10
1170.915684569602
 20
283.6415947562572
 30
0.0
 40
2.0
100
AcDbArc
 50
0.0
 51
90.0
  0
ARC
  5
781
330
2
100
AcDbEntity
  8
0
100
AcDbCircle
 10
1194.504002569602
 20
255.6415947562573
 30
0.0
 40
3.0
100
AcDbArc
 50
239.9997020000003
 51
270.0
  0
ARC
  5
782
330
2
100
AcDbEntity
  8
0
100
AcDbCircle
 10
1228.415684569602
 20
250.6416107562572
 30
0.0
 40
2.0
100
AcDbArc
 50
0.0
 51
90.0
  0
LINE
  5
783
330
2
100
AcDbEntity
  8
0
100
AcDbLine
 10
1350.415684569602
 20
146.6415907562573
 30
0.0
 11
1350.415684569602
 21
252.6415947562572
 31
0.0
  0
LINE
  5
784
330
2
100
AcDbEntity
  8
0
100
AcDbLine
 10
1407.915684569602
 20
154.6415907562573
 30
0.0
 11
1407.915684569602
 21
244.6415947562572
 31
0.0
  0
LINE
  5
785
330
2
100
AcDbEntity
  8
0
100
AcDbLine
 10
1358.915684569602
 20
254.6415947562572
 30
0.0
 11
1358.915684569602
 21
144.6415907562573
 31
0.0
  0
ARC
  5
786
330
2
100
AcDbEntity
  8
0
100
AcDbCircle
 10
1397.915684569602
 20
154.6415907562573
 30
0.0
 40
10.0
100
AcDbArc
 50
270.0
 51
0.0
  0
LINE
  5
787
330
2
100
AcDbEntity
  8
0
100
AcDbLine
 10
1397.915684569602
 20
144.6415907562573
 30
0.0
 11
1358.915684569602
 21
144.6415907562573
 31
0.0
  0
LINE
  5
788
330
2
100
AcDbEntity
  8
0
100
AcDbLine
 10
1358.915684569602
 20
146.6415907562573
 30
0.0
 11
1350.415684569602
 21
146.6415907562573
 31
0.0
  0
LINE
  5
789
330
2
100
AcDbEntity
  8
0
100
AcDbLine
 10
1402.915684569602
 20
169.1415877562572
 30
0.0
 11
1358.915684569602
 21
169.1415877562572
 31
0.0
  0
LINE
  5
78A
330
2
100
AcDbEntity
  8
0
100
AcDbLine
 10
1358.915684569602
 20
156.9574597562572
 30
0.0
 11
1350.415684569602
 21
156.9574597562572
 31
0.0
  0
ARC
  5
78B
330
2
100
AcDbEntity
  8
0
100
AcDbCircle
 10
1397.915623569602
 20
244.6415947562572
 30
0.0
 40
10.0
100
AcDbArc
 50
0.0
 51
90.0
  0
LINE
  5
78C
330
2
100
AcDbEntity
  8
0
100
AcDbLine
 10
1402.915684569602
 20
230.1415947562572
 30
0.0
 11
1358.915684569602
 21
230.1415947562572
 31
0.0
  0
LINE
  5
78D
330
2
100
AcDbEntity
  8
0
100
AcDbLine
 10
1358.915684569602
 20
242.2041867562573
 30
0.0
 11
1350.415684569602
 21
242.2041867562573
 31
0.0
  0
LINE
  5
78E
330
2
100
AcDbEntity
  8
0
100
AcDbLine
 10
1397.915684569602
 20
254.6415947562572
 30
0.0
 11
1358.915684569602
 21
254.6415947562572
 31
0.0
  0
LINE
  5
78F
330
2
100
AcDbEntity
  8
0
100
AcDbLine
 10
1358.915684569602
 20
252.6415947562572
 30
0.0
 11
1350.415684569602
 21
252.6415947562572
 31
0.0
  0
LINE
  5
79A
330
2
100
AcDbEntity
  8
0
100
AcDbLine
 10
140.4583661473179
 20
553.6011712429596
 30
0.0
 11
260.4583661473179
 21
553.6011712429596
 31
0.0
  0
LINE
  5
79B
330
2
100
AcDbEntity
  8
0
100
AcDbLine
 10
140.4583661473179
 20
616.6011412429597
 30
0.0
 11
260.4583661473179
 21
616.6011412429597
 31
0.0
  0
LINE
  5
79C
330
2
100
AcDbEntity
  8
0
100
AcDbLine
 10
140.4576941473183
 20
532.1011712429595
 30
0.0
 11
270.4576941473183
 21
532.1011712429595
 31
0.0
  0
LINE
  5
79D
330
2
100
AcDbEntity
  8
0
100
AcDbLine
 10
140.4576941473183
 20
638.1011412429597
 30
0.0
 11
270.4576941473183
 21
638.1011412429597
 31
0.0
  0
ARC
  5
79E
330
2
100
AcDbEntity
  8
0
100
AcDbCircle
 10
317.1732701473179
 20
585.1011412429596
 30
0.0
 40
20.0
100
AcDbArc
 50
141.561291
 51
180.0
  0
LINE
  5
79F
330
2
100
AcDbEntity
  8
0
100
AcDbLine
 10
270.4581821473179
 20
638.1011412429597
 30
0.0
 11
270.4581821473179
 21
532.1011712429595
 31
0.0
  0
LINE
  5
7A0
330
2
100
AcDbEntity
  8
0
100
AcDbLine
 10
317.9581821473179
 20
516.1011712429596
 30
0.0
 11
317.9581821473179
 21
654.1011412429597
 31
0.0
  0
LINE
  5
7A1
330
2
100
AcDbEntity
  8
0
100
AcDbLine
 10
394.957908147318
 20
538.1013542429594
 30
0.0
 11
394.957908147318
 21
632.1013852429596
 31
0.0
  0
LINE
  5
7A2
330
2
100
AcDbEntity
  8
0
100
AcDbLine
 10
326.9581821473179
 20
656.1011102429596
 30
0.0
 11
326.9578161473182
 21
514.1012322429595
 31
0.0
  0
LINE
  5
7A3
330
2
100
AcDbEntity
  8
0
100
AcDbLine
 10
339.9579991473181
 20
585.1011412429596
 30
0.0
 11
340.814567147318
 21
634.1537532429596
 31
0.0
  0
LINE
  5
7A4
330
2
100
AcDbEntity
  8
CENTER
100
AcDbLine
 10
429.9577967434474
 20
480.1008662429893
 30
0.0
 11
429.9583150570652
 21
740.1011412429298
 31
0.0
  0
ARC
  5
7A5
330
2
100
AcDbEntity
  8
0
100
AcDbCircle
 10
344.829398147318
 20
644.1011102429596
 30
0.0
 40
7.0
100
AcDbArc
 50
194.9996999999998
 51
270.0
  0
LINE
  5
7A6
330
2
100
AcDbEntity
  8
0
100
AcDbLine
 10
338.0678021473181
 20
642.2893122429595
 30
0.0
 11
335.7571941473181
 21
650.9129082429596
 31
0.0
  0
LINE
  5
7A7
330
2
100
AcDbEntity
  8
0
100
AcDbLine
 10
449.0367041473182
 20
725.1011412429595
 30
0.0
 11
449.0367041473182
 21
665.1011412429596
 31
0.0
  0
LINE
  5
7A8
330
2
100
AcDbEntity
  8
0
100
AcDbLine
 10
452.9576941473183
 20
725.1011412429595
 30
0.0
 11
452.9576941473183
 21
665.1011412429596
 31
0.0
  0
LINE
  5
7A9
330
2
100
AcDbEntity
  8
0
100
AcDbLine
 10
409.9579991473181
 20
660.1011412429596
 30
0.0
 11
409.9579991473182
 21
725.1011412429595
 31
0.0
  0
LINE
  5
7AA
330
2
100
AcDbEntity
  8
0
100
AcDbLine
 10
409.9579991473182
 20
725.1011412429595
 30
0.0
 11
452.9576941473183
 21
725.1011412429595
 31
0.0
  0
LINE
  5
7AB
330
2
100
AcDbEntity
  8
0
100
AcDbLine
 10
409.9579991473181
 20
675.1010492429595
 30
0.0
 11
361.0898051473181
 21
675.1011102429595
 31
0.0
  0
LINE
  5
7AC
330
2
100
AcDbEntity
  8
0
100
AcDbLine
 10
452.4579991473181
 20
660.1011412429596
 30
0.0
 11
407.457999147318
 21
660.1011412429596
 31
0.0
  0
LINE
  5
7AD
330
2
100
AcDbEntity
  8
0
100
AcDbLine
 10
449.9579991473181
 20
660.1011412429596
 30
0.0
 11
449.9579991473181
 21
665.1011412429596
 31
0.0
  0
LINE
  5
7AE
330
2
100
AcDbEntity
  8
0
100
AcDbLine
 10
449.0367041473182
 20
665.1011412429596
 30
0.0
 11
452.9576941473183
 21
665.1011412429596
 31
0.0
  0
LINE
  5
7AF
330
2
100
AcDbEntity
  8
0
100
AcDbLine
 10
452.4579991473181
 20
658.1011412429596
 30
0.0
 11
452.4579991473181
 21
660.1011412429596
 31
0.0
  0
LINE
  5
7B0
330
2
100
AcDbEntity
  8
0
100
AcDbLine
 10
407.457999147318
 20
658.1011412429596
 30
0.0
 11
407.457999147318
 21
660.1011412429596
 31
0.0
  0
ARC
  5
7B1
330
2
100
AcDbEntity
  8
0
100
AcDbCircle
 10
356.677695147318
 20
644.1013852429596
 30
0.0
 40
7.0
100
AcDbArc
 50
270.0
 51
344.0546110000001
  0
LINE
  5
7B2
330
2
100
AcDbEntity
  8
0
100
AcDbLine
 10
351.6352151473181
 20
668.3585262429595
 30
0.0
 11
341.2128211473182
 21
638.1077632429595
 31
0.0
  0
ARC
  5
7B3
330
2
100
AcDbEntity
  8
0
100
AcDbCircle
 10
371.2379071473181
 20
644.1013852429596
 30
0.0
 40
7.0
100
AcDbArc
 50
90.0
 51
164.0545960000001
  0
ARC
  5
7B5
330
2
100
AcDbEntity
  8
0
100
AcDbCircle
 10
369.9578161473179
 20
655.1024222429596
 30
0.0
 40
7.5
100
AcDbArc
 50
327.7670590000004
 51
238.0763550000004
  0
ARC
  5
7B7
330
2
100
AcDbEntity
  8
0
100
AcDbCircle
 10
387.1772381473178
 20
651.1013852429596
 30
0.0
 40
7.0
100
AcDbArc
 50
90.0
 51
139.3987119999999
  0
LINE
  5
7B8
330
2
100
AcDbEntity
  8
0
100
AcDbLine
 10
371.2379071473183
 20
651.1013852429596
 30
0.0
 11
377.9576941473183
 21
651.1013852429596
 31
0.0
  0
LINE
  5
7B9
330
2
100
AcDbEntity
  8
0
100
AcDbLine
 10
381.8624491473181
 20
655.6569272429595
 30
0.0
 11
377.9576941473183
 21
651.1013852429596
 31
0.0
  0
ARC
  5
7BA
330
2
100
AcDbEntity
  8
0
100
AcDbCircle
 10
361.0894081473179
 20
665.1015372429595
 30
0.0
 40
10.0
100
AcDbArc
 50
90.0
 51
160.9891049999999
  0
LINE
  5
7BB
330
2
100
AcDbEntity
  8
0
100
AcDbLine
 10
364.5072551473181
 20
646.0244202429595
 30
0.0
 11
363.4083781473182
 21
642.1783202429595
 31
0.0
  0
ARC
  5
7BC
330
2
100
AcDbEntity
  8
0
100
AcDbCircle
 10
343.814078147318
 20
634.1013852429596
 30
0.0
 40
3.0
100
AcDbArc
 50
90.0
 51
178.9996339999996
  0
LINE
  5
7BD
330
2
100
AcDbEntity
  8
0
100
AcDbLine
 10
270.4581821473179
 20
638.1011412429597
 30
0.0
 11
317.9581821473179
 21
638.1011412429597
 31
0.0
  0
LINE
  5
7BE
330
2
100
AcDbEntity
  8
0
100
AcDbLine
 10
319.9581821473179
 20
656.1011412429596
 30
0.0
 11
326.958244147318
 21
656.1011412429596
 31
0.0
  0
ARC
  5
7BF
330
2
100
AcDbEntity
  8
0
100
AcDbCircle
 10
328.9957801473178
 20
649.1011102429596
 30
0.0
 40
7.0
100
AcDbArc
 50
14.99989300000028
 51
90.0
  0
LINE
  5
7C0
330
2
100
AcDbEntity
  8
0
100
AcDbLine
 10
328.995780147318
 20
656.1011102429596
 30
0.0
 11
326.958244147318
 21
656.1011102429596
 31
0.0
  0
ARC
  5
7C1
330
2
100
AcDbEntity
  8
0
100
AcDbCircle
 10
319.9581821473179
 20
654.1011412429597
 30
0.0
 40
2.0
100
AcDbArc
 50
90.0
 51
180.0
  0
LINE
  5
7C2
330
2
100
AcDbEntity
  8
0
100
AcDbLine
 10
317.9581821473179
 20
618.2611442429596
 30
0.0
 11
301.5078041473179
 21
597.5347042429595
 31
0.0
  0
LINE
  5
7C3
330
2
100
AcDbEntity
  8
0
100
AcDbLine
 10
260.4583661473179
 20
636.1011412429596
 30
0.0
 11
260.4583661473179
 21
616.6011412429597
 31
0.0
  0
ARC
  5
7C4
330
2
100
AcDbEntity
  8
0
100
AcDbCircle
 10
262.4583661473179
 20
636.1011712429595
 30
0.0
 40
2.0
100
AcDbArc
 50
90.0
 51
180.0
  0
ARC
  5
7C5
330
2
100
AcDbEntity
  8
0
100
AcDbCircle
 10
344.8292151473178
 20
526.1012322429595
 30
0.0
 40
7.0
100
AcDbArc
 50
121.1092219999996
 51
165.0003359999999
  0
LINE
  5
7C6
330
2
100
AcDbEntity
  8
0
100
AcDbLine
 10
338.067619147318
 20
527.9130612429595
 30
0.0
 11
335.7570111473183
 21
519.2894652429596
 31
0.0
  0
ARC
  5
7C7
330
2
100
AcDbEntity
  8
0
100
AcDbCircle
 10
361.0894081473179
 20
505.1011712429596
 30
0.0
 40
10.0
100
AcDbArc
 50
199.0109
 51
270.0
  0
LINE
  5
7C8
330
2
100
AcDbEntity
  8
0
100
AcDbLine
 10
498.8262184110167
 20
495.1009272425376
 30
0.0
 11
361.0894081473179
 21
495.1011712429596
 31
0.0
  0
LINE
  5
7C9
330
2
100
AcDbEntity
  8
0
100
AcDbLine
 10
339.9579991473181
 20
585.1011412429596
 30
0.0
 11
340.865836147318
 21
533.1012322429595
 31
0.0
  0
LINE
  5
7CA
330
2
100
AcDbEntity
  8
0
100
AcDbLine
 10
368.9578161473182
 20
519.1013542429594
 30
0.0
 11
377.9576941473183
 21
519.1012932429597
 31
0.0
  0
LINE
  5
7CB
330
2
100
AcDbEntity
  8
CENTER
100
AcDbLine
 10
382.968406147318
 20
515.1017212429596
 30
0.0
 11
356.9478036987379
 21
515.1017212429596
 31
0.0
  0
ARC
  5
7CC
330
2
100
AcDbEntity
  8
0
100
AcDbCircle
 10
369.9578161473179
 20
515.1011712429595
 30
0.0
 40
7.5
100
AcDbArc
 50
133.9218370000002
 51
32.23294099999957
  0
LINE
  5
7CD
330
2
100
AcDbEntity
  8
0
100
AcDbLine
 10
381.8624491473181
 20
514.5457512429596
 30
0.0
 11
377.9576941473183
 21
519.1012932429597
 31
0.0
  0
LINE
  5
7CE
330
2
100
AcDbEntity
  8
CENTER
100
AcDbLine
 10
369.9579883148856
 20
528.112022466727
 30
0.0
 11
369.9582215311707
 21
502.0914200191921
 31
0.0
  0
ARC
  5
7CF
330
2
100
AcDbEntity
  8
0
100
AcDbCircle
 10
387.1772381473178
 20
519.1012932429597
 30
0.0
 40
7.0
100
AcDbArc
 50
220.6012950000002
 51
270.0
  0
ARC
  5
7D0
330
2
100
AcDbEntity
  8
0
100
AcDbCircle
 10
368.957816147318
 20
526.1013542429594
 30
0.0
 40
7.0
100
AcDbArc
 50
180.0
 51
270.0
  0
LINE
  5
7D1
330
2
100
AcDbEntity
  8
0
100
AcDbLine
 10
351.6348181473181
 20
501.8437252429595
 30
0.0
 11
340.865836147318
 21
533.1012322429595
 31
0.0
  0
ARC
  5
7D2
330
2
100
AcDbEntity
  8
0
100
AcDbCircle
 10
354.957816147318
 20
526.1013542429594
 30
0.0
 40
7.0
100
AcDbArc
 50
0.0
 51
90.0
  0
ARC
  5
7D3
330
2
100
AcDbEntity
  8
0
100
AcDbCircle
 10
343.814078147318
 20
536.1013542429595
 30
0.0
 40
3.0
100
AcDbArc
 50
181.0003719999999
 51
270.0
  0
LINE
  5
7D4
330
2
100
AcDbEntity
  8
0
100
AcDbLine
 10
270.4581821473179
 20
532.1011712429595
 30
0.0
 11
317.9581821473179
 21
532.1011712429595
 31
0.0
  0
LINE
  5
7D5
330
2
100
AcDbEntity
  8
0
100
AcDbLine
 10
317.9581821473179
 20
551.9411372429596
 30
0.0
 11
301.5078041473179
 21
572.6676392429595
 31
0.0
  0
ARC
  5
7D6
330
2
100
AcDbEntity
  8
0
100
AcDbCircle
 10
317.1732701473179
 20
585.1011412429596
 30
0.0
 40
20.0
100
AcDbArc
 50
180.0
 51
218.4387089999998
  0
ARC
  5
7D7
330
2
100
AcDbEntity
  8
0
100
AcDbCircle
 10
328.9954141473181
 20
521.1012322429595
 30
0.0
 40
7.0
100
AcDbArc
 50
270.0
 51
345.0001069999997
  0
LINE
  5
7D8
330
2
100
AcDbEntity
  8
0
100
AcDbLine
 10
319.9581821473179
 20
514.1011712429595
 30
0.0
 11
326.9578161473182
 21
514.1011712429595
 31
0.0
  0
LINE
  5
7D9
330
2
100
AcDbEntity
  8
0
100
AcDbLine
 10
328.9954141473181
 20
514.1012322429595
 30
0.0
 11
326.9578161473182
 21
514.1012322429595
 31
0.0
  0
ARC
  5
7DA
330
2
100
AcDbEntity
  8
0
100
AcDbCircle
 10
319.9581821473179
 20
516.1011712429596
 30
0.0
 40
2.0
100
AcDbArc
 50
180.0
 51
270.0
  0
LINE
  5
7DB
330
2
100
AcDbEntity
  8
0
100
AcDbLine
 10
260.4583661473179
 20
553.6011712429596
 30
0.0
 11
260.4583661473179
 21
534.1011102429596
 31
0.0
  0
ARC
  5
7DC
330
2
100
AcDbEntity
  8
0
100
AcDbCircle
 10
262.4583661473179
 20
534.1011712429596
 30
0.0
 40
2.0
100
AcDbArc
 50
180.0
 51
270.0
  0
LINE
  5
7DD
330
2
100
AcDbEntity
  8
0
100
AcDbLine
 10
82.95830514731823
 20
540.1011712429595
 30
0.0
 11
82.95830514731823
 21
630.1011412429597
 31
0.0
  0
LINE
  5
7DE
330
2
100
AcDbEntity
  8
0
100
AcDbLine
 10
131.9583051473182
 20
640.1011412429596
 30
0.0
 11
131.9583051473182
 21
608.6015593275425
 31
0.0
  0
ARC
  5
7E1
330
2
100
AcDbEntity
  8
0
100
AcDbCircle
 10
92.95836614731797
 20
630.1011412429597
 30
0.0
 40
10.0
100
AcDbArc
 50
90.0
 51
180.0
  0
LINE
  5
7E2
330
2
100
AcDbEntity
  8
0
100
AcDbLine
 10
92.95830514731823
 20
640.1011412429596
 30
0.0
 11
131.9583051473182
 21
640.1011412429596
 31
0.0
  0
LINE
  5
7E3
330
2
100
AcDbEntity
  8
0
100
AcDbLine
 10
87.95830514731823
 20
615.6011412429596
 30
0.0
 11
131.9583051473182
 21
615.6011412429596
 31
0.0
  0
LINE
  5
7E4
330
2
100
AcDbEntity
  8
0
100
AcDbLine
 10
140.4583661473179
 20
610.1011412429597
 30
0.0
 11
140.4583661473179
 21
638.1011412429597
 31
0.0
  0
LINE
  5
7E5
330
2
100
AcDbEntity
  8
0
100
AcDbLine
 10
140.4583661473179
 20
616.6011412429597
 30
0.0
 11
131.9583051473182
 21
616.6011412429597
 31
0.0
  0
LINE
  5
7E6
330
2
100
AcDbEntity
  8
0
100
AcDbLine
 10
131.9583051473182
 20
638.1011412429597
 30
0.0
 11
140.4583661473179
 21
638.1011412429597
 31
0.0
  0
ARC
  5
7EA
330
2
100
AcDbEntity
  8
0
100
AcDbCircle
 10
92.95830514731823
 20
540.1011712429595
 30
0.0
 40
10.0
100
AcDbArc
 50
180.0
 51
270.0
  0
LINE
  5
7EB
330
2
100
AcDbEntity
  8
0
100
AcDbLine
 10
136.4583051473182
 20
543.3313352429596
 30
0.0
 11
136.4583051473182
 21
538.8313352429596
 31
0.0
  0
LINE
  5
7EC
330
2
100
AcDbEntity
  8
0
100
AcDbLine
 10
134.9583051473182
 20
543.3313352429596
 30
0.0
 11
134.9583051473182
 21
538.8313352429596
 31
0.0
  0
LINE
  5
7ED
330
2
100
AcDbEntity
  8
0
100
AcDbLine
 10
133.4583051473182
 20
543.3313352429596
 30
0.0
 11
133.4583051473182
 21
538.3157102429596
 31
0.0
  0
LINE
  5
7EE
330
2
100
AcDbEntity
  8
0
100
AcDbLine
 10
140.4583661473179
 20
532.1011712429595
 30
0.0
 11
140.4583661473179
 21
560.1011412429596
 31
0.0
  0
LINE
  5
7EF
330
2
100
AcDbEntity
  8
0
100
AcDbLine
 10
87.95830514731823
 20
554.6011712429596
 30
0.0
 11
131.9583051473182
 21
554.6011712429596
 31
0.0
  0
ARC
  5
7F9
330
2
100
AcDbEntity
  8
0
100
AcDbCircle
 10
131.9583051473182
 20
543.3313352429596
 30
0.0
 40
1.5
100
AcDbArc
 50
0.0
 51
90.0
  0
ARC
  5
7FA
330
2
100
AcDbEntity
  8
0
100
AcDbCircle
 10
131.9583051473182
 20
543.3313352429596
 30
0.0
 40
3.0
100
AcDbArc
 50
0.0
 51
90.0
  0
ARC
  5
7FB
330
2
100
AcDbEntity
  8
0
100
AcDbCircle
 10
131.9583051473182
 20
543.3313352429596
 30
0.0
 40
4.5
100
AcDbArc
 50
0.0
 51
90.0
  0
LINE
  5
7FC
330
2
100
AcDbEntity
  8
0
100
AcDbLine
 10
140.4583661473179
 20
553.6011712429596
 30
0.0
 11
131.9583051473182
 21
553.6011712429596
 31
0.0
  0
LINE
  5
7FD
330
2
100
AcDbEntity
  8
0
100
AcDbLine
 10
92.95830514731823
 20
530.1011712429596
 30
0.0
 11
131.9583051473182
 21
530.1011712429596
 31
0.0
  0
LINE
  5
7FE
330
2
100
AcDbEntity
  8
0
100
AcDbLine
 10
131.9583051473182
 20
532.1011712429595
 30
0.0
 11
140.4583661473179
 21
532.1011712429595
 31
0.0
  0
LINE
  5
7FF
330
2
100
AcDbEntity
  8
HOJO
100
AcDbLine
 10
134.9583051473182
 20
539.3313352429596
 30
0.0
 11
136.4583051473182
 21
538.8313352429596
 31
0.0
  0
LINE
  5
800
330
2
100
AcDbEntity
  8
HOJO
100
AcDbLine
 10
133.4583051473182
 20
538.3313352429596
 30
0.0
 11
134.9583051473182
 21
538.8313352429596
 31
0.0
  0
LINE
  5
8B2
330
2
100
AcDbEntity
  8
CENTER
100
AcDbLine
 10
502.9685891473182
 20
515.1023932429596
 30
0.0
 11
476.9479866987381
 21
515.1023932429596
 31
0.0
  0
LINE
  5
8B3
330
2
100
AcDbEntity
  8
CENTER
100
AcDbLine
 10
489.9581713148856
 20
528.1126944667271
 30
0.0
 11
489.9584045311708
 21
502.0920920191922
 31
0.0
  0
LINE
  5
8B4
330
2
100
AcDbEntity
  8
CENTER
100
AcDbLine
 10
502.9685891473182
 20
655.1023012429595
 30
0.0
 11
476.9479866987381
 21
655.1023012429596
 31
0.0
  0
LINE
  5
8B5
330
2
100
AcDbEntity
  8
CENTER
100
AcDbLine
 10
489.9581713148856
 20
668.1126024667271
 30
0.0
 11
489.9584045311708
 21
642.0920000191922
 31
0.0
  0
LINE
  5
8B6
330
2
100
AcDbEntity
  8
CENTER
100
AcDbLine
 10
382.968406147318
 20
655.1029722429595
 30
0.0
 11
356.9478036987379
 21
655.1029722429595
 31
0.0
  0
LINE
  5
8B7
330
2
100
AcDbEntity
  8
CENTER
100
AcDbLine
 10
369.9579883148856
 20
668.113273466727
 30
0.0
 11
369.9582215311707
 21
642.0926710191921
 31
0.0
  0
ARC
  5
8C7
330
2
100
AcDbEntity
  8
0
100
AcDbCircle
 10
498.8262361259922
 20
505.100927242522
 30
0.0
 40
10.0
100
AcDbArc
 50
269.9998985006669
 51
340.9895222125677
  0
TEXT
  5
8CD
330
2
100
AcDbEntity
  8
TITLE
100
AcDbText
 10
619.6986851151822
 20
587.805926197609
 30
0.0
 40
10.0
  1
HLMN-40L-1200~1800-T90WK
100
AcDbText
  0
TEXT
  5
8CE
330
2
100
AcDbEntity
  8
TITLE
100
AcDbText
 10
619.6986851151822
 20
555.805926197609
 30
0.0
 40
10.0
  1
HLMN-40L-1200~1800-S90WK
100
AcDbText
  0
TEXT
  5
8CF
330
2
100
AcDbEntity
  8
TITLE
100
AcDbText
 10
619.6986851151822
 20
571.805926197609
 30
0.0
 40
10.0
  1
HLMN-40L-1200~1800-S90K
100
AcDbText
  0
LINE
  5
99A
330
2
100
AcDbEntity
  8
0
100
AcDbLine
 10
398.1435830627356
 20
345.6415947562573
 30
0.0
 11
461.7723980627354
 21
345.6415947562573
 31
0.0
  0
LINE
  5
99B
330
2
100
AcDbEntity
  8
0
100
AcDbLine
 10
463.7153910627355
 20
128.1415917562573
 30
0.0
 11
396.2005900627355
 21
128.1415917562573
 31
0.0
  0
LINE
  5
99C
330
2
100
AcDbEntity
  8
0
100
AcDbLine
 10
399.9580060627355
 20
163.6415947562572
 30
0.0
 11
459.9580060627354
 21
163.6415947562572
 31
0.0
  0
LINE
  5
99D
330
2
100
AcDbEntity
  8
0
100
AcDbLine
 10
399.9580060627355
 20
159.6415947562572
 30
0.0
 11
459.9580060627354
 21
159.6415947562572
 31
0.0
  0
LINE
  5
99E
330
2
100
AcDbEntity
  8
CENTER
100
AcDbLine
 10
361.6907318105534
 20
268.1415947562573
 30
0.0
 11
498.2252939054858
 21
268.1415947562573
 31
0.0
  0
LINE
  5
99F
330
2
100
AcDbEntity
  8
0
100
AcDbLine
 10
339.9580060627355
 20
103.1415927562572
 30
0.0
 11
519.9580060627356
 21
103.1415927562572
 31
0.0
  0
LINE
  5
9A0
330
2
100
AcDbEntity
  8
0
100
AcDbLine
 10
339.9580060627355
 20
123.1415917562572
 30
0.0
 11
519.9580060627356
 21
123.1415917562572
 31
0.0
  0
CIRCLE
  5
9A1
330
2
100
AcDbEntity
  8
0
100
AcDbCircle
 10
429.9580060627355
 20
268.1415947562573
 30
0.0
 40
46.0
  0
ARC
  5
9A2
330
2
100
AcDbEntity
  8
0
100
AcDbCircle
 10
429.9580060627355
 20
268.1415947562573
 30
0.0
 40
52.0
100
AcDbArc
 50
12.52272000000163
 51
167.4774019999994
  0
ARC
  5
9A3
330
2
100
AcDbEntity
  8
0
100
AcDbCircle
 10
429.9580060627355
 20
268.1415947562573
 30
0.0
 40
48.0
100
AcDbArc
 50
167.4774019999994
 51
12.52272000000163
  0
LINE
  5
9A4
330
2
100
AcDbEntity
  8
0
100
AcDbLine
 10
344.1737960627355
 20
309.6309137562573
 30
0.0
 11
392.3594040627355
 21
343.7989437562573
 31
0.0
  0
LINE
  5
9A5
330
2
100
AcDbEntity
  8
0
100
AcDbLine
 10
92.95799406273545
 20
254.6415947562572
 30
0.0
 11
131.9579940627354
 21
254.6415947562572
 31
0.0
  0
LINE
  5
9A6
330
2
100
AcDbEntity
  8
0
100
AcDbLine
 10
87.95799406273545
 20
230.1415947562572
 30
0.0
 11
131.9579940627354
 21
230.1415947562572
 31
0.0
  0
LINE
  5
9A7
330
2
100
AcDbEntity
  8
0
100
AcDbLine
 10
92.95799406273545
 20
144.6415917562573
 30
0.0
 11
131.9579940627354
 21
144.6415917562573
 31
0.0
  0
LINE
  5
9A8
330
2
100
AcDbEntity
  8
0
100
AcDbLine
 10
87.95799406273545
 20
169.1415947562572
 30
0.0
 11
131.9579940627354
 21
169.1415947562572
 31
0.0
  0
LINE
  5
9A9
330
2
100
AcDbEntity
  8
CENTER
100
AcDbLine
 10
67.95799406273545
 20
199.6415947562572
 30
0.0
 11
373.4479960627354
 21
199.6415947562572
 31
0.0
  0
LINE
  5
9AA
330
2
100
AcDbEntity
  8
0
100
AcDbLine
 10
82.95799406273545
 20
154.6415947562572
 30
0.0
 11
82.95799406273545
 21
244.6415947562572
 31
0.0
  0
ARC
  5
9AB
330
2
100
AcDbEntity
  8
0
100
AcDbCircle
 10
92.95799406273545
 20
154.6415947562572
 30
0.0
 40
10.0
100
AcDbArc
 50
180.0
 51
270.0
  0
ARC
  5
9AC
330
2
100
AcDbEntity
  8
0
100
AcDbCircle
 10
92.95808406273545
 20
244.6415947562572
 30
0.0
 40
10.0
100
AcDbArc
 50
90.0
 51
180.0
  0
LINE
  5
9AD
330
2
100
AcDbEntity
  8
CENTER
100
AcDbLine
 10
369.9580060627355
 20
130.1415917562573
 30
0.0
 11
369.9580060627356
 21
96.14159275625732
 31
0.0
  0
LINE
  5
9AE
330
2
100
AcDbEntity
  8
HIDS
100
AcDbLine
 10
377.4580060627355
 20
123.1415917562572
 30
0.0
 11
377.4580060627355
 21
103.1415927562572
 31
0.0
  0
LINE
  5
9AF
330
2
100
AcDbEntity
  8
HIDS
100
AcDbLine
 10
362.4580060627355
 20
123.1415917562572
 30
0.0
 11
362.4580060627355
 21
103.1415927562572
 31
0.0
  0
LINE
  5
9B0
330
2
100
AcDbEntity
  8
0
100
AcDbLine
 10
339.9580060627355
 20
301.4735957562572
 30
0.0
 11
339.9580060627355
 21
103.1415927562572
 31
0.0
  0
LINE
  5
9B1
330
2
100
AcDbEntity
  8
0
100
AcDbLine
 10
353.9580060627355
 20
120.4562737562573
 30
0.0
 11
353.9580060627355
 21
103.1415927562572
 31
0.0
  0
LINE
  5
9B2
330
2
100
AcDbEntity
  8
0
100
AcDbLine
 10
140.4579940627354
 20
252.6415947562572
 30
0.0
 11
270.4579910627355
 21
252.6415947562572
 31
0.0
  0
LINE
  5
9B3
330
2
100
AcDbEntity
  8
0
100
AcDbLine
 10
140.4579940627354
 20
146.6415917562573
 30
0.0
 11
270.4579910627355
 21
146.6415917562573
 31
0.0
  0
LINE
  5
9B4
330
2
100
AcDbEntity
  8
0
100
AcDbLine
 10
140.4579940627354
 20
242.2649317562572
 30
0.0
 11
259.1197490627355
 21
242.2649317562572
 31
0.0
  0
LINE
  5
9B5
330
2
100
AcDbEntity
  8
0
100
AcDbLine
 10
140.4579940627354
 20
157.0182357562573
 30
0.0
 11
259.1197490627355
 21
157.0182357562573
 31
0.0
  0
LINE
  5
9B6
330
2
100
AcDbEntity
  8
0
100
AcDbLine
 10
133.4579940627354
 20
236.3242887562572
 30
0.0
 11
133.4579940627354
 21
231.3086937562573
 31
0.0
  0
LINE
  5
9B7
330
2
100
AcDbEntity
  8
0
100
AcDbLine
 10
134.9579940627354
 20
236.3242887562572
 30
0.0
 11
134.9579940627354
 21
231.8242887562572
 31
0.0
  0
LINE
  5
9B8
330
2
100
AcDbEntity
  8
0
100
AcDbLine
 10
136.4579940627354
 20
236.3242887562572
 30
0.0
 11
136.4579940627354
 21
231.8242887562572
 31
0.0
  0
LINE
  5
9B9
330
2
100
AcDbEntity
  8
0
100
AcDbLine
 10
131.9579940627354
 20
254.6415947562572
 30
0.0
 11
131.9579940627354
 21
144.6415917562573
 31
0.0
  0
LINE
  5
9BA
330
2
100
AcDbEntity
  8
0
100
AcDbLine
 10
140.4579940627354
 20
146.6415917562573
 30
0.0
 11
140.4579940627354
 21
252.6415947562572
 31
0.0
  0
LINE
  5
9BB
330
2
100
AcDbEntity
  8
0
100
AcDbLine
 10
131.9579940627354
 20
146.6415917562573
 30
0.0
 11
140.4579940627354
 21
146.6415917562573
 31
0.0
  0
LINE
  5
9BC
330
2
100
AcDbEntity
  8
0
100
AcDbLine
 10
131.9579940627354
 20
156.9574597562573
 30
0.0
 11
140.4579940627354
 21
156.9574597562573
 31
0.0
  0
LINE
  5
9BD
330
2
100
AcDbEntity
  8
HOJO
100
AcDbLine
 10
133.4579940627354
 20
231.3242887562572
 30
0.0
 11
134.9579940627354
 21
231.8242887562572
 31
0.0
  0
LINE
  5
9BE
330
2
100
AcDbEntity
  8
HOJO
100
AcDbLine
 10
134.9579940627354
 20
232.3242887562572
 30
0.0
 11
136.4579940627354
 21
231.8242887562572
 31
0.0
  0
LINE
  5
9C3
330
2
100
AcDbEntity
  8
0
100
AcDbLine
 10
131.9579940627354
 20
252.6415947562572
 30
0.0
 11
140.4579940627354
 21
252.6415947562572
 31
0.0
  0
ARC
  5
9C4
330
2
100
AcDbEntity
  8
0
100
AcDbCircle
 10
131.9579940627354
 20
236.3242887562572
 30
0.0
 40
1.5
100
AcDbArc
 50
0.0
 51
90.0
  0
ARC
  5
9C5
330
2
100
AcDbEntity
  8
0
100
AcDbCircle
 10
131.9579940627354
 20
236.3242887562572
 30
0.0
 40
4.5
100
AcDbArc
 50
0.0
 51
90.0
  0
ARC
  5
9C6
330
2
100
AcDbEntity
  8
0
100
AcDbCircle
 10
131.9579940627354
 20
236.3242887562572
 30
0.0
 40
3.0
100
AcDbArc
 50
0.0
 51
90.0
  0
LINE
  5
9C7
330
2
100
AcDbEntity
  8
0
100
AcDbLine
 10
131.9579940627354
 20
242.2041867562573
 30
0.0
 11
140.4579940627354
 21
242.2041867562573
 31
0.0
  0
LINE
  5
9CE
330
2
100
AcDbEntity
  8
0
100
AcDbLine
 10
362.8619970627355
 20
205.8809597562573
 30
0.0
 11
379.1950050627356
 21
279.4164977562572
 31
0.0
  0
LINE
  5
9CF
330
2
100
AcDbEntity
  8
0
100
AcDbLine
 10
366.7667830627356
 20
205.0136577562573
 30
0.0
 11
383.1000040627354
 21
278.5492187562573
 31
0.0
  0
LINE
  5
9D0
330
2
100
AcDbEntity
  8
0
100
AcDbLine
 10
326.9579910627355
 20
143.6415917562572
 30
0.0
 11
326.9579910627355
 21
285.6415947562572
 31
0.0
  0
ARC
  5
9D1
330
2
100
AcDbEntity
  8
0
100
AcDbCircle
 10
549.6395850627354
 20
214.6415947562573
 30
0.0
 40
215.181595
100
AcDbArc
 50
167.0178989999985
 51
192.9821010000014
  0
LINE
  5
9D2
330
2
100
AcDbEntity
  8
0
100
AcDbLine
 10
260.4579910627355
 20
250.6415947562572
 30
0.0
 11
260.4579910627355
 21
148.6415727562572
 31
0.0
  0
LINE
  5
9D3
330
2
100
AcDbEntity
  8
0
100
AcDbLine
 10
317.9579910627355
 20
169.3975917562572
 30
0.0
 11
317.9579910627355
 21
283.6415947562572
 31
0.0
  0
LINE
  5
9D4
330
2
100
AcDbEntity
  8
0
100
AcDbLine
 10
270.4579910627355
 20
252.6415947562572
 30
0.0
 11
270.4579910627355
 21
146.6415917562573
 31
0.0
  0
LINE
  5
9D5
330
2
100
AcDbEntity
  8
CENTER
100
AcDbLine
 10
252.3597619474762
 20
214.6415947562573
 30
0.0
 11
350.3143521560023
 21
214.6415947562573
 31
0.0
  0
LINE
  5
9D6
330
2
100
AcDbEntity
  8
0
100
AcDbLine
 10
326.9579910627355
 20
143.6415917562572
 30
0.0
 11
334.9579910627355
 21
143.6415917562572
 31
0.0
  0
LINE
  5
9D7
330
2
100
AcDbEntity
  8
0
100
AcDbLine
 10
298.9579910627355
 20
146.6415917562573
 30
0.0
 11
270.4579910627355
 21
146.6415917562573
 31
0.0
  0
ARC
  5
9D8
330
2
100
AcDbEntity
  8
0
100
AcDbCircle
 10
262.4579910627355
 20
148.6415917562573
 30
0.0
 40
2.0
100
AcDbArc
 50
180.0
 51
270.0
  0
LINE
  5
9D9
330
2
100
AcDbEntity
  8
0
100
AcDbLine
 10
298.9579910627355
 20
148.6415917562573
 30
0.0
 11
298.9579910627355
 21
165.3975917562572
 31
0.0
  0
LINE
  5
9DA
330
2
100
AcDbEntity
  8
0
100
AcDbLine
 10
298.9579910627355
 20
146.6415917562573
 30
0.0
 11
316.0850200627355
 21
146.6415917562573
 31
0.0
  0
ARC
  5
9DB
330
2
100
AcDbEntity
  8
0
100
AcDbCircle
 10
296.9579910627355
 20
148.6415917562573
 30
0.0
 40
2.0
100
AcDbArc
 50
270.0
 51
0.0
  0
LINE
  5
9DC
330
2
100
AcDbEntity
  8
0
100
AcDbLine
 10
319.9579910627355
 20
143.6416147562573
 30
0.0
 11
326.9579910627355
 21
143.6416147562573
 31
0.0
  0
ARC
  5
9DD
330
2
100
AcDbEntity
  8
0
100
AcDbCircle
 10
319.9579910627355
 20
145.6415917562573
 30
0.0
 40
2.0
100
AcDbArc
 50
194.4777070000008
 51
270.0
  0
ARC
  5
9DE
330
2
100
AcDbEntity
  8
0
100
AcDbCircle
 10
316.0850200627355
 20
144.6415917562573
 30
0.0
 40
2.0
100
AcDbArc
 50
14.47727999999925
 51
90.0
  0
LINE
  5
9DF
330
2
100
AcDbEntity
  8
0
100
AcDbLine
 10
315.9579910627355
 20
167.3975917562572
 30
0.0
 11
300.9579910627355
 21
167.3975917562572
 31
0.0
  0
ARC
  5
9E0
330
2
100
AcDbEntity
  8
0
100
AcDbCircle
 10
300.9579910627355
 20
165.3976147562573
 30
0.0
 40
2.0
100
AcDbArc
 50
90.0
 51
180.0
  0
ARC
  5
9E1
330
2
100
AcDbEntity
  8
0
100
AcDbCircle
 10
315.9579910627355
 20
169.3975917562572
 30
0.0
 40
2.0
100
AcDbArc
 50
270.0
 51
0.0
  0
ARC
  5
9E2
330
2
100
AcDbEntity
  8
0
100
AcDbCircle
 10
399.9580060627355
 20
197.6415947562572
 30
0.0
 40
34.0
100
AcDbArc
 50
167.4774019999994
 51
270.0
  0
ARC
  5
9E3
330
2
100
AcDbEntity
  8
0
100
AcDbCircle
 10
399.9580060627355
 20
197.6415947562572
 30
0.0
 40
38.0
100
AcDbArc
 50
167.4774019999994
 51
270.0
  0
ARC
  5
9E4
330
2
100
AcDbEntity
  8
0
100
AcDbCircle
 10
334.9579910627355
 20
138.6415727562573
 30
0.0
 40
5.0
100
AcDbArc
 50
0.0
 51
90.0
  0
LINE
  5
9E5
330
2
100
AcDbEntity
  8
0
100
AcDbLine
 10
394.0794050627355
 20
127.2629137562572
 30
0.0
 11
391.4223920627355
 21
124.6060917562572
 31
0.0
  0
ARC
  5
9E6
330
2
100
AcDbEntity
  8
0
100
AcDbCircle
 10
387.8869910627355
 20
128.1415917562573
 30
0.0
 40
5.0
100
AcDbArc
 50
270.0
 51
315.0000919999986
  0
LINE
  5
9E7
330
2
100
AcDbEntity
  8
0
100
AcDbLine
 10
394.9580060627355
 20
127.0047127562572
 30
0.0
 11
394.9580060627355
 21
124.1415917562572
 31
0.0
  0
ARC
  5
9E8
330
2
100
AcDbEntity
  8
0
100
AcDbCircle
 10
393.9580060627355
 20
124.1415917562572
 30
0.0
 40
1.0
100
AcDbArc
 50
270.0
 51
0.0
  0
ARC
  5
9E9
330
2
100
AcDbEntity
  8
0
100
AcDbCircle
 10
396.2005900627355
 20
125.1415917562572
 30
0.0
 40
3.0
100
AcDbArc
 50
90.0
 51
135.0003969999983
  0
LINE
  5
9EA
330
2
100
AcDbEntity
  8
0
100
AcDbLine
 10
326.9579910627355
 20
285.6415947562572
 30
0.0
 11
334.9579910627355
 21
285.6415947562572
 31
0.0
  0
LINE
  5
9EB
330
2
100
AcDbEntity
  8
0
100
AcDbLine
 10
270.4579910627355
 20
252.6415947562572
 30
0.0
 11
314.9579750627356
 21
252.6415947562572
 31
0.0
  0
ARC
  5
9EC
330
2
100
AcDbEntity
  8
0
100
AcDbCircle
 10
262.4579910627355
 20
250.6416107562572
 30
0.0
 40
2.0
100
AcDbArc
 50
90.0
 51
180.0
  0
LINE
  5
9ED
330
2
100
AcDbEntity
  8
0
100
AcDbLine
 10
316.4579910627355
 20
263.7755677562572
 30
0.0
 11
297.8697340627354
 21
253.0435117562573
 31
0.0
  0
ARC
  5
9EE
330
2
100
AcDbEntity
  8
0
100
AcDbCircle
 10
296.3697180627355
 20
255.6415947562573
 30
0.0
 40
3.0
100
AcDbArc
 50
270.0
 51
300.0003050000002
  0
ARC
  5
9EF
330
2
100
AcDbEntity
  8
0
100
AcDbCircle
 10
314.9579910627355
 20
255.6415947562573
 30
0.0
 40
3.0
100
AcDbArc
 50
270.0
 51
0.0
  0
ARC
  5
9F0
330
2
100
AcDbEntity
  8
0
100
AcDbCircle
 10
314.9579910627355
 20
266.3736357562572
 30
0.0
 40
3.0
100
AcDbArc
 50
300.0003399999975
 51
0.0
  0
LINE
  5
9F1
330
2
100
AcDbEntity
  8
0
100
AcDbLine
 10
319.9579910627355
 20
285.6415947562572
 30
0.0
 11
326.9579910627355
 21
285.6415947562572
 31
0.0
  0
ARC
  5
9F2
330
2
100
AcDbEntity
  8
0
100
AcDbCircle
 10
319.9580210627355
 20
283.6415947562572
 30
0.0
 40
2.0
100
AcDbArc
 50
90.0
 51
180.0
  0
ARC
  5
9F3
330
2
100
AcDbEntity
  8
0
100
AcDbCircle
 10
334.9579910627355
 20
290.6415947562572
 30
0.0
 40
5.0
100
AcDbArc
 50
270.0
 51
0.0
  0
ARC
  5
9F4
330
2
100
AcDbEntity
  8
0
100
AcDbCircle
 10
349.9580060627355
 20
301.4736267562573
 30
0.0
 40
10.0
100
AcDbArc
 50
125.3404999999983
 51
180.0
  0
ARC
  5
9F5
330
2
100
AcDbEntity
  8
0
100
AcDbCircle
 10
398.1435830627356
 20
335.6415947562572
 30
0.0
 40
10.0
100
AcDbArc
 50
90.0
 51
125.3403019999972
  0
LINE
  5
9F6
330
2
100
AcDbEntity
  8
0
100
AcDbLine
 10
467.5566080627354
 20
343.7989437562573
 30
0.0
 11
515.7423990627355
 21
309.6309137562573
 31
0.0
  0
LINE
  5
9F7
330
2
100
AcDbEntity
  8
CENTER
100
AcDbLine
 10
429.9580060627355
 20
360.6415947562572
 30
0.0
 11
429.9580060627356
 21
88.1415927562573
 31
0.0
  0
LINE
  5
9F8
330
2
100
AcDbEntity
  8
CENTER
100
AcDbLine
 10
489.9580060627354
 20
130.1415917562573
 30
0.0
 11
489.9580060627354
 21
96.14159275625731
 31
0.0
  0
LINE
  5
9F9
330
2
100
AcDbEntity
  8
HIDS
100
AcDbLine
 10
482.4580060627353
 20
123.1415917562572
 30
0.0
 11
482.4580060627353
 21
103.1415927562572
 31
0.0
  0
LINE
  5
9FA
330
2
100
AcDbEntity
  8
HIDS
100
AcDbLine
 10
497.4580060627354
 20
123.1415917562572
 30
0.0
 11
497.4580060627354
 21
103.1415927562572
 31
0.0
  0
LINE
  5
9FB
330
2
100
AcDbEntity
  8
0
100
AcDbLine
 10
519.9580060627356
 20
301.4735957562572
 30
0.0
 11
519.9580060627356
 21
103.1415927562572
 31
0.0
  0
LINE
  5
9FC
330
2
100
AcDbEntity
  8
0
100
AcDbLine
 10
505.9580060627356
 20
120.4562737562573
 30
0.0
 11
505.9580060627356
 21
103.1415927562572
 31
0.0
  0
LINE
  5
9FD
330
2
100
AcDbEntity
  8
0
100
AcDbLine
 10
480.7210060627356
 20
279.4165887562572
 30
0.0
 11
497.0539840627354
 21
205.8810207562572
 31
0.0
  0
LINE
  5
9FE
330
2
100
AcDbEntity
  8
0
100
AcDbLine
 10
476.8160080627356
 20
278.5492797562572
 30
0.0
 11
493.1491980627354
 21
205.0137117562572
 31
0.0
  0
ARC
  5
9FF
330
2
100
AcDbEntity
  8
0
100
AcDbCircle
 10
459.9580060627354
 20
197.6415947562572
 30
0.0
 40
34.0
100
AcDbArc
 50
270.0
 51
12.52272999999905
  0
ARC
  5
A00
330
2
100
AcDbEntity
  8
0
100
AcDbCircle
 10
459.9580060627354
 20
197.6415947562572
 30
0.0
 40
38.0
100
AcDbArc
 50
270.0
 51
12.52272000000163
  0
ARC
  5
A01
330
2
100
AcDbEntity
  8
0
100
AcDbCircle
 10
463.7153910627355
 20
125.1415917562572
 30
0.0
 40
3.0
100
AcDbArc
 50
45.0002589999995
 51
90.0
  0
ARC
  5
A02
330
2
100
AcDbEntity
  8
0
100
AcDbCircle
 10
465.9580060627354
 20
124.1415917562572
 30
0.0
 40
1.0
100
AcDbArc
 50
180.0
 51
270.0
  0
ARC
  5
A03
330
2
100
AcDbEntity
  8
0
100
AcDbCircle
 10
472.0289900627355
 20
128.1415917562573
 30
0.0
 40
5.0
100
AcDbArc
 50
225.0001070000003
 51
270.0
  0
LINE
  5
A04
330
2
100
AcDbEntity
  8
0
100
AcDbLine
 10
464.9580060627354
 20
127.0047127562572
 30
0.0
 11
464.9580060627354
 21
124.1415917562572
 31
0.0
  0
LINE
  5
A05
330
2
100
AcDbEntity
  8
0
100
AcDbLine
 10
465.8366070627355
 20
127.2629137562572
 30
0.0
 11
468.4935890627355
 21
124.6060347562572
 31
0.0
  0
LINE
  5
A06
330
2
100
AcDbEntity
  8
0
100
AcDbLine
 10
419.0705850627355
 20
195.8915947562573
 30
0.0
 11
420.4580060627355
 21
194.3520137562573
 31
0.0
  0
LINE
  5
A07
330
2
100
AcDbEntity
  8
0
100
AcDbLine
 10
419.0849890627355
 20
192.9228297562573
 30
0.0
 11
420.4580060627355
 21
192.9228297562573
 31
0.0
  0
LINE
  5
A08
330
2
100
AcDbEntity
  8
0
100
AcDbLine
 10
416.5986000627355
 20
189.9169937562572
 30
0.0
 11
420.4580060627355
 21
189.9169937562572
 31
0.0
  0
LINE
  5
A09
330
2
100
AcDbEntity
  8
0
100
AcDbLine
 10
419.0849890627355
 20
181.6415947562573
 30
0.0
 11
420.4580060627355
 21
181.6415947562573
 31
0.0
  0
LINE
  5
A0A
330
2
100
AcDbEntity
  8
0
100
AcDbLine
 10
410.9580060627355
 20
193.6831297562573
 30
0.0
 11
410.9580060627355
 21
183.4907167562573
 31
0.0
  0
LINE
  5
A0B
330
2
100
AcDbEntity
  8
0
100
AcDbLine
 10
412.5538000627354
 20
192.6690147562572
 30
0.0
 11
412.5538000627354
 21
184.4594357562573
 31
0.0
  0
LINE
  5
A0C
330
2
100
AcDbEntity
  8
0
100
AcDbLine
 10
410.9580060627355
 20
183.4907167562573
 30
0.0
 11
412.7905860627355
 21
181.6415947562573
 31
0.0
  0
LINE
  5
A0D
330
2
100
AcDbEntity
  8
0
100
AcDbLine
 10
417.7309860627356
 20
181.6415947562573
 30
0.0
 11
412.7905860627355
 21
181.6415947562573
 31
0.0
  0
LINE
  5
A0E
330
2
100
AcDbEntity
  8
0
100
AcDbLine
 10
412.5538000627354
 20
184.4594357562573
 30
0.0
 11
413.6435830627355
 21
183.3115097562572
 31
0.0
  0
LINE
  5
A0F
330
2
100
AcDbEntity
  8
0
100
AcDbLine
 10
419.0849890627355
 20
188.3583917562572
 30
0.0
 11
416.5986000627355
 21
188.3583917562572
 31
0.0
  0
LINE
  5
A10
330
2
100
AcDbEntity
  8
0
100
AcDbLine
 10
416.1162090627356
 20
183.3115097562572
 30
0.0
 11
413.6435830627355
 21
183.3115097562572
 31
0.0
  0
LINE
  5
A11
330
2
100
AcDbEntity
  8
0
100
AcDbLine
 10
419.0849890627355
 20
186.8740097562572
 30
0.0
 11
419.0849890627355
 21
188.0615097562573
 31
0.0
  0
LINE
  5
A12
330
2
100
AcDbEntity
  8
0
100
AcDbLine
 10
419.0849890627355
 20
182.7775127562572
 30
0.0
 11
419.0849890627355
 21
181.6415947562573
 31
0.0
  0
LINE
  5
A13
330
2
100
AcDbEntity
  8
0
100
AcDbLine
 10
419.0849890627355
 20
188.3583917562572
 30
0.0
 11
419.0849890627355
 21
186.2802517562573
 31
0.0
  0
LINE
  5
A14
330
2
100
AcDbEntity
  8
0
100
AcDbLine
 10
416.5986000627355
 20
189.9169937562572
 30
0.0
 11
416.5986000627355
 21
188.3583917562572
 31
0.0
  0
LINE
  5
A15
330
2
100
AcDbEntity
  8
0
100
AcDbLine
 10
419.0849890627355
 20
182.7775127562572
 30
0.0
 11
417.7309860627356
 21
181.6415947562573
 31
0.0
  0
ARC
  5
A16
330
2
100
AcDbEntity
  8
0
100
AcDbCircle
 10
416.1162090627356
 20
186.2802517562573
 30
0.0
 40
2.96875
100
AcDbArc
 50
270.0002140000007
 51
0.0001089999998967
  0
LINE
  5
A17
330
2
100
AcDbEntity
  8
0
100
AcDbLine
 10
412.6827980627354
 20
195.8915947562573
 30
0.0
 11
410.9580060627355
 21
193.6831297562573
 31
0.0
  0
LINE
  5
A18
330
2
100
AcDbEntity
  8
0
100
AcDbLine
 10
418.2040080627355
 20
193.9990097562573
 30
0.0
 11
413.6264020627354
 21
193.9990097562573
 31
0.0
  0
LINE
  5
A19
330
2
100
AcDbEntity
  8
0
100
AcDbLine
 10
413.6264020627354
 20
193.9990097562573
 30
0.0
 11
412.5538000627354
 21
192.6690147562572
 31
0.0
  0
LINE
  5
A1A
330
2
100
AcDbEntity
  8
0
100
AcDbLine
 10
419.0849890627355
 20
193.1474547562572
 30
0.0
 11
418.1860030627356
 21
193.9990097562573
 31
0.0
  0
LINE
  5
A1B
330
2
100
AcDbEntity
  8
0
100
AcDbLine
 10
412.6827980627354
 20
195.8915947562573
 30
0.0
 11
419.0705850627355
 21
195.8915947562573
 31
0.0
  0
LINE
  5
A1C
330
2
100
AcDbEntity
  8
0
100
AcDbLine
 10
419.0849890627355
 20
193.1474547562572
 30
0.0
 11
419.0849890627355
 21
192.9228297562573
 31
0.0
  0
LINE
  5
A1D
330
2
100
AcDbEntity
  8
0
100
AcDbLine
 10
429.0301800627355
 20
194.1474547562572
 30
0.0
 11
429.0301800627355
 21
183.2001887562572
 31
0.0
  0
LINE
  5
A1E
330
2
100
AcDbEntity
  8
0
100
AcDbLine
 10
430.8115820627356
 20
194.1474547562572
 30
0.0
 11
430.8115820627356
 21
183.2001887562572
 31
0.0
  0
LINE
  5
A1F
330
2
100
AcDbEntity
  8
0
100
AcDbLine
 10
428.3251930627354
 20
181.6415947562573
 30
0.0
 11
431.4051800627355
 21
181.6415947562573
 31
0.0
  0
LINE
  5
A20
330
2
100
AcDbEntity
  8
0
100
AcDbLine
 10
428.3251930627354
 20
183.2001887562572
 30
0.0
 11
429.0301800627355
 21
183.2001887562572
 31
0.0
  0
LINE
  5
A21
330
2
100
AcDbEntity
  8
0
100
AcDbLine
 10
428.3251930627354
 20
183.2001887562572
 30
0.0
 11
428.3251930627354
 21
181.6415947562573
 31
0.0
  0
LINE
  5
A22
330
2
100
AcDbEntity
  8
0
100
AcDbLine
 10
420.4580060627355
 20
189.9169937562572
 30
0.0
 11
420.4580060627355
 21
181.6415947562573
 31
0.0
  0
LINE
  5
A23
330
2
100
AcDbEntity
  8
0
100
AcDbLine
 10
430.8115820627356
 20
183.2001887562572
 30
0.0
 11
431.4051800627355
 21
183.2001887562572
 31
0.0
  0
LINE
  5
A24
330
2
100
AcDbEntity
  8
0
100
AcDbLine
 10
431.4051800627355
 20
183.2001887562572
 30
0.0
 11
431.4051800627355
 21
181.6415947562573
 31
0.0
  0
LINE
  5
A25
330
2
100
AcDbEntity
  8
0
100
AcDbLine
 10
425.2080060627354
 20
195.8915947562573
 30
0.0
 11
434.7080060627355
 21
195.8915947562573
 31
0.0
  0
LINE
  5
A26
330
2
100
AcDbEntity
  8
0
100
AcDbLine
 10
429.0301800627355
 20
194.1474547562572
 30
0.0
 11
426.7727950627355
 21
194.1474547562572
 31
0.0
  0
LINE
  5
A27
330
2
100
AcDbEntity
  8
0
100
AcDbLine
 10
425.2080060627354
 20
192.9228297562573
 30
0.0
 11
425.2080060627354
 21
195.8915947562573
 31
0.0
  0
LINE
  5
A28
330
2
100
AcDbEntity
  8
0
100
AcDbLine
 10
420.4580060627355
 20
194.3520137562573
 30
0.0
 11
420.4580060627355
 21
192.9228297562573
 31
0.0
  0
LINE
  5
A29
330
2
100
AcDbEntity
  8
0
100
AcDbLine
 10
425.2080060627354
 20
192.9228297562573
 30
0.0
 11
426.2626020627355
 21
192.9228297562573
 31
0.0
  0
LINE
  5
A2A
330
2
100
AcDbEntity
  8
0
100
AcDbLine
 10
426.7727950627355
 20
194.1474547562572
 30
0.0
 11
426.2626020627355
 21
192.9228297562573
 31
0.0
  0
LINE
  5
A2B
330
2
100
AcDbEntity
  8
0
100
AcDbLine
 10
434.7080060627355
 20
192.9228297562573
 30
0.0
 11
434.7080060627355
 21
195.8915947562573
 31
0.0
  0
LINE
  5
A2C
330
2
100
AcDbEntity
  8
0
100
AcDbLine
 10
433.7170080627355
 20
192.9228297562573
 30
0.0
 11
434.7080060627355
 21
192.9228297562573
 31
0.0
  0
LINE
  5
A2D
330
2
100
AcDbEntity
  8
0
100
AcDbLine
 10
433.2868020627355
 20
194.1474547562572
 30
0.0
 11
433.7170080627355
 21
192.9228297562573
 31
0.0
  0
LINE
  5
A2E
330
2
100
AcDbEntity
  8
0
100
AcDbLine
 10
430.8115820627356
 20
194.1474547562572
 30
0.0
 11
433.2868020627355
 21
194.1474547562572
 31
0.0
  0
LINE
  5
A2F
330
2
100
AcDbEntity
  8
0
100
AcDbLine
 10
440.1632060627355
 20
194.1474547562572
 30
0.0
 11
440.1632060627355
 21
183.1259697562573
 31
0.0
  0
ARC
  5
A30
330
2
100
AcDbEntity
  8
0
100
AcDbCircle
 10
445.1542030627356
 20
192.0878687562573
 30
0.0
 40
3.803712
100
AcDbArc
 50
286.0181269999975
 51
90.00350999999719
  0
ARC
  5
A31
330
2
100
AcDbEntity
  8
0
100
AcDbCircle
 10
445.1542030627356
 20
192.0878687562573
 30
0.0
 40
2.320524
100
AcDbArc
 50
277.4147260000002
 51
62.41184999999915
  0
LINE
  5
A32
330
2
100
AcDbEntity
  8
0
100
AcDbLine
 10
441.7959880627354
 20
194.1474547562572
 30
0.0
 11
441.7959880627354
 21
189.7867517562572
 31
0.0
  0
LINE
  5
A33
330
2
100
AcDbEntity
  8
0
100
AcDbLine
 10
446.2037940627356
 20
188.4318557562572
 30
0.0
 11
448.5581950627355
 21
183.1259697562573
 31
0.0
  0
LINE
  5
A34
330
2
100
AcDbEntity
  8
0
100
AcDbLine
 10
444.8366070627355
 20
188.3027357562573
 30
0.0
 11
447.0643900627355
 21
183.1259697562573
 31
0.0
  0
LINE
  5
A35
330
2
100
AcDbEntity
  8
0
100
AcDbLine
 10
446.7685830627356
 20
183.1259697562573
 30
0.0
 11
447.0643900627355
 21
183.1259697562573
 31
0.0
  0
LINE
  5
A36
330
2
100
AcDbEntity
  8
0
100
AcDbLine
 10
446.7685830627356
 20
181.6415947562573
 30
0.0
 11
448.9580060627355
 21
181.6415947562573
 31
0.0
  0
LINE
  5
A37
330
2
100
AcDbEntity
  8
0
100
AcDbLine
 10
446.7685830627356
 20
183.1259697562573
 30
0.0
 11
446.7685830627356
 21
181.6415947562573
 31
0.0
  0
LINE
  5
A38
330
2
100
AcDbEntity
  8
0
100
AcDbLine
 10
441.7959880627354
 20
188.3027357562573
 30
0.0
 11
441.7959880627354
 21
183.1259697562573
 31
0.0
  0
LINE
  5
A39
330
2
100
AcDbEntity
  8
0
100
AcDbLine
 10
439.4580060627355
 20
183.1259697562573
 30
0.0
 11
440.1632060627355
 21
183.1259697562573
 31
0.0
  0
LINE
  5
A3A
330
2
100
AcDbEntity
  8
0
100
AcDbLine
 10
441.7959880627354
 20
183.1259697562573
 30
0.0
 11
442.4454020627355
 21
183.1259697562573
 31
0.0
  0
LINE
  5
A3B
330
2
100
AcDbEntity
  8
0
100
AcDbLine
 10
442.4454020627355
 20
181.6415947562573
 30
0.0
 11
439.4580060627355
 21
181.6415947562573
 31
0.0
  0
LINE
  5
A3C
330
2
100
AcDbEntity
  8
0
100
AcDbLine
 10
442.4454020627355
 20
183.1259697562573
 30
0.0
 11
442.4454020627355
 21
181.6415947562573
 31
0.0
  0
LINE
  5
A3D
330
2
100
AcDbEntity
  8
0
100
AcDbLine
 10
439.4580060627355
 20
183.1259697562573
 30
0.0
 11
439.4580060627355
 21
181.6415947562573
 31
0.0
  0
LINE
  5
A3E
330
2
100
AcDbEntity
  8
0
100
AcDbLine
 10
445.4537940627355
 20
189.7867517562572
 30
0.0
 11
441.7959880627354
 21
189.7867517562572
 31
0.0
  0
LINE
  5
A3F
330
2
100
AcDbEntity
  8
0
100
AcDbLine
 10
441.7959880627354
 20
188.3027357562573
 30
0.0
 11
444.8366070627355
 21
188.3027357562573
 31
0.0
  0
LINE
  5
A40
330
2
100
AcDbEntity
  8
0
100
AcDbLine
 10
448.5581950627355
 20
183.1259697562573
 30
0.0
 11
448.9580060627355
 21
183.1259697562573
 31
0.0
  0
LINE
  5
A41
330
2
100
AcDbEntity
  8
0
100
AcDbLine
 10
448.9580060627355
 20
183.1259697562573
 30
0.0
 11
448.9580060627355
 21
181.6415947562573
 31
0.0
  0
LINE
  5
A42
330
2
100
AcDbEntity
  8
0
100
AcDbLine
 10
439.4580060627355
 20
195.8915947562573
 30
0.0
 11
439.4580060627355
 21
194.1474547562572
 31
0.0
  0
LINE
  5
A43
330
2
100
AcDbEntity
  8
0
100
AcDbLine
 10
439.4580060627355
 20
194.1474547562572
 30
0.0
 11
440.1632060627355
 21
194.1474547562572
 31
0.0
  0
LINE
  5
A44
330
2
100
AcDbEntity
  8
0
100
AcDbLine
 10
439.4580060627355
 20
195.8915947562573
 30
0.0
 11
445.1542030627356
 21
195.8915947562573
 31
0.0
  0
LINE
  5
A45
330
2
100
AcDbEntity
  8
0
100
AcDbLine
 10
441.7959880627354
 20
194.1474547562572
 30
0.0
 11
446.2290020627355
 21
194.1445707562572
 31
0.0
  0
ARC
  5
A46
330
2
100
AcDbEntity
  8
HIDS
100
AcDbCircle
 10
429.9580060627355
 20
268.1415947562573
 30
0.0
 40
20.0
100
AcDbArc
 50
17.4576000000008
 51
342.5423890000018
  0
LINE
  5
A47
330
2
100
AcDbEntity
  8
HIDS
100
AcDbLine
 10
452.9580060627355
 20
262.1416717562573
 30
0.0
 11
444.9580060627355
 21
262.1416557562572
 31
0.0
  0
LINE
  5
A48
330
2
100
AcDbEntity
  8
HIDS
100
AcDbLine
 10
452.9580060627355
 20
274.1416717562573
 30
0.0
 11
444.9580060627355
 21
274.1416557562572
 31
0.0
  0
LINE
  5
A49
330
2
100
AcDbEntity
  8
HIDS
100
AcDbLine
 10
444.9580060627355
 20
262.1416557562572
 30
0.0
 11
444.9580060627355
 21
274.1416557562572
 31
0.0
  0
LINE
  5
A4A
330
2
100
AcDbEntity
  8
HIDS
100
AcDbLine
 10
452.9580060627355
 20
262.1416717562573
 30
0.0
 11
452.9580060627355
 21
274.1416717562573
 31
0.0
  0
ARC
  5
A4B
330
2
100
AcDbEntity
  8
0
100
AcDbCircle
 10
509.9580060627356
 20
301.4735497562572
 30
0.0
 40
10.0
100
AcDbArc
 50
0.0
 51
54.66009900000051
  0
ARC
  5
A4C
330
2
100
AcDbEntity
  8
0
100
AcDbCircle
 10
461.7723980627354
 20
335.6415947562572
 30
0.0
 40
10.0
100
AcDbArc
 50
54.65995000000066
 51
90.0
  0
LINE
  5
132F
330
2
100
AcDbEntity
  8
CENTER
100
AcDbLine
 10
1334.415684569602
 20
242.7520987562573
 30
0.0
 11
1334.415684569602
 21
309.5291097562573
 31
0.0
  0
LINE
  5
1330
330
2
100
AcDbEntity
  8
0
100
AcDbLine
 10
1359.415691569602
 20
298.1416097562572
 30
0.0
 11
1359.415691569602
 21
256.1415947562573
 31
0.0
  0
LINE
  5
1331
330
2
100
AcDbEntity
  8
0
100
AcDbLine
 10
1309.415684569602
 20
298.1416097562572
 30
0.0
 11
1309.415684569602
 21
256.1415947562573
 31
0.0
  0
LINE
  5
1333
330
2
100
AcDbEntity
  8
0
100
AcDbLine
 10
1357.915691569602
 20
254.1415947562573
 30
0.0
 11
1311.415684569602
 21
254.1415947562573
 31
0.0
  0
LINE
  5
1334
330
2
100
AcDbEntity
  8
0
100
AcDbLine
 10
1359.415691569602
 20
256.1415947562573
 30
0.0
 11
1309.415684569602
 21
256.1415947562573
 31
0.0
  0
LINE
  5
1335
330
2
100
AcDbEntity
  8
0
100
AcDbLine
 10
1311.915684569602
 20
254.1415947562573
 30
0.0
 11
1311.915684569602
 21
252.6415947562572
 31
0.0
  0
LINE
  5
1336
330
2
100
AcDbEntity
  8
0
100
AcDbLine
 10
1311.415684569602
 20
254.1415947562573
 30
0.0
 11
1309.415684569602
 21
256.1415947562573
 31
0.0
  0
LINE
  5
1337
330
2
100
AcDbEntity
  8
0
100
AcDbLine
 10
1357.915691569602
 20
254.1415947562573
 30
0.0
 11
1357.915691569602
 21
252.6415947562572
 31
0.0
  0
LINE
  5
1338
330
2
100
AcDbEntity
  8
0
100
AcDbLine
 10
1359.415691569602
 20
256.1415947562573
 30
0.0
 11
1357.415691569602
 21
254.1415947562573
 31
0.0
  0
LINE
  5
1339
330
2
100
AcDbEntity
  8
CENTER
100
AcDbLine
 10
1369.459291550811
 20
282.1415947562572
 30
0.0
 11
1299.372077588393
 21
282.1415947562572
 31
0.0
  0
LINE
  5
133A
330
2
100
AcDbEntity
  8
0
100
AcDbLine
 10
1354.577775753575
 20
299.1416097562572
 30
0.0
 11
1314.253593385628
 21
299.1416097562572
 31
0.0
  0
LINE
  5
133B
330
2
100
AcDbEntity
  8
0
100
AcDbLine
 10
1351.915684569602
 20
298.1416097562572
 30
0.0
 11
1316.915684569602
 21
298.1416097562572
 31
0.0
  0
LINE
  5
133C
330
2
100
AcDbEntity
  8
0
100
AcDbLine
 10
1359.415691569602
 20
266.1415947562573
 30
0.0
 11
1309.415684569602
 21
266.1415947562573
 31
0.0
  0
LINE
  5
133D
330
2
100
AcDbEntity
  8
0
100
AcDbLine
 10
1359.415691569602
 20
267.1415947562572
 30
0.0
 11
1309.415684569602
 21
267.1415947562572
 31
0.0
  0
ARC
  5
133E
330
2
100
AcDbEntity
  8
0
100
AcDbCircle
 10
1315.022695323195
 20
297.6477224805037
 30
0.0
 40
1.3
100
AcDbArc
 50
5.000000000000026
 51
74.1191499917157
  0
LINE
  5
133F
330
2
100
AcDbEntity
  8
0
100
AcDbLine
 10
1316.915684569602
 20
296.6416097562572
 30
0.0
 11
1309.415684569602
 21
296.6416097562573
 31
0.0
  0
LINE
  5
1340
330
2
100
AcDbEntity
  8
0
100
AcDbLine
 10
1314.945424392766
 20
298.7940512936349
 30
0.0
 11
1314.965684569602
 21
299.0050280390966
 31
0.0
  0
SPLINE
  5
1341
330
2
100
AcDbEntity
  8
0
100
AcDbSpline
210
0.0
220
0.0
230
1.0
 70
     8
 71
     3
 72
    11
 73
     7
 74
     0
 42
0.0000000001
 43
0.0000000001
 40
0.0
 40
0.0
 40
0.0
 40
0.0
 40
0.4601364636755307
 40
1.04988694485363
 40
1.713742833862792
 40
2.320347933405154
 40
2.320347933405154
 40
2.320347933405154
 40
2.320347933405179
 10
1312.628184569147
 20
297.7246097562573
 30
0.0
 10
1312.605766912039
 20
297.8796331959372
 30
0.0
 10
1312.554616856806
 20
298.2333480138547
 30
0.0
 10
1312.118731695272
 20
298.6580756854564
 30
0.0
 10
1311.513680980264
 20
298.8772628654222
 30
0.0
 10
1311.088496356089
 20
298.8082715658116
 30
0.0
 10
1310.885944746438
 20
298.7940512936349
 30
0.0
  0
LINE
  5
1342
330
2
100
AcDbEntity
  8
0
100
AcDbLine
 10
1311.577775753575
 20
299.1416097562572
 30
0.0
 11
1310.415684569602
 21
299.1416097562572
 31
0.0
  0
LINE
  5
1343
330
2
100
AcDbEntity
  8
0
100
AcDbLine
 10
1310.885944746438
 20
298.7940512936349
 30
0.0
 11
1310.865684569602
 21
299.0050280390966
 31
0.0
  0
LINE
  5
1344
330
2
100
AcDbEntity
  8
0
100
AcDbLine
 10
1312.628184569147
 20
297.7246097562573
 30
0.0
 11
1313.203184570057
 21
297.7246097562573
 31
0.0
  0
ARC
  5
1345
330
2
100
AcDbEntity
  8
0
100
AcDbCircle
 10
1310.808673816009
 20
297.6477224805037
 30
0.0
 40
1.3
100
AcDbArc
 50
105.880850008278
 51
174.9999999999999
  0
LINE
  5
1346
330
2
100
AcDbEntity
  8
0
100
AcDbLine
 10
1310.415684569602
 20
299.1416097562572
 30
0.0
 11
1309.415684569602
 21
298.1416097562572
 31
0.0
  0
ARC
  5
1347
330
2
100
AcDbEntity
  8
0
100
AcDbCircle
 10
1312.915684569602
 20
290.2416097562574
 30
0.0
 40
9.0
100
AcDbArc
 50
74.1191499917157
 51
105.880850008278
  0
SPLINE
  5
1348
330
2
100
AcDbEntity
  8
0
100
AcDbSpline
210
0.0
220
0.0
230
1.0
 70
     8
 71
     3
 72
    11
 73
     7
 74
     0
 42
0.0000000001
 43
0.0000000001
 40
0.0
 40
0.0
 40
0.0
 40
0.0
 40
0.4601364636755307
 40
1.04988694485363
 40
1.713742833862792
 40
2.320347933405154
 40
2.320347933405154
 40
2.320347933405154
 40
2.320347933405179
 10
1313.203184570057
 20
297.7246097562573
 30
0.0
 10
1313.225602227165
 20
297.8796331959372
 30
0.0
 10
1313.276752282398
 20
298.2333480138547
 30
0.0
 10
1313.712637443932
 20
298.6580756854564
 30
0.0
 10
1314.317688158939
 20
298.8772628654222
 30
0.0
 10
1314.742872783115
 20
298.8082715658116
 30
0.0
 10
1314.945424392766
 20
298.7940512936349
 30
0.0
  0
LINE
  5
1349
330
2
100
AcDbEntity
  8
0
100
AcDbLine
 10
1309.415684569602
 20
296.6416097562573
 30
0.0
 11
1309.51362070849
 21
297.7610249460756
 31
0.0
  0
LINE
  5
134A
330
2
100
AcDbEntity
  8
0
100
AcDbLine
 10
1317.415684569602
 20
299.1416097562572
 30
0.0
 11
1316.915684569602
 21
298.6416097562572
 31
0.0
  0
LINE
  5
134B
330
2
100
AcDbEntity
  8
0
100
AcDbLine
 10
1316.915684569602
 20
298.6416097562572
 30
0.0
 11
1315.860661959222
 21
298.6416097562572
 31
0.0
  0
LINE
  5
134C
330
2
100
AcDbEntity
  8
0
100
AcDbLine
 10
1316.915684569602
 20
296.6416097562572
 30
0.0
 11
1316.915684569602
 21
298.6416097562573
 31
0.0
  0
LINE
  5
134D
330
2
100
AcDbEntity
  8
0
100
AcDbLine
 10
1316.415684569602
 20
296.6416097562573
 30
0.0
 11
1316.317748430714
 21
297.7610249460756
 31
0.0
  0
LINE
  5
134E
330
2
100
AcDbEntity
  8
0
100
AcDbLine
 10
1360.290691569602
 20
271.6415947562572
 30
0.0
 11
1358.290691569602
 21
271.6415947562572
 31
0.0
  0
LINE
  5
134F
330
2
100
AcDbEntity
  8
0
100
AcDbLine
 10
1360.290691569602
 20
292.6415947562572
 30
0.0
 11
1358.290691569602
 21
292.6415947562572
 31
0.0
  0
SPLINE
  5
1350
330
2
100
AcDbEntity
  8
0
100
AcDbSpline
210
0.0
220
0.0
230
1.0
 70
     8
 71
     3
 72
    11
 73
     7
 74
     0
 42
0.0000000001
 43
0.0000000001
 40
0.0
 40
0.0
 40
0.0
 40
0.0
 40
0.4601364636755307
 40
1.04988694485363
 40
1.713742833862792
 40
2.320347933405154
 40
2.320347933405154
 40
2.320347933405154
 40
2.320347933405179
 10
1356.203184570057
 20
297.7246097562573
 30
0.0
 10
1356.225602227165
 20
297.8796331959372
 30
0.0
 10
1356.276752282398
 20
298.2333480138547
 30
0.0
 10
1356.712637443932
 20
298.6580756854564
 30
0.0
 10
1357.317688158939
 20
298.8772628654222
 30
0.0
 10
1357.742872783115
 20
298.8082715658116
 30
0.0
 10
1357.945424392766
 20
298.7940512936349
 30
0.0
  0
LINE
  5
1351
330
2
100
AcDbEntity
  8
0
100
AcDbLine
 10
1356.203184570057
 20
297.7246097562573
 30
0.0
 11
1355.628184569147
 21
297.7246097562573
 31
0.0
  0
LINE
  5
1352
330
2
100
AcDbEntity
  8
0
100
AcDbLine
 10
1357.253593385628
 20
299.1416097562572
 30
0.0
 11
1358.415684569602
 21
299.1416097562572
 31
0.0
  0
LINE
  5
1353
330
2
100
AcDbEntity
  8
0
100
AcDbLine
 10
1357.945424392766
 20
298.7940512936349
 30
0.0
 11
1357.965684569602
 21
299.0050280390966
 31
0.0
  0
ARC
  5
1354
330
2
100
AcDbEntity
  8
0
100
AcDbCircle
 10
1353.808673816009
 20
297.6477224805037
 30
0.0
 40
1.3
100
AcDbArc
 50
105.880850008278
 51
174.9999999999999
  0
LINE
  5
1355
330
2
100
AcDbEntity
  8
0
100
AcDbLine
 10
1351.915684569602
 20
298.6416097562572
 30
0.0
 11
1352.970707179982
 21
298.6416097562572
 31
0.0
  0
LINE
  5
1356
330
2
100
AcDbEntity
  8
0
100
AcDbLine
 10
1353.885944746438
 20
298.7940512936349
 30
0.0
 11
1353.865684569602
 21
299.0050280390966
 31
0.0
  0
LINE
  5
1357
330
2
100
AcDbEntity
  8
0
100
AcDbLine
 10
1351.415684569602
 20
299.1416097562572
 30
0.0
 11
1351.915684569602
 21
298.6416097562572
 31
0.0
  0
ARC
  5
1358
330
2
100
AcDbEntity
  8
0
100
AcDbCircle
 10
1355.915684569602
 20
290.2416097562574
 30
0.0
 40
9.0
100
AcDbArc
 50
74.1191499917157
 51
105.880850008278
  0
SPLINE
  5
1359
330
2
100
AcDbEntity
  8
0
100
AcDbSpline
210
0.0
220
0.0
230
1.0
 70
     8
 71
     3
 72
    11
 73
     7
 74
     0
 42
0.0000000001
 43
0.0000000001
 40
0.0
 40
0.0
 40
0.0
 40
0.0
 40
0.4601364636755307
 40
1.04988694485363
 40
1.713742833862792
 40
2.320347933405154
 40
2.320347933405154
 40
2.320347933405154
 40
2.320347933405179
 10
1355.628184569147
 20
297.7246097562573
 30
0.0
 10
1355.605766912039
 20
297.8796331959372
 30
0.0
 10
1355.554616856806
 20
298.2333480138547
 30
0.0
 10
1355.118731695272
 20
298.6580756854564
 30
0.0
 10
1354.513680980265
 20
298.8772628654222
 30
0.0
 10
1354.088496356089
 20
298.8082715658116
 30
0.0
 10
1353.885944746438
 20
298.7940512936349
 30
0.0
  0
LINE
  5
135A
330
2
100
AcDbEntity
  8
0
100
AcDbLine
 10
1358.415684569602
 20
299.1416097562572
 30
0.0
 11
1359.415684569602
 21
298.1416097562572
 31
0.0
  0
ARC
  5
135B
330
2
100
AcDbEntity
  8
0
100
AcDbCircle
 10
1358.022695323195
 20
297.6477224805037
 30
0.0
 40
1.3
100
AcDbArc
 50
5.000000000000026
 51
74.1191499917157
  0
LINE
  5
135C
330
2
100
AcDbEntity
  8
0
100
AcDbLine
 10
1351.915684569602
 20
296.6416097562572
 30
0.0
 11
1359.415684569602
 21
296.6416097562573
 31
0.0
  0
LINE
  5
135D
330
2
100
AcDbEntity
  8
0
100
AcDbLine
 10
1359.415684569602
 20
296.6416097562573
 30
0.0
 11
1359.317748430714
 21
297.7610249460756
 31
0.0
  0
LINE
  5
135E
330
2
100
AcDbEntity
  8
0
100
AcDbLine
 10
1351.915684569602
 20
296.6416097562572
 30
0.0
 11
1351.915684569602
 21
298.6416097562573
 31
0.0
  0
LINE
  5
135F
330
2
100
AcDbEntity
  8
0
100
AcDbLine
 10
1352.415684569602
 20
296.6416097562573
 30
0.0
 11
1352.51362070849
 21
297.7610249460756
 31
0.0
  0
LINE
  5
1360
330
2
100
AcDbEntity
  8
CENTER
100
AcDbLine
 10
156.4579940627354
 20
550.0575342617512
 30
0.0
 11
156.4579940627354
 21
620.1447482241682
 31
0.0
  0
LINE
  5
1361
330
2
100
AcDbEntity
  8
0
100
AcDbLine
 10
181.4579940627354
 20
608.1011412429598
 30
0.0
 11
181.4577960627355
 21
562.1011412429598
 31
0.0
  0
LINE
  5
1362
330
2
100
AcDbEntity
  8
0
100
AcDbLine
 10
131.4578870627356
 20
562.1011412429598
 30
0.0
 11
131.4578870627356
 21
608.1011412429598
 31
0.0
  0
LINE
  5
1363
330
2
100
AcDbEntity
  8
0
100
AcDbLine
 10
133.4578870627356
 20
602.6011412429597
 30
0.0
 11
133.4578870627356
 21
567.6011412429597
 31
0.0
  0
LINE
  5
1364
330
2
100
AcDbEntity
  8
0
100
AcDbLine
 10
179.4577960627355
 20
602.6011412429597
 30
0.0
 11
179.4577960627355
 21
567.6011412429597
 31
0.0
  0
LINE
  5
1365
330
2
100
AcDbEntity
  8
0
100
AcDbLine
 10
133.4578870627356
 20
560.1011412429597
 30
0.0
 11
179.4577960627355
 21
560.1011412429597
 31
0.0
  0
LINE
  5
1366
330
2
100
AcDbEntity
  8
0
100
AcDbLine
 10
173.9577960627354
 20
562.1011412429598
 30
0.0
 11
138.9578870627356
 21
562.1011412429598
 31
0.0
  0
LINE
  5
1367
330
2
100
AcDbEntity
  8
0
100
AcDbLine
 10
138.9578870627356
 20
563.6010492429598
 30
0.0
 11
138.9578870627356
 21
560.1011412429597
 31
0.0
  0
CIRCLE
  5
1368
330
2
100
AcDbEntity
  8
0
100
AcDbCircle
 10
134.9578870627356
 20
563.6010492429598
 30
0.0
 40
3.500000000000028
  0
LINE
  5
1369
330
2
100
AcDbEntity
  8
0
100
AcDbLine
 10
131.4578870627356
 20
562.1011412429598
 30
0.0
 11
133.4578870627356
 21
560.1011412429597
 31
0.0
  0
ARC
  5
136A
330
2
100
AcDbEntity
  8
0
100
AcDbCircle
 10
134.9578870627356
 20
563.6010492429598
 30
0.0
 40
4.0
100
AcDbArc
 50
0.0
 51
90.0
  0
ARC
  5
136B
330
2
100
AcDbEntity
  8
0
100
AcDbCircle
 10
134.9578870627356
 20
563.6010492429598
 30
0.0
 40
2.049999999999998
100
AcDbArc
 50
81.93803991601789
 51
90.0
  0
ARC
  5
136C
330
2
100
AcDbEntity
  8
0
100
AcDbCircle
 10
134.9578870627356
 20
563.6010492429598
 30
0.0
 40
2.049999999999998
100
AcDbArc
 50
90.0
 51
98.06196008398211
  0
ARC
  5
136D
330
2
100
AcDbEntity
  8
0
100
AcDbCircle
 10
134.9578870627356
 20
563.6010492429598
 30
0.0
 40
2.049999999999998
100
AcDbArc
 50
180.0
 51
188.0619600839816
  0
ARC
  5
136E
330
2
100
AcDbEntity
  8
0
100
AcDbCircle
 10
134.9578870627356
 20
563.6010492429598
 30
0.0
 40
2.049999999999998
100
AcDbArc
 50
351.9380399160183
 51
0.0
  0
ARC
  5
136F
330
2
100
AcDbEntity
  8
0
100
AcDbCircle
 10
134.9578870627356
 20
563.6010492429598
 30
0.0
 40
2.049999999999998
100
AcDbArc
 50
270.0
 51
278.061960083982
  0
ARC
  5
1370
330
2
100
AcDbEntity
  8
0
100
AcDbCircle
 10
134.9578870627356
 20
563.6010492429598
 30
0.0
 40
2.049999999999998
100
AcDbArc
 50
261.9380399160178
 51
270.0
  0
ARC
  5
1371
330
2
100
AcDbEntity
  8
0
100
AcDbCircle
 10
136.9875870627354
 20
561.5713492429597
 30
0.0
 40
1.742199999999999
100
AcDbArc
 50
89.99869033450025
 51
180.0013096654997
  0
ARC
  5
1372
330
2
100
AcDbEntity
  8
0
100
AcDbCircle
 10
132.9281870627353
 20
561.5713492429597
 30
0.0
 40
1.742199999999999
100
AcDbArc
 50
359.9986903345002
 51
90.00130966549322
  0
ARC
  5
1373
330
2
100
AcDbEntity
  8
0
100
AcDbCircle
 10
136.9875870627354
 20
565.6307492429597
 30
0.0
 40
1.742199999999999
100
AcDbArc
 50
179.9986903345002
 51
270.0013096654997
  0
ARC
  5
1374
330
2
100
AcDbEntity
  8
0
100
AcDbCircle
 10
134.9578870627356
 20
563.6010492429598
 30
0.0
 40
2.049999999999998
100
AcDbArc
 50
171.9380399160183
 51
180.0
  0
ARC
  5
1375
330
2
100
AcDbEntity
  8
0
100
AcDbCircle
 10
132.9281870627353
 20
565.6307492429597
 30
0.0
 40
1.742199999999999
100
AcDbArc
 50
269.9986903345067
 51
0.0013096654997424
  0
ARC
  5
1376
330
2
100
AcDbEntity
  8
0
100
AcDbCircle
 10
134.9578870627356
 20
563.6010492429598
 30
0.0
 40
2.049999999999998
100
AcDbArc
 50
0.0
 51
8.061960083981649
  0
LINE
  5
1377
330
2
100
AcDbEntity
  8
0
100
AcDbLine
 10
134.9578870627356
 20
567.6011412429597
 30
0.0
 11
131.4578870627356
 21
567.6011412429597
 31
0.0
  0
LINE
  5
1378
330
2
100
AcDbEntity
  8
0
100
AcDbLine
 10
179.4577960627355
 20
560.1011412429597
 30
0.0
 11
181.4577960627355
 21
562.1011412429598
 31
0.0
  0
LINE
  5
1379
330
2
100
AcDbEntity
  8
0
100
AcDbLine
 10
181.4577960627355
 20
562.1011412429598
 30
0.0
 11
179.4577960627355
 21
560.1011412429597
 31
0.0
  0
LINE
  5
137A
330
2
100
AcDbEntity
  8
0
100
AcDbLine
 10
173.9577960627354
 20
563.6010492429598
 30
0.0
 11
173.9577960627354
 21
560.1011412429597
 31
0.0
  0
CIRCLE
  5
137B
330
2
100
AcDbEntity
  8
0
100
AcDbCircle
 10
177.9579940627354
 20
563.6010492429598
 30
0.0
 40
3.500000000000028
  0
ARC
  5
137C
330
2
100
AcDbEntity
  8
0
100
AcDbCircle
 10
177.9579940627354
 20
563.6010492429598
 30
0.0
 40
2.049999999999998
100
AcDbArc
 50
90.0
 51
98.06196008398211
  0
ARC
  5
137D
330
2
100
AcDbEntity
  8
0
100
AcDbCircle
 10
177.9579940627354
 20
563.6010492429598
 30
0.0
 40
2.049999999999998
100
AcDbArc
 50
81.93803991601789
 51
90.0
  0
ARC
  5
137E
330
2
100
AcDbEntity
  8
0
100
AcDbCircle
 10
177.9579940627354
 20
563.6010492429598
 30
0.0
 40
2.049999999999998
100
AcDbArc
 50
351.9380399160183
 51
0.0
  0
ARC
  5
137F
330
2
100
AcDbEntity
  8
0
100
AcDbCircle
 10
177.9579940627354
 20
563.6010492429598
 30
0.0
 40
2.049999999999998
100
AcDbArc
 50
261.9380399160178
 51
270.0
  0
ARC
  5
1380
330
2
100
AcDbEntity
  8
0
100
AcDbCircle
 10
177.9579940627354
 20
563.6010492429598
 30
0.0
 40
2.049999999999998
100
AcDbArc
 50
270.0
 51
278.061960083982
  0
ARC
  5
1381
330
2
100
AcDbEntity
  8
0
100
AcDbCircle
 10
179.9876940627354
 20
561.5713492429597
 30
0.0
 40
1.742199999999999
100
AcDbArc
 50
89.99869033450025
 51
180.0013096654997
  0
ARC
  5
1382
330
2
100
AcDbEntity
  8
0
100
AcDbCircle
 10
179.9876940627354
 20
565.6307492429597
 30
0.0
 40
1.742199999999999
100
AcDbArc
 50
179.9986903345002
 51
270.0013096654997
  0
ARC
  5
1383
330
2
100
AcDbEntity
  8
0
100
AcDbCircle
 10
177.9579940627354
 20
563.6010492429598
 30
0.0
 40
2.049999999999998
100
AcDbArc
 50
0.0
 51
8.061960083981649
  0
LINE
  5
1384
330
2
100
AcDbEntity
  8
0
100
AcDbLine
 10
177.9577960627355
 20
567.6011412429597
 30
0.0
 11
181.4577960627355
 21
567.6011412429597
 31
0.0
  0
ARC
  5
1385
330
2
100
AcDbEntity
  8
0
100
AcDbCircle
 10
177.9579940627354
 20
563.6010492429598
 30
0.0
 40
2.049999999999998
100
AcDbArc
 50
180.0
 51
188.0619600839816
  0
ARC
  5
1386
330
2
100
AcDbEntity
  8
0
100
AcDbCircle
 10
177.9579940627354
 20
563.6010492429598
 30
0.0
 40
2.049999999999998
100
AcDbArc
 50
171.9380399160183
 51
180.0
  0
ARC
  5
1387
330
2
100
AcDbEntity
  8
0
100
AcDbCircle
 10
175.9282940627354
 20
561.5713492429597
 30
0.0
 40
1.742199999999999
100
AcDbArc
 50
359.9986903345002
 51
90.00130966549322
  0
ARC
  5
1388
330
2
100
AcDbEntity
  8
0
100
AcDbCircle
 10
175.9282940627354
 20
565.6307492429597
 30
0.0
 40
1.742199999999999
100
AcDbArc
 50
269.9986903345067
 51
0.0013096654997424
  0
ARC
  5
1389
330
2
100
AcDbEntity
  8
0
100
AcDbCircle
 10
177.9579940627354
 20
563.6010492429598
 30
0.0
 40
4.0
100
AcDbArc
 50
90.0
 51
180.0
  0
LINE
  5
138A
330
2
100
AcDbEntity
  8
0
100
AcDbLine
 10
173.9577960627354
 20
608.1011412429598
 30
0.0
 11
138.9578870627356
 21
608.1011412429598
 31
0.0
  0
LINE
  5
138B
330
2
100
AcDbEntity
  8
0
100
AcDbLine
 10
133.4578870627356
 20
610.1011412429597
 30
0.0
 11
179.4577960627355
 21
610.1011412429597
 31
0.0
  0
ARC
  5
138D
330
2
100
AcDbEntity
  8
0
100
AcDbCircle
 10
136.9875870627354
 20
608.6308412429596
 30
0.0
 40
1.742199999999999
100
AcDbArc
 50
179.9986903345002
 51
270.0013096654997
  0
ARC
  5
138E
330
2
100
AcDbEntity
  8
0
100
AcDbCircle
 10
132.9281870627353
 20
608.6308412429596
 30
0.0
 40
1.742199999999999
100
AcDbArc
 50
269.9986903345067
 51
0.0013096654997424
  0
LINE
  5
138F
330
2
100
AcDbEntity
  8
0
100
AcDbLine
 10
138.9578870627356
 20
606.6011412429597
 30
0.0
 11
138.9578870627356
 21
610.1009572429598
 31
0.0
  0
CIRCLE
  5
1390
330
2
100
AcDbEntity
  8
0
100
AcDbCircle
 10
134.9578870627356
 20
606.6011412429597
 30
0.0
 40
3.500000000000028
  0
ARC
  5
1391
330
2
100
AcDbEntity
  8
0
100
AcDbCircle
 10
134.9578870627356
 20
606.6011412429597
 30
0.0
 40
4.0
100
AcDbArc
 50
270.0
 51
0.0
  0
ARC
  5
1392
330
2
100
AcDbEntity
  8
0
100
AcDbCircle
 10
136.9875870627354
 20
604.5714412429597
 30
0.0
 40
1.742199999999999
100
AcDbArc
 50
89.99869033450025
 51
180.0013096654997
  0
ARC
  5
1393
330
2
100
AcDbEntity
  8
0
100
AcDbCircle
 10
134.9578870627356
 20
606.6011412429597
 30
0.0
 40
2.049999999999998
100
AcDbArc
 50
270.0
 51
278.061960083982
  0
ARC
  5
1394
330
2
100
AcDbEntity
  8
0
100
AcDbCircle
 10
132.9281870627353
 20
604.5714412429597
 30
0.0
 40
1.742199999999999
100
AcDbArc
 50
359.9986903345002
 51
90.00130966549322
  0
ARC
  5
1395
330
2
100
AcDbEntity
  8
0
100
AcDbCircle
 10
134.9578870627356
 20
606.6011412429597
 30
0.0
 40
2.049999999999998
100
AcDbArc
 50
261.9380399160178
 51
270.0
  0
ARC
  5
1396
330
2
100
AcDbEntity
  8
0
100
AcDbCircle
 10
134.9578870627356
 20
606.6011412429597
 30
0.0
 40
2.049999999999998
100
AcDbArc
 50
180.0
 51
188.0619600839816
  0
ARC
  5
1397
330
2
100
AcDbEntity
  8
0
100
AcDbCircle
 10
134.9578870627356
 20
606.6011412429597
 30
0.0
 40
2.049999999999998
100
AcDbArc
 50
171.9380399160183
 51
180.0
  0
ARC
  5
1398
330
2
100
AcDbEntity
  8
0
100
AcDbCircle
 10
134.9578870627356
 20
606.6011412429597
 30
0.0
 40
2.049999999999998
100
AcDbArc
 50
351.9380399160183
 51
0.0
  0
ARC
  5
1399
330
2
100
AcDbEntity
  8
0
100
AcDbCircle
 10
134.9578870627356
 20
606.6011412429597
 30
0.0
 40
2.049999999999998
100
AcDbArc
 50
0.0
 51
8.061960083981649
  0
LINE
  5
139A
330
2
100
AcDbEntity
  8
0
100
AcDbLine
 10
134.9578870627356
 20
602.6011412429597
 30
0.0
 11
131.4578870627356
 21
602.6011412429597
 31
0.0
  0
ARC
  5
139B
330
2
100
AcDbEntity
  8
0
100
AcDbCircle
 10
134.9578870627356
 20
606.6011412429597
 30
0.0
 40
2.049999999999998
100
AcDbArc
 50
81.93803991601789
 51
90.0
  0
ARC
  5
139C
330
2
100
AcDbEntity
  8
0
100
AcDbCircle
 10
134.9578870627356
 20
606.6011412429597
 30
0.0
 40
2.049999999999998
100
AcDbArc
 50
90.0
 51
98.06196008398211
  0
LINE
  5
139D
330
2
100
AcDbEntity
  8
0
100
AcDbLine
 10
131.4578870627356
 20
608.1011412429598
 30
0.0
 11
133.4578870627356
 21
610.1011412429597
 31
0.0
  0
LINE
  5
139E
330
2
100
AcDbEntity
  8
0
100
AcDbLine
 10
131.4578870627356
 20
608.1011412429598
 30
0.0
 11
133.4578870627356
 21
610.1011412429597
 31
0.0
  0
ARC
  5
139F
330
2
100
AcDbEntity
  8
0
100
AcDbCircle
 10
179.9876940627354
 20
608.6308412429596
 30
0.0
 40
1.742199999999999
100
AcDbArc
 50
179.9986903345002
 51
270.0013096654997
  0
LINE
  5
13A0
330
2
100
AcDbEntity
  8
0
100
AcDbLine
 10
173.9577960627354
 20
606.6011412429597
 30
0.0
 11
173.9577960627354
 21
610.1009572429598
 31
0.0
  0
ARC
  5
13A1
330
2
100
AcDbEntity
  8
0
100
AcDbCircle
 10
175.9282940627354
 20
608.6308412429596
 30
0.0
 40
1.742199999999999
100
AcDbArc
 50
269.9986903345067
 51
0.0013096654997424
  0
CIRCLE
  5
13A2
330
2
100
AcDbEntity
  8
0
100
AcDbCircle
 10
177.9579940627354
 20
606.6011412429597
 30
0.0
 40
3.500000000000028
  0
ARC
  5
13A3
330
2
100
AcDbEntity
  8
0
100
AcDbCircle
 10
179.9876940627354
 20
604.5714412429597
 30
0.0
 40
1.742199999999999
100
AcDbArc
 50
89.99869033450025
 51
180.0013096654997
  0
LINE
  5
13A4
330
2
100
AcDbEntity
  8
0
100
AcDbLine
 10
177.9577960627355
 20
602.6011412429597
 30
0.0
 11
181.4577960627355
 21
602.6011412429597
 31
0.0
  0
ARC
  5
13A5
330
2
100
AcDbEntity
  8
0
100
AcDbCircle
 10
177.9579940627354
 20
606.6011412429597
 30
0.0
 40
2.049999999999998
100
AcDbArc
 50
261.9380399160178
 51
270.0
  0
ARC
  5
13A6
330
2
100
AcDbEntity
  8
0
100
AcDbCircle
 10
177.9579940627354
 20
606.6011412429597
 30
0.0
 40
2.049999999999998
100
AcDbArc
 50
270.0
 51
278.061960083982
  0
ARC
  5
13A7
330
2
100
AcDbEntity
  8
0
100
AcDbCircle
 10
177.9579940627354
 20
606.6011412429597
 30
0.0
 40
2.049999999999998
100
AcDbArc
 50
351.9380399160183
 51
0.0
  0
ARC
  5
13A8
330
2
100
AcDbEntity
  8
0
100
AcDbCircle
 10
177.9579940627354
 20
606.6011412429597
 30
0.0
 40
2.049999999999998
100
AcDbArc
 50
0.0
 51
8.061960083981649
  0
ARC
  5
13A9
330
2
100
AcDbEntity
  8
0
100
AcDbCircle
 10
177.9579940627354
 20
606.6011412429597
 30
0.0
 40
2.049999999999998
100
AcDbArc
 50
180.0
 51
188.0619600839816
  0
ARC
  5
13AA
330
2
100
AcDbEntity
  8
0
100
AcDbCircle
 10
177.9579940627354
 20
606.6011412429597
 30
0.0
 40
2.049999999999998
100
AcDbArc
 50
171.9380399160183
 51
180.0
  0
ARC
  5
13AB
330
2
100
AcDbEntity
  8
0
100
AcDbCircle
 10
175.9282940627354
 20
604.5714412429597
 30
0.0
 40
1.742199999999999
100
AcDbArc
 50
359.9986903345002
 51
90.00130966549322
  0
ARC
  5
13AC
330
2
100
AcDbEntity
  8
0
100
AcDbCircle
 10
177.9579940627354
 20
606.6011412429597
 30
0.0
 40
4.0
100
AcDbArc
 50
180.0
 51
270.0
  0
LINE
  5
13AD
330
2
100
AcDbEntity
  8
0
100
AcDbLine
 10
181.4579940627354
 20
608.1011412429598
 30
0.0
 11
179.4577960627355
 21
610.1011412429597
 31
0.0
  0
LINE
  5
13AE
330
2
100
AcDbEntity
  8
0
100
AcDbLine
 10
181.4577960627355
 20
608.1011412429598
 30
0.0
 11
179.4577960627355
 21
610.1011412429597
 31
0.0
  0
LINE
  5
13AF
330
2
100
AcDbEntity
  8
0
100
AcDbLine
 10
181.4577960627355
 20
608.1011412429598
 30
0.0
 11
179.4577960627355
 21
610.1011412429597
 31
0.0
  0
ARC
  5
13B0
330
2
100
AcDbEntity
  8
0
100
AcDbCircle
 10
177.9579940627354
 20
606.6011412429597
 30
0.0
 40
2.049999999999998
100
AcDbArc
 50
90.0
 51
98.06196008398211
  0
ARC
  5
13B1
330
2
100
AcDbEntity
  8
0
100
AcDbCircle
 10
177.9579940627354
 20
606.6011412429597
 30
0.0
 40
2.049999999999998
100
AcDbArc
 50
81.93803991601789
 51
90.0
  0
LINE
  5
140A
330
2
100
AcDbEntity
  8
0
100
AcDbLine
 10
181.4579940627354
 20
298.1416097562572
 30
0.0
 11
181.4579940627354
 21
256.1415947562573
 31
0.0
  0
LINE
  5
140B
330
2
100
AcDbEntity
  8
CENTER
100
AcDbLine
 10
156.4579940627354
 20
242.7520987562573
 30
0.0
 11
156.4579940627354
 21
309.5291097562573
 31
0.0
  0
LINE
  5
140D
330
2
100
AcDbEntity
  8
0
100
AcDbLine
 10
131.4579870627353
 20
298.1416097562572
 30
0.0
 11
131.4579870627353
 21
256.1415947562573
 31
0.0
  0
LINE
  5
140E
330
2
100
AcDbEntity
  8
0
100
AcDbLine
 10
131.4579870627353
 20
266.1415947562573
 30
0.0
 11
181.4579940627354
 21
266.1415947562573
 31
0.0
  0
LINE
  5
140F
330
2
100
AcDbEntity
  8
0
100
AcDbLine
 10
131.4579870627353
 20
267.1415947562572
 30
0.0
 11
181.4579940627354
 21
267.1415947562572
 31
0.0
  0
LINE
  5
1410
330
2
100
AcDbEntity
  8
0
100
AcDbLine
 10
132.9579870627353
 20
254.1415947562573
 30
0.0
 11
179.4579940627354
 21
254.1415947562573
 31
0.0
  0
LINE
  5
1411
330
2
100
AcDbEntity
  8
0
100
AcDbLine
 10
131.4579870627353
 20
256.1415947562573
 30
0.0
 11
181.4579940627354
 21
256.1415947562573
 31
0.0
  0
LINE
  5
1412
330
2
100
AcDbEntity
  8
0
100
AcDbLine
 10
131.4579870627353
 20
256.1415947562573
 30
0.0
 11
133.4579870627353
 21
254.1415947562573
 31
0.0
  0
LINE
  5
1413
330
2
100
AcDbEntity
  8
0
100
AcDbLine
 10
132.9579870627353
 20
254.1415947562573
 30
0.0
 11
132.9579870627353
 21
252.6415947562572
 31
0.0
  0
LINE
  5
1414
330
2
100
AcDbEntity
  8
0
100
AcDbLine
 10
130.5829870627353
 20
271.6415947562572
 30
0.0
 11
132.5829870627353
 21
271.6415947562572
 31
0.0
  0
LINE
  5
1415
330
2
100
AcDbEntity
  8
0
100
AcDbLine
 10
179.4579940627354
 20
254.1415947562573
 30
0.0
 11
181.4579940627354
 21
256.1415947562573
 31
0.0
  0
LINE
  5
1416
330
2
100
AcDbEntity
  8
0
100
AcDbLine
 10
178.9579940627354
 20
254.1415947562573
 30
0.0
 11
178.9579940627354
 21
252.6415947562572
 31
0.0
  0
LINE
  5
1417
330
2
100
AcDbEntity
  8
CENTER
100
AcDbLine
 10
121.4143870815269
 20
282.1415947562572
 30
0.0
 11
191.501601043944
 21
282.1415947562572
 31
0.0
  0
LINE
  5
1419
330
2
100
AcDbEntity
  8
0
100
AcDbLine
 10
136.295902878762
 20
299.1416097562572
 30
0.0
 11
176.620085246709
 21
299.1416097562572
 31
0.0
  0
LINE
  5
141A
330
2
100
AcDbEntity
  8
0
100
AcDbLine
 10
138.9579940627354
 20
298.1416097562572
 30
0.0
 11
173.9579940627354
 21
298.1416097562572
 31
0.0
  0
SPLINE
  5
141B
330
2
100
AcDbEntity
  8
0
100
AcDbSpline
210
0.0
220
0.0
230
1.0
 70
     8
 71
     3
 72
    11
 73
     7
 74
     0
 42
0.0000000001
 43
0.0000000001
 40
0.0
 40
0.0
 40
0.0
 40
0.0
 40
0.4601364636755307
 40
1.04988694485363
 40
1.713742833862792
 40
2.320347933405154
 40
2.320347933405154
 40
2.320347933405154
 40
2.320347933405179
 10
135.2454940631905
 20
297.7246097562573
 30
0.0
 10
135.2679117202983
 20
297.8796331959372
 30
0.0
 10
135.3190617755315
 20
298.2333480138547
 30
0.0
 10
135.7549469370651
 20
298.6580756854564
 30
0.0
 10
136.3599976520727
 20
298.8772628654222
 30
0.0
 10
136.7851822762484
 20
298.8082715658116
 30
0.0
 10
136.9877338858996
 20
298.7940512936349
 30
0.0
  0
ARC
  5
141C
330
2
100
AcDbEntity
  8
0
100
AcDbCircle
 10
134.9579940627354
 20
290.2416097562574
 30
0.0
 40
9.0
100
AcDbArc
 50
74.1191499917157
 51
105.880850008278
  0
LINE
  5
141D
330
2
100
AcDbEntity
  8
0
100
AcDbLine
 10
138.9579940627354
 20
296.6416097562572
 30
0.0
 11
131.4579940627354
 21
296.6416097562573
 31
0.0
  0
LINE
  5
141E
330
2
100
AcDbEntity
  8
0
100
AcDbLine
 10
131.4579940627354
 20
296.6416097562573
 30
0.0
 11
131.5559302016233
 21
297.7610249460756
 31
0.0
  0
LINE
  5
141F
330
2
100
AcDbEntity
  8
0
100
AcDbLine
 10
132.4579940627354
 20
299.1416097562572
 30
0.0
 11
131.4579940627354
 21
298.1416097562572
 31
0.0
  0
ARC
  5
1420
330
2
100
AcDbEntity
  8
0
100
AcDbCircle
 10
132.8509833091425
 20
297.6477224805037
 30
0.0
 40
1.3
100
AcDbArc
 50
105.880850008278
 51
174.9999999999999
  0
SPLINE
  5
1421
330
2
100
AcDbEntity
  8
0
100
AcDbSpline
210
0.0
220
0.0
230
1.0
 70
     8
 71
     3
 72
    11
 73
     7
 74
     0
 42
0.0000000001
 43
0.0000000001
 40
0.0
 40
0.0
 40
0.0
 40
0.0
 40
0.4601364636755307
 40
1.04988694485363
 40
1.713742833862792
 40
2.320347933405154
 40
2.320347933405154
 40
2.320347933405154
 40
2.320347933405179
 10
134.6704940622803
 20
297.7246097562573
 30
0.0
 10
134.6480764051725
 20
297.8796331959372
 30
0.0
 10
134.5969263499391
 20
298.2333480138547
 30
0.0
 10
134.1610411884057
 20
298.6580756854564
 30
0.0
 10
133.5559904733981
 20
298.8772628654222
 30
0.0
 10
133.1308058492222
 20
298.8082715658116
 30
0.0
 10
132.9282542395712
 20
298.7940512936349
 30
0.0
  0
LINE
  5
1422
330
2
100
AcDbEntity
  8
0
100
AcDbLine
 10
132.9282542395712
 20
298.7940512936349
 30
0.0
 11
132.9079940627352
 21
299.0050280390966
 31
0.0
  0
LINE
  5
1423
330
2
100
AcDbEntity
  8
0
100
AcDbLine
 10
133.620085246709
 20
299.1416097562572
 30
0.0
 11
132.4579940627354
 21
299.1416097562572
 31
0.0
  0
LINE
  5
1424
330
2
100
AcDbEntity
  8
0
100
AcDbLine
 10
134.6704940622803
 20
297.7246097562573
 30
0.0
 11
135.2454940631905
 21
297.7246097562573
 31
0.0
  0
LINE
  5
1425
330
2
100
AcDbEntity
  8
0
100
AcDbLine
 10
130.5829870627353
 20
292.6415947562572
 30
0.0
 11
132.5829870627353
 21
292.6415947562572
 31
0.0
  0
LINE
  5
1426
330
2
100
AcDbEntity
  8
0
100
AcDbLine
 10
138.4579940627354
 20
296.6416097562573
 30
0.0
 11
138.3600579238475
 21
297.7610249460756
 31
0.0
  0
LINE
  5
1427
330
2
100
AcDbEntity
  8
0
100
AcDbLine
 10
138.9579940627354
 20
296.6416097562572
 30
0.0
 11
138.9579940627354
 21
298.6416097562573
 31
0.0
  0
LINE
  5
1428
330
2
100
AcDbEntity
  8
0
100
AcDbLine
 10
138.9579940627354
 20
298.6416097562572
 30
0.0
 11
137.9029714523558
 21
298.6416097562572
 31
0.0
  0
LINE
  5
1429
330
2
100
AcDbEntity
  8
0
100
AcDbLine
 10
139.4579940627354
 20
299.1416097562572
 30
0.0
 11
138.9579940627354
 21
298.6416097562572
 31
0.0
  0
LINE
  5
142A
330
2
100
AcDbEntity
  8
0
100
AcDbLine
 10
136.9877338858996
 20
298.7940512936349
 30
0.0
 11
137.0079940627354
 21
299.0050280390966
 31
0.0
  0
ARC
  5
142B
330
2
100
AcDbEntity
  8
0
100
AcDbCircle
 10
137.0650048163283
 20
297.6477224805037
 30
0.0
 40
1.3
100
AcDbArc
 50
5.000000000000026
 51
74.1191499917157
  0
LINE
  5
142C
330
2
100
AcDbEntity
  8
0
100
AcDbLine
 10
181.4579940627354
 20
296.6416097562573
 30
0.0
 11
181.3600579238477
 21
297.7610249460756
 31
0.0
  0
LINE
  5
142D
330
2
100
AcDbEntity
  8
0
100
AcDbLine
 10
174.4579940627354
 20
296.6416097562573
 30
0.0
 11
174.5559302016233
 21
297.7610249460756
 31
0.0
  0
LINE
  5
142E
330
2
100
AcDbEntity
  8
0
100
AcDbLine
 10
173.9579940627354
 20
296.6416097562572
 30
0.0
 11
173.9579940627354
 21
298.6416097562573
 31
0.0
  0
LINE
  5
142F
330
2
100
AcDbEntity
  8
0
100
AcDbLine
 10
173.9579940627354
 20
296.6416097562572
 30
0.0
 11
181.4579940627354
 21
296.6416097562573
 31
0.0
  0
SPLINE
  5
1430
330
2
100
AcDbEntity
  8
0
100
AcDbSpline
210
0.0
220
0.0
230
1.0
 70
     8
 71
     3
 72
    11
 73
     7
 74
     0
 42
0.0000000001
 43
0.0000000001
 40
0.0
 40
0.0
 40
0.0
 40
0.0
 40
0.4601364636755307
 40
1.04988694485363
 40
1.713742833862792
 40
2.320347933405154
 40
2.320347933405154
 40
2.320347933405154
 40
2.320347933405179
 10
177.6704940622805
 20
297.7246097562573
 30
0.0
 10
177.6480764051725
 20
297.8796331959372
 30
0.0
 10
177.5969263499393
 20
298.2333480138547
 30
0.0
 10
177.1610411884057
 20
298.6580756854564
 30
0.0
 10
176.5559904733984
 20
298.8772628654222
 30
0.0
 10
176.1308058492224
 20
298.8082715658116
 30
0.0
 10
175.9282542395715
 20
298.7940512936349
 30
0.0
  0
ARC
  5
1431
330
2
100
AcDbEntity
  8
0
100
AcDbCircle
 10
177.9579940627354
 20
290.2416097562574
 30
0.0
 40
9.0
100
AcDbArc
 50
74.1191499917157
 51
105.880850008278
  0
LINE
  5
1432
330
2
100
AcDbEntity
  8
0
100
AcDbLine
 10
175.9282542395715
 20
298.7940512936349
 30
0.0
 11
175.9079940627354
 21
299.0050280390966
 31
0.0
  0
LINE
  5
1433
330
2
100
AcDbEntity
  8
0
100
AcDbLine
 10
173.4579940627354
 20
299.1416097562572
 30
0.0
 11
173.9579940627354
 21
298.6416097562572
 31
0.0
  0
ARC
  5
1434
330
2
100
AcDbEntity
  8
0
100
AcDbCircle
 10
175.8509833091425
 20
297.6477224805037
 30
0.0
 40
1.3
100
AcDbArc
 50
105.880850008278
 51
174.9999999999999
  0
LINE
  5
1435
330
2
100
AcDbEntity
  8
0
100
AcDbLine
 10
173.9579940627354
 20
298.6416097562572
 30
0.0
 11
175.013016673115
 21
298.6416097562572
 31
0.0
  0
ARC
  5
1436
330
2
100
AcDbEntity
  8
0
100
AcDbCircle
 10
180.0650048163283
 20
297.6477224805037
 30
0.0
 40
1.3
100
AcDbArc
 50
5.000000000000026
 51
74.1191499917157
  0
LINE
  5
1437
330
2
100
AcDbEntity
  8
0
100
AcDbLine
 10
180.4579940627354
 20
299.1416097562572
 30
0.0
 11
181.4579940627354
 21
298.1416097562572
 31
0.0
  0
LINE
  5
1438
330
2
100
AcDbEntity
  8
0
100
AcDbLine
 10
179.9877338858996
 20
298.7940512936349
 30
0.0
 11
180.0079940627356
 21
299.0050280390966
 31
0.0
  0
LINE
  5
1439
330
2
100
AcDbEntity
  8
0
100
AcDbLine
 10
178.2454940631905
 20
297.7246097562573
 30
0.0
 11
177.6704940622805
 21
297.7246097562573
 31
0.0
  0
SPLINE
  5
143A
330
2
100
AcDbEntity
  8
0
100
AcDbSpline
210
0.0
220
0.0
230
1.0
 70
     8
 71
     3
 72
    11
 73
     7
 74
     0
 42
0.0000000001
 43
0.0000000001
 40
0.0
 40
0.0
 40
0.0
 40
0.0
 40
0.4601364636755307
 40
1.04988694485363
 40
1.713742833862792
 40
2.320347933405154
 40
2.320347933405154
 40
2.320347933405154
 40
2.320347933405179
 10
178.2454940631905
 20
297.7246097562573
 30
0.0
 10
178.2679117202983
 20
297.8796331959372
 30
0.0
 10
178.3190617755317
 20
298.2333480138547
 30
0.0
 10
178.7549469370653
 20
298.6580756854564
 30
0.0
 10
179.3599976520727
 20
298.8772628654222
 30
0.0
 10
179.7851822762486
 20
298.8082715658116
 30
0.0
 10
179.9877338858996
 20
298.7940512936349
 30
0.0
  0
LINE
  5
143B
330
2
100
AcDbEntity
  8
0
100
AcDbLine
 10
179.295902878762
 20
299.1416097562572
 30
0.0
 11
180.4579940627354
 21
299.1416097562572
 31
0.0
  0
LINE
  5
1511
330
2
100
AcDbEntity
  8
0
100
AcDbLine
 10
131.9583051473182
 20
561.6007231583771
 30
0.0
 11
131.9583051473182
 21
530.1011712429596
 31
0.0
  0
ENDSEC
  0
SECTION
  2
OBJECTS
  0
DICTIONARY
  5
7
330
0
100
AcDbDictionary
  3
ACAD_GROUP
350
75
  3
ACAD_LAYOUT
350
61
  3
ACAD_MLINESTYLE
350
76
  3
ACAD_PLOTSETTINGS
350
77
  3
ACAD_PLOTSTYLENAME
350
6
  3
ACADDIM
350
480
  3
ACDBHEADERROUNDTRIPXREC
350
1850
  3
ACDBVARIABLEDICTIONARY
350
102
  3
DWGPROPS
350
3D2
  0
DICTIONARY
  5
1871
330
2
100
AcDbDictionary
280
     1
  3
ACAD_LAYOUTSELFREF
360
1872
  0
DICTIONARY
  5
1873
330
184A
100
AcDbDictionary
280
     1
  3
ACAD_LAYOUTSELFREF
360
1874
  0
DICTIONARY
  5
75
102
{ACAD_REACTORS
330
7
102
}
330
7
100
AcDbDictionary
  0
DICTIONARY
  5
61
102
{ACAD_REACTORS
330
7
102
}
330
7
100
AcDbDictionary
  0
DICTIONARY
  5
76
102
{ACAD_REACTORS
330
7
102
}
330
7
100
AcDbDictionary
  3
STANDARD
350
78
  0
DICTIONARY
  5
77
102
{ACAD_REACTORS
330
7
102
}
330
7
100
AcDbDictionary
  0
ACDBDICTIONARYWDFLT
  5
6
102
{ACAD_REACTORS
330
7
102
}
330
7
100
AcDbDictionary
281
     1
  3
Normal
350
5
100
AcDbDictionaryWithDefault
340
5
  0
XRECORD
  5
480
102
{ACAD_REACTORS
330
7
102
}
330
7
100
AcDbXrecord
 90
   990106
  3

 60
     0
 61
     0
 62
     1
 63
     3
 64
     1
 65
     0
 66
     0
 67
     3
 68
     1
 69
     0
 70
     0
 71
     0
 72
     0
 40
0.0
170
     2
340
0
  0
DICTIONARY
  5
1850
102
{ACAD_REACTORS
330
7
102
}
330
7
100
AcDbDictionary
  3
CEPSNTYPE
350
185A
  3
DIMSTYLEDATA
350
185E
  3
FINGERPRINTGUID
350
185B
  3
HYPERLINKBASE
350
1853
  3
INSUNITS
350
1859
  3
LAYOUTDICT
350
1855
  3
LWETCUNION
350
1858
  3
PLOTSETDICT
350
1856
  3
PLOTSTYLNAMDICT
350
1857
  3
PSVPSCALE
350
185D
  3
PUCSBASE
350
1861
  3
PUCSORGBACK
350
1867
  3
PUCSORGBOTTOM
350
1863
  3
PUCSORGFRONT
350
1866
  3
PUCSORGLEFT
350
1864
  3
PUCSORGRIGHT
350
1865
  3
PUCSORGTOP
350
1862
  3
PUCSORTHOREF
350
185F
  3
PUCSORTHOVIEW
350
1860
  3
STYLESHEET
350
1854
  3
TSTACKALIGN
350
1851
  3
TSTACKSIZE
350
1852
  3
UCSBASE
350
186A
  3
UCSORGBACK
350
1870
  3
UCSORGBOTTOM
350
186C
  3
UCSORGFRONT
350
186F
  3
UCSORGLEFT
350
186D
  3
UCSORGRIGHT
350
186E
  3
UCSORGTOP
350
186B
  3
UCSORTHOREF
350
1868
  3
UCSORTHOVIEW
350
1869
  3
VERSIONGUID
350
185C
  0
DICTIONARY
  5
102
102
{ACAD_REACTORS
330
7
102
}
330
7
100
AcDbDictionary
  3
DIMASSOC
350
103
  0
XRECORD
  5
3D2
102
{ACAD_REACTORS
330
7
102
}
330
7
100
AcDbXrecord
  1
DWGPROPS COOKIE
  2

  3

  4

  6

  7

  8

  9

300
=
301
=
302
=
303
=
304
=
305
=
306
=
307
=
308
=
309
=
 40
0.5353330671296296
 41
2452052.431989363
 42
2453406.550756377
  1

 90
        0
  0
XRECORD
  5
1872
102
{ACAD_REACTORS
330
1871
102
}
330
1871
100
AcDbXrecord
340
2
  0
XRECORD
  5
1874
102
{ACAD_REACTORS
330
1873
102
}
330
1873
100
AcDbXrecord
340
184A
  0
MLINESTYLE
  5
78
102
{ACAD_REACTORS
330
76
102
}
330
76
100
AcDbMlineStyle
  2
STANDARD
 70
     0
  3

 62
     0
 51
90.0
 52
90.0
 71
     2
 49
0.5
 62
   256
  6
BYLAYER
 49
-0.5
 62
   256
  6
BYLAYER
  0
ACDBPLACEHOLDER
  5
5
102
{ACAD_REACTORS
330
6
102
}
330
6
100
AcDbPlaceHolder
280
     0
  0
XRECORD
  5
185A
102
{ACAD_REACTORS
330
1850
102
}
330
1850
100
AcDbXrecord
 90
        0
  0
XRECORD
  5
185E
102
{ACAD_REACTORS
330
1850
102
}
330
1850
100
AcDbXrecord
1000
DSTYLE
1002
{
1070
   179
 70
     2
1070
   277
 70
     6
1002
}
  0
XRECORD
  5
185B
102
{ACAD_REACTORS
330
1850
102
}
330
1850
100
AcDbXrecord
  1
{6385560B-F4B1-4644-A7C2-A3E32AC3D232}
  0
XRECORD
  5
1853
102
{ACAD_REACTORS
330
1850
102
}
330
1850
100
AcDbXrecord
  1

  0
XRECORD
  5
1859
102
{ACAD_REACTORS
330
1850
102
}
330
1850
100
AcDbXrecord
 90
        0
  0
XRECORD
  5
1855
102
{ACAD_REACTORS
330
1850
102
}
330
1850
100
AcDbXrecord
340
61
  0
XRECORD
  5
1858
102
{ACAD_REACTORS
330
1850
102
}
330
1850
100
AcDbXrecord
 90
    10781
  0
XRECORD
  5
1856
102
{ACAD_REACTORS
330
1850
102
}
330
1850
100
AcDbXrecord
340
77
  0
XRECORD
  5
1857
102
{ACAD_REACTORS
330
1850
102
}
330
1850
100
AcDbXrecord
340
6
  0
XRECORD
  5
185D
102
{ACAD_REACTORS
330
1850
102
}
330
1850
100
AcDbXrecord
 40
0.0
  0
XRECORD
  5
1861
102
{ACAD_REACTORS
330
1850
102
}
330
1850
100
AcDbXrecord
340
0
  0
XRECORD
  5
1867
102
{ACAD_REACTORS
330
1850
102
}
330
1850
100
AcDbXrecord
 10
0.0
 20
0.0
 30
0.0
  0
XRECORD
  5
1863
102
{ACAD_REACTORS
330
1850
102
}
330
1850
100
AcDbXrecord
 10
0.0
 20
0.0
 30
0.0
  0
XRECORD
  5
1866
102
{ACAD_REACTORS
330
1850
102
}
330
1850
100
AcDbXrecord
 10
0.0
 20
0.0
 30
0.0
  0
XRECORD
  5
1864
102
{ACAD_REACTORS
330
1850
102
}
330
1850
100
AcDbXrecord
 10
0.0
 20
0.0
 30
0.0
  0
XRECORD
  5
1865
102
{ACAD_REACTORS
330
1850
102
}
330
1850
100
AcDbXrecord
 10
0.0
 20
0.0
 30
0.0
  0
XRECORD
  5
1862
102
{ACAD_REACTORS
330
1850
102
}
330
1850
100
AcDbXrecord
 10
0.0
 20
0.0
 30
0.0
  0
XRECORD
  5
185F
102
{ACAD_REACTORS
330
1850
102
}
330
1850
100
AcDbXrecord
340
0
  0
XRECORD
  5
1860
102
{ACAD_REACTORS
330
1850
102
}
330
1850
100
AcDbXrecord
 70
     0
  0
XRECORD
  5
1854
102
{ACAD_REACTORS
330
1850
102
}
330
1850
100
AcDbXrecord
  1
Sekkei.ctb
  0
XRECORD
  5
1851
102
{ACAD_REACTORS
330
1850
102
}
330
1850
100
AcDbXrecord
 90
        1
  0
XRECORD
  5
1852
102
{ACAD_REACTORS
330
1850
102
}
330
1850
100
AcDbXrecord
 90
       70
  0
XRECORD
  5
186A
102
{ACAD_REACTORS
330
1850
102
}
330
1850
100
AcDbXrecord
340
0
  0
XRECORD
  5
1870
102
{ACAD_REACTORS
330
1850
102
}
330
1850
100
AcDbXrecord
 10
0.0
 20
0.0
 30
0.0
  0
XRECORD
  5
186C
102
{ACAD_REACTORS
330
1850
102
}
330
1850
100
AcDbXrecord
 10
0.0
 20
0.0
 30
0.0
  0
XRECORD
  5
186F
102
{ACAD_REACTORS
330
1850
102
}
330
1850
100
AcDbXrecord
 10
0.0
 20
0.0
 30
0.0
  0
XRECORD
  5
186D
102
{ACAD_REACTORS
330
1850
102
}
330
1850
100
AcDbXrecord
 10
0.0
 20
0.0
 30
0.0
  0
XRECORD
  5
186E
102
{ACAD_REACTORS
330
1850
102
}
330
1850
100
AcDbXrecord
 10
0.0
 20
0.0
 30
0.0
  0
XRECORD
  5
186B
102
{ACAD_REACTORS
330
1850
102
}
330
1850
100
AcDbXrecord
 10
0.0
 20
0.0
 30
0.0
  0
XRECORD
  5
1868
102
{ACAD_REACTORS
330
1850
102
}
330
1850
100
AcDbXrecord
340
0
  0
XRECORD
  5
1869
102
{ACAD_REACTORS
330
1850
102
}
330
1850
100
AcDbXrecord
 70
     0
  0
XRECORD
  5
185C
102
{ACAD_REACTORS
330
1850
102
}
330
1850
100
AcDbXrecord
  1
{C9EA97AD-F6D2-4D54-A2EA-F63186D83F28}
  0
DICTIONARYVAR
  5
103
102
{ACAD_REACTORS
330
102
102
}
330
102
100
DictionaryVariables
280
     0
  1
1
  0
ENDSEC
  0
EOF
