  0
SECTION
  2
HEADER
  9
$CLAYER
  8
1
  9
$LTSCALE
 40
3.0
  0
ENDSEC
  0
SECTION
  2
TABLES
  0
TABLE
  2
LTYPE
 70
     4
  0
LTYPE
  2
CONTINUOUS
  3
solid line
 70
    64
 72
    65
 73
     0
 40
0.0
  0
LTYPE
  2
DASHED
  3
__ __ __ __ __ __ __ __ __ __ __ __ __ __ __
 70
    64
 72
    65
 73
     2
 40
0.75
 49
0.5
 49
-0.25
  0
LTYPE
  2
CENTER
  3
____ _ ____ _ ____ _ ____ _ ____ _ ____ _ ____
 70
    64
 72
    65
 73
     4
 40
2.0
 49
1.25
 49
-0.25
 49
0.25
 49
-0.25
  0
LTYPE
  2
PHANTOM
  3
_____ _ _ _____ _ _ _____ _ _ _____ _ _ ____
 70
    64
 72
    65
 73
     6
 40
2.5
 49
1.25
 49
-0.25
 49
0.25
 49
-0.25
 49
0.25
 49
-0.25
  0
ENDTAB
  0
TABLE
  2
LAYER
 70
     1
  0
LAYER
  2
0
 70
    64
 62
     7
  6
CONTINUOUS
  0
ENDTAB
  0
TABLE
  2
STYLE
 70
     1
  0
STYLE
  2
STANDARD
 70
     0
 40
0.000000
 41
1.000000
 50
0.000000
 71
     0
 42
3.000000
  3
txt
  4
BIGFONT
  0
ENDTAB
  0
ENDSEC
  0
SECTION
  2
BLOCKS
  0
ENDSEC
  0
SECTION
  2
ENTITIES
  0
LINE
  8
0
  6
CONTINUOUS
 10
545.704895
 20
50.855000
 11
545.704895
 21
192.854996
  0
LINE
  8
0
  6
CENTER
 10
638.099976
 20
121.855003
 11
499.214874
 21
121.855003
  0
LINE
  8
0
  6
CONTINUOUS
 10
732.204895
 20
159.854996
 11
602.204895
 21
159.854996
  0
LINE
  8
0
  6
CONTINUOUS
 10
732.204895
 20
53.855000
 11
602.204895
 21
53.855000
  0
LINE
  8
0
  6
CONTINUOUS
 10
732.204895
 20
149.478333
 11
613.543152
 21
149.478333
  0
LINE
  8
0
  6
CONTINUOUS
 10
732.204895
 20
64.231644
 11
613.543152
 21
64.231644
  0
LINE
  8
0
  6
CONTINUOUS
 10
612.204895
 20
157.854996
 11
612.204895
 21
55.854980
  0
ARC
  8
0
  6
CONTINUOUS
 10
610.204895
 20
157.855026
 40
2.000000
 50
0.000000
 51
90.000000
  0
ARC
  8
0
  6
CONTINUOUS
 10
610.204895
 20
55.855000
 40
2.000000
 50
-90.000000
 51
0.000000
  0
LINE
  8
0
  6
CENTER
 10
92.665703
 20
-6.155000
 11
92.665703
 21
266.000000
  0
LINE
  8
0
  6
CENTER
 10
-8.136682
 20
121.855003
 11
188.573318
 21
121.855003
  0
LINE
  8
0
  6
CENTER
 10
-0.236682
 20
175.354996
 11
250.102493
 21
175.354996
  0
LINE
  8
0
  6
CENTER
 10
22.665701
 20
42.035000
 11
22.665701
 21
3.325000
  0
LINE
  8
0
  6
CENTER
 10
162.665695
 20
39.270000
 11
162.665695
 21
2.535000
  0
LINE
  8
0
  6
DASHED
 10
155.165695
 20
30.355000
 11
155.165695
 21
10.355000
  0
LINE
  8
0
  6
DASHED
 10
170.165695
 20
30.355000
 11
170.165695
 21
10.355000
  0
LINE
  8
0
  6
DASHED
 10
30.165701
 20
30.355000
 11
30.165701
 21
10.355000
  0
LINE
  8
0
  6
DASHED
 10
15.165700
 20
30.355000
 11
15.165700
 21
10.355000
  0
LINE
  8
0
  6
CONTINUOUS
 10
2.665700
 20
10.355000
 11
57.665699
 21
10.355000
  0
LINE
  8
0
  6
CONTINUOUS
 10
127.665703
 20
10.355000
 11
182.665695
 21
10.355000
  0
LINE
  8
0
  6
CONTINUOUS
 10
149.665695
 20
30.355000
 11
179.665695
 21
30.355000
  0
LINE
  8
0
  6
CONTINUOUS
 10
5.665700
 20
30.355000
 11
35.665699
 21
30.355000
  0
LINE
  8
0
  6
CONTINUOUS
 10
2.665700
 20
27.723881
 11
2.665700
 21
10.355020
  0
LINE
  8
0
  6
CONTINUOUS
 10
182.665695
 20
27.723881
 11
182.665695
 21
10.355000
  0
LINE
  8
0
  6
CONTINUOUS
 10
144.665695
 20
232.635101
 11
144.665695
 21
248.016754
  0
LINE
  8
0
  6
CONTINUOUS
 10
40.665699
 20
248.016373
 11
40.665699
 21
10.355000
  0
LINE
  8
0
  6
CONTINUOUS
 10
59.165699
 20
11.855000
 11
126.165703
 21
11.855000
  0
LINE
  8
0
  6
CONTINUOUS
 10
45.110298
 20
213.854996
 11
140.897507
 21
213.854996
  0
LINE
  8
0
  6
CONTINUOUS
 10
140.735504
 20
252.016144
 11
92.665703
 21
252.855026
  0
LINE
  8
0
  6
CONTINUOUS
 10
44.595901
 20
252.015778
 11
92.665703
 21
252.855026
  0
LINE
  8
0
  6
CONTINUOUS
 10
19.665701
 20
134.635117
 11
19.665701
 21
216.074875
  0
LINE
  8
0
  6
CONTINUOUS
 10
165.665695
 20
134.635101
 11
165.665695
 21
216.074875
  0
LINE
  8
0
  6
CONTINUOUS
 10
26.665701
 20
76.135101
 11
26.665701
 21
179.495285
  0
LINE
  8
0
  6
CONTINUOUS
 10
158.665695
 20
76.135117
 11
158.665695
 21
179.495285
  0
ARC
  8
0
  6
CONTINUOUS
 10
44.665699
 20
248.016403
 40
4.000000
 50
91.000580
 51
180.000000
  0
ARC
  8
0
  6
CONTINUOUS
 10
140.665695
 20
248.016739
 40
4.000000
 50
0.000000
 51
89.000359
  0
LINE
  8
0
  6
CONTINUOUS
 10
24.742701
 20
222.805557
 11
35.588699
 21
225.904434
  0
LINE
  8
0
  6
CONTINUOUS
 10
149.742706
 20
225.904434
 11
160.588699
 21
222.805557
  0
LINE
  8
0
  6
CONTINUOUS
 10
31.742701
 20
69.404442
 11
35.588699
 21
68.305557
  0
LINE
  8
0
  6
CONTINUOUS
 10
153.588699
 20
69.404442
 11
149.742706
 21
68.305557
  0
LINE
  8
0
  6
CONTINUOUS
 10
180.057098
 20
30.698240
 11
147.274307
 21
35.011761
  0
LINE
  8
0
  6
CONTINUOUS
 10
5.274300
 20
30.698240
 11
38.057098
 21
35.011780
  0
ARC
  8
0
  6
CONTINUOUS
 10
26.665701
 20
216.074921
 40
7.000000
 50
105.945801
 51
180.000000
  0
ARC
  8
0
  6
CONTINUOUS
 10
26.665701
 20
134.635162
 40
7.000000
 50
180.000000
 51
240.000198
  0
ARC
  8
0
  6
CONTINUOUS
 10
158.665695
 20
216.074860
 40
7.000000
 50
0.000000
 51
74.054764
  0
ARC
  8
0
  6
CONTINUOUS
 10
158.665695
 20
134.635101
 40
7.000000
 50
-59.999882
 51
0.000000
  0
ARC
  8
0
  6
CONTINUOUS
 10
33.665699
 20
76.135162
 40
7.000000
 50
180.000000
 51
254.054901
  0
ARC
  8
0
  6
CONTINUOUS
 10
151.665695
 20
76.135101
 40
7.000000
 50
-74.054497
 51
0.000000
  0
LINE
  8
0
  6
CONTINUOUS
 10
144.665695
 20
35.355000
 11
144.665695
 21
232.635101
  0
ARC
  8
0
  6
CONTINUOUS
 10
151.665695
 20
232.635162
 40
7.000000
 50
180.000000
 51
254.054901
  0
ARC
  8
0
  6
CONTINUOUS
 10
151.665695
 20
61.574940
 40
7.000000
 50
105.945801
 51
180.000000
  0
ARC
  8
0
  6
CONTINUOUS
 10
165.665695
 20
122.510742
 40
7.000000
 50
120.000099
 51
180.000000
  0
ARC
  8
0
  6
CONTINUOUS
 10
147.665695
 20
37.986141
 40
3.000000
 50
180.000000
 51
262.504395
  0
ARC
  8
0
  6
CONTINUOUS
 10
179.665695
 20
27.355000
 40
3.000000
 50
0.000000
 51
90.000000
  0
ARC
  8
0
  6
CONTINUOUS
 10
179.665695
 20
27.723860
 40
3.000000
 50
0.000000
 51
82.504204
  0
LINE
  8
0
  6
CONTINUOUS
 10
144.665695
 20
35.355000
 11
144.665695
 21
10.355000
  0
ARC
  8
0
  6
CONTINUOUS
 10
149.665695
 20
35.355019
 40
5.000000
 50
180.000000
 51
270.000000
  0
ARC
  8
0
  6
CONTINUOUS
 10
37.665699
 20
37.986141
 40
3.000000
 50
-82.503883
 51
0.000000
  0
ARC
  8
0
  6
CONTINUOUS
 10
35.665699
 20
35.355000
 40
5.000000
 50
-90.000000
 51
0.000000
  0
ARC
  8
0
  6
CONTINUOUS
 10
5.665700
 20
27.355021
 40
3.000000
 50
90.000000
 51
180.000000
  0
ARC
  8
0
  6
CONTINUOUS
 10
5.665700
 20
27.723900
 40
3.000000
 50
97.496292
 51
180.000000
  0
LINE
  8
0
  6
CONTINUOUS
 10
57.665699
 20
10.355000
 11
59.165699
 21
11.855000
  0
LINE
  8
0
  6
CONTINUOUS
 10
127.665703
 20
10.355000
 11
126.165703
 21
11.855000
  0
ARC
  8
0
  6
CONTINUOUS
 10
33.665699
 20
61.574860
 40
7.000000
 50
0.000000
 51
74.054688
  0
ARC
  8
0
  6
CONTINUOUS
 10
19.665701
 20
122.510780
 40
7.000000
 50
0.000000
 51
60.000092
  0
ARC
  8
0
  6
CONTINUOUS
 10
33.665699
 20
232.635101
 40
7.000000
 50
-74.054443
 51
0.000000
  0
ARC
  8
0
  6
CONTINUOUS
 10
92.665703
 20
121.855003
 40
71.000000
 50
-21.630920
 51
6.068256
  0
ARC
  8
0
  6
CONTINUOUS
 10
92.665703
 20
121.855003
 40
71.000000
 50
173.931793
 51
201.630905
  0
LINE
  8
0
  6
CONTINUOUS
 10
145.665695
 20
65.180481
 11
145.665695
 21
58.855000
  0
LINE
  8
0
  6
CONTINUOUS
 10
39.665699
 20
58.855000
 11
39.665699
 21
65.043999
  0
ARC
  8
0
  6
CONTINUOUS
 10
140.665695
 20
58.855000
 40
5.000000
 50
-36.869869
 51
0.000000
  0
ARC
  8
0
  6
CONTINUOUS
 10
44.665699
 20
58.855000
 40
5.000000
 50
180.000000
 51
216.865204
  0
LINE
  8
0
  6
CONTINUOUS
 10
232.665695
 20
155.354996
 11
232.665695
 21
195.354996
  0
LINE
  8
0
  6
CONTINUOUS
 10
167.665695
 20
195.354996
 11
232.665695
 21
195.354996
  0
LINE
  8
0
  6
CONTINUOUS
 10
167.665695
 20
155.354996
 11
232.665695
 21
155.354996
  0
LINE
  8
0
  6
CONTINUOUS
 10
167.665695
 20
197.854996
 11
167.665695
 21
152.854996
  0
LINE
  8
0
  6
CONTINUOUS
 10
165.665695
 20
197.854996
 11
167.665695
 21
197.854996
  0
LINE
  8
0
  6
CONTINUOUS
 10
165.665695
 20
152.854996
 11
167.665695
 21
152.854996
  0
ARC
  8
0
  6
CONTINUOUS
 10
178.665695
 20
175.354996
 40
6.000000
 50
90.000000
 51
270.000000
  0
LINE
  8
0
  6
CONTINUOUS
 10
178.665695
 20
181.354996
 11
232.665695
 21
181.354996
  0
LINE
  8
0
  6
CONTINUOUS
 10
178.665695
 20
169.354996
 11
232.665695
 21
169.354996
  0
LINE
  8
0
  6
CONTINUOUS
 10
554.704895
 20
76.611000
 11
554.704895
 21
190.854996
  0
LINE
  8
0
  6
CENTER
 10
805.575012
 20
106.855003
 11
499.214874
 21
106.855003
  0
LINE
  8
0
  6
CONTINUOUS
 10
552.704895
 20
192.854996
 11
545.704895
 21
192.854996
  0
LINE
  8
0
  6
CONTINUOUS
 10
552.704895
 20
50.855019
 11
545.704895
 21
50.855019
  0
LINE
  8
0
  6
CONTINUOUS
 10
573.704895
 20
53.855000
 11
602.204895
 21
53.855000
  0
LINE
  8
0
  6
CONTINUOUS
 10
602.204895
 20
159.854996
 11
557.704895
 21
159.854996
  0
LINE
  8
0
  6
CONTINUOUS
 10
556.204895
 20
170.988983
 11
574.793152
 21
160.256927
  0
ARC
  8
0
  6
CONTINUOUS
 10
552.704834
 20
190.854996
 40
2.000000
 50
0.000000
 51
90.000000
  0
ARC
  8
0
  6
CONTINUOUS
 10
552.704895
 20
52.855000
 40
2.000000
 50
-90.000000
 51
-14.477700
  0
LINE
  8
0
  6
CONTINUOUS
 10
573.704895
 20
55.855000
 11
573.704895
 21
72.611000
  0
LINE
  8
0
  6
CONTINUOUS
 10
556.704895
 20
74.611000
 11
571.704895
 21
74.611000
  0
ARC
  8
0
  6
CONTINUOUS
 10
571.704895
 20
72.611023
 40
2.000000
 50
0.000000
 51
90.000000
  0
ARC
  8
0
  6
CONTINUOUS
 10
556.577881
 20
51.855000
 40
2.000000
 50
90.000000
 51
165.522720
  0
ARC
  8
0
  6
CONTINUOUS
 10
556.704895
 20
76.611000
 40
2.000000
 50
180.000000
 51
270.000000
  0
LINE
  8
0
  6
CONTINUOUS
 10
573.704895
 20
53.855000
 11
556.577881
 21
53.855000
  0
ARC
  8
0
  6
CONTINUOUS
 10
575.704895
 20
55.855000
 40
2.000000
 50
180.000000
 51
270.000000
  0
ARC
  8
0
  6
CONTINUOUS
 10
557.704895
 20
162.854996
 40
3.000000
 50
180.000000
 51
270.000000
  0
ARC
  8
0
  6
CONTINUOUS
 10
557.704895
 20
173.587036
 40
3.000000
 50
180.000000
 51
239.999664
  0
ARC
  8
0
  6
CONTINUOUS
 10
576.293152
 20
162.854996
 40
3.000000
 50
-120.000298
 51
-90.000000
  0
LINE
  8
0
  6
CONTINUOUS
 10
602.204895
 20
159.854996
 11
602.204895
 21
53.855000
  0
LINE
  8
0
  6
CONTINUOUS
 10
373.836426
 20
410.039673
 11
419.705536
 21
410.039612
  0
LINE
  8
0
  6
CONTINUOUS
 10
373.837006
 20
590.039673
 11
442.705536
 21
590.039673
  0
LINE
  8
0
  6
CENTER
 10
442.705444
 20
610.354980
 11
442.704895
 21
334.961639
  0
LINE
  8
0
  6
CENTER
 10
367.851715
 20
430.038818
 11
396.219757
 21
430.038818
  0
LINE
  8
0
  6
CONTINUOUS
 10
352.705200
 20
500.039612
 11
353.613220
 21
552.039673
  0
LINE
  8
0
  6
CONTINUOUS
 10
364.382416
 20
583.297058
 11
353.613220
 21
552.039673
  0
ARC
  8
0
  6
CONTINUOUS
 10
373.836823
 20
580.039612
 40
10.000000
 50
90.000000
 51
160.989105
  0
ARC
  8
0
  6
CONTINUOUS
 10
382.705200
 20
430.038818
 40
7.500000
 50
-226.074890
 51
32.226799
  0
LINE
  8
0
  6
CONTINUOUS
 10
352.705200
 20
500.039612
 11
353.613007
 21
448.039673
  0
LINE
  8
0
  6
CONTINUOUS
 10
364.382019
 20
416.782257
 11
353.613007
 21
448.039673
  0
ARC
  8
0
  6
CONTINUOUS
 10
373.836426
 20
420.039673
 40
10.000000
 50
199.010895
 51
270.000000
  0
LINE
  8
0
  6
CONTINUOUS
 10
532.705200
 20
500.039429
 11
531.797424
 21
552.039368
  0
LINE
  8
0
  6
CONTINUOUS
 10
521.028442
 20
583.296814
 11
531.797424
 21
552.039368
  0
ARC
  8
0
  6
CONTINUOUS
 10
511.573822
 20
580.039368
 40
10.000000
 50
19.010900
 51
90.000000
  0
LINE
  8
0
  6
CONTINUOUS
 10
532.705200
 20
500.039429
 11
531.848694
 21
450.986816
  0
LINE
  8
0
  6
CONTINUOUS
 10
521.028015
 20
416.782074
 11
531.450378
 21
447.032837
  0
LINE
  8
0
  6
CONTINUOUS
 10
543.667419
 20
429.039459
 11
545.705017
 21
429.039459
  0
LINE
  8
0
  6
CONTINUOUS
 10
545.705017
 20
429.039459
 11
545.705444
 21
571.039368
  0
LINE
  8
0
  6
CONTINUOUS
 10
534.595398
 20
442.851257
 11
536.906006
 21
434.227661
  0
ARC
  8
0
  6
CONTINUOUS
 10
543.667419
 20
436.039459
 40
7.000000
 50
194.999893
 51
270.000000
  0
ARC
  8
0
  6
CONTINUOUS
 10
527.833801
 20
441.039459
 40
7.000000
 50
14.999700
 51
90.000000
  0
LINE
  8
0
  6
CONTINUOUS
 10
543.667786
 20
571.039368
 11
545.705444
 21
571.039368
  0
LINE
  8
0
  6
CONTINUOUS
 10
534.595642
 20
557.227539
 11
536.906189
 21
565.851135
  0
ARC
  8
0
  6
CONTINUOUS
 10
543.667786
 20
564.039307
 40
7.000000
 50
90.000000
 51
165.000107
  0
ARC
  8
0
  6
CONTINUOUS
 10
527.833984
 20
559.039368
 40
7.000000
 50
301.109222
 51
345.000336
  0
ARC
  8
0
  6
CONTINUOUS
 10
511.573822
 20
420.039032
 40
10.000000
 50
270.000000
 51
340.989105
  0
ARC
  8
0
  6
CONTINUOUS
 10
502.705414
 20
430.038147
 40
7.500000
 50
-212.232941
 51
58.076355
  0
LINE
  8
0
  6
CENTER
 10
382.705505
 20
441.840424
 11
382.705017
 21
417.964020
  0
LINE
  8
0
  6
CENTER
 10
489.694824
 20
430.038727
 11
515.272583
 21
430.038727
  0
LINE
  8
0
  6
CENTER
 10
502.705200
 20
441.840424
 11
502.705017
 21
417.963837
  0
LINE
  8
0
  6
CONTINUOUS
 10
356.561096
 20
448.039215
 11
528.849121
 21
448.039215
  0
LINE
  8
0
  6
CONTINUOUS
 10
485.485992
 20
427.039215
 11
399.925079
 21
427.039215
  0
ARC
  8
0
  6
CONTINUOUS
 10
356.561096
 20
451.039215
 40
3.000000
 50
181.000153
 51
270.000000
  0
ARC
  8
0
  6
CONTINUOUS
 10
528.849121
 20
451.039215
 40
3.000000
 50
270.000000
 51
358.999634
  0
LINE
  8
0
  6
CONTINUOUS
 10
356.561096
 20
552.039185
 11
528.849121
 21
552.039185
  0
ARC
  8
0
  6
CONTINUOUS
 10
356.561096
 20
549.039185
 40
3.000000
 50
90.000000
 51
178.999847
  0
ARC
  8
0
  6
CONTINUOUS
 10
528.849121
 20
549.039185
 40
3.000000
 50
1.000372
 51
90.000000
  0
LINE
  8
0
  6
CONTINUOUS
 10
407.705322
 20
547.039185
 11
407.705322
 21
453.039215
  0
LINE
  8
0
  6
CONTINUOUS
 10
477.705292
 20
547.039185
 11
477.705292
 21
453.039215
  0
LINE
  8
0
  6
CONTINUOUS
 10
501.425293
 20
434.039215
 11
494.705536
 21
434.039215
  0
LINE
  8
0
  6
CONTINUOUS
 10
381.705414
 20
434.039215
 11
390.705536
 21
434.039215
  0
ARC
  8
0
  6
CONTINUOUS
 10
381.705414
 20
441.039215
 40
7.000000
 50
180.000000
 51
270.000000
  0
ARC
  8
0
  6
CONTINUOUS
 10
367.705414
 20
441.039215
 40
7.000000
 50
0.000000
 51
90.000000
  0
LINE
  8
0
  6
CENTER
 10
367.851715
 20
570.038757
 11
396.219757
 21
570.038757
  0
ARC
  8
0
  6
CONTINUOUS
 10
382.705200
 20
570.038757
 40
7.500000
 50
-32.226799
 51
226.074890
  0
ARC
  8
0
  6
CONTINUOUS
 10
502.705414
 20
570.039429
 40
7.500000
 50
-46.078163
 51
212.232941
  0
LINE
  8
0
  6
CENTER
 10
382.705505
 20
558.237122
 11
382.705017
 21
582.113525
  0
LINE
  8
0
  6
CENTER
 10
489.694824
 20
570.038879
 11
515.272583
 21
570.038879
  0
LINE
  8
0
  6
CENTER
 10
502.705200
 20
558.237122
 11
502.705017
 21
582.113770
  0
LINE
  8
0
  6
CONTINUOUS
 10
485.485992
 20
573.039185
 11
399.925079
 21
573.039185
  0
LINE
  8
0
  6
CONTINUOUS
 10
503.705414
 20
566.039185
 11
494.705536
 21
566.039246
  0
ARC
  8
0
  6
CONTINUOUS
 10
503.705414
 20
559.039185
 40
7.000000
 50
0.000000
 51
90.000000
  0
ARC
  8
0
  6
CONTINUOUS
 10
517.705444
 20
559.039185
 40
7.000000
 50
180.000000
 51
270.000000
  0
LINE
  8
0
  6
CONTINUOUS
 10
381.705414
 20
566.039185
 11
390.705536
 21
566.039246
  0
ARC
  8
0
  6
CONTINUOUS
 10
381.705414
 20
559.039185
 40
7.000000
 50
90.000000
 51
180.000000
  0
ARC
  8
0
  6
CONTINUOUS
 10
367.705414
 20
559.039185
 40
7.000000
 50
-90.000000
 51
0.000000
  0
LINE
  8
0
  6
CONTINUOUS
 10
508.155975
 20
439.116150
 11
509.254852
 21
442.962250
  0
ARC
  8
0
  6
CONTINUOUS
 10
501.425293
 20
441.039215
 40
7.000000
 50
270.000000
 51
344.054596
  0
ARC
  8
0
  6
CONTINUOUS
 10
515.985535
 20
441.039215
 40
7.000000
 50
90.000000
 51
164.054611
  0
LINE
  8
0
  6
CONTINUOUS
 10
462.705200
 20
360.039429
 11
419.705536
 21
360.039429
  0
LINE
  8
0
  6
CONTINUOUS
 10
422.705200
 20
425.039429
 11
422.705200
 21
420.039429
  0
LINE
  8
0
  6
CONTINUOUS
 10
462.705200
 20
425.039429
 11
462.705200
 21
360.039429
  0
LINE
  8
0
  6
CONTINUOUS
 10
420.205200
 20
425.039429
 11
465.205200
 21
425.039429
  0
LINE
  8
0
  6
CONTINUOUS
 10
420.205200
 20
427.039429
 11
420.205200
 21
425.039429
  0
LINE
  8
0
  6
CONTINUOUS
 10
465.205200
 20
427.039429
 11
465.205200
 21
425.039429
  0
LINE
  8
0
  6
CONTINUOUS
 10
462.705200
 20
410.039551
 11
511.573425
 21
410.039459
  0
LINE
  8
0
  6
CONTINUOUS
 10
442.705536
 20
590.039490
 11
511.573822
 21
590.039429
  0
LINE
  8
0
  6
CONTINUOUS
 10
419.705536
 20
360.039429
 11
419.705536
 21
420.039429
  0
LINE
  8
0
  6
CONTINUOUS
 10
423.626526
 20
420.039429
 11
419.705536
 21
420.039429
  0
LINE
  8
0
  6
CONTINUOUS
 10
490.800781
 20
429.483673
 11
494.705536
 21
434.039215
  0
ARC
  8
0
  6
CONTINUOUS
 10
485.485992
 20
434.039215
 40
7.000000
 50
270.000000
 51
319.398712
  0
LINE
  8
0
  6
CONTINUOUS
 10
394.610291
 20
429.483673
 11
390.705536
 21
434.039215
  0
ARC
  8
0
  6
CONTINUOUS
 10
399.925079
 20
434.039215
 40
7.000000
 50
220.601288
 51
270.000000
  0
LINE
  8
0
  6
CONTINUOUS
 10
394.610291
 20
570.594788
 11
390.705536
 21
566.039246
  0
ARC
  8
0
  6
CONTINUOUS
 10
399.925079
 20
566.039246
 40
7.000000
 50
90.000000
 51
139.398712
  0
LINE
  8
0
  6
CONTINUOUS
 10
490.800781
 20
570.594788
 11
494.705536
 21
566.039246
  0
ARC
  8
0
  6
CONTINUOUS
 10
485.485992
 20
566.039246
 40
7.000000
 50
40.601295
 51
90.000000
  0
LINE
  8
0
  6
CONTINUOUS
 10
423.626526
 20
360.039429
 11
423.626526
 21
420.039429
  0
LINE
  8
0
  6
CENTER
 10
329.504272
 20
500.039429
 11
812.172485
 21
500.039429
  0
LINE
  8
0
  6
CONTINUOUS
 10
552.705017
 20
429.039429
 11
545.705017
 21
429.039429
  0
LINE
  8
0
  6
CONTINUOUS
 10
554.705017
 20
569.039429
 11
554.705017
 21
431.039429
  0
LINE
  8
0
  6
CONTINUOUS
 10
552.705017
 20
571.039429
 11
545.705444
 21
571.039429
  0
LINE
  8
0
  6
CONTINUOUS
 10
602.205017
 20
447.039429
 11
554.705017
 21
447.039429
  0
LINE
  8
0
  6
CONTINUOUS
 10
602.205017
 20
553.039429
 11
554.705017
 21
553.039429
  0
LINE
  8
0
  6
CONTINUOUS
 10
602.205017
 20
447.039429
 11
602.205017
 21
553.039429
  0
ARC
  8
0
  6
CONTINUOUS
 10
552.705017
 20
431.039429
 40
2.000000
 50
-90.000000
 51
0.000000
  0
ARC
  8
0
  6
CONTINUOUS
 10
552.705017
 20
569.039429
 40
2.000000
 50
0.000000
 51
90.000000
  0
ARC
  8
0
  6
CONTINUOUS
 10
555.489929
 20
500.039429
 40
20.000000
 50
-38.438709
 51
0.000000
  0
LINE
  8
0
  6
CONTINUOUS
 10
554.705017
 20
466.879425
 11
571.155396
 21
487.605896
  0
ARC
  8
0
  6
CONTINUOUS
 10
555.489929
 20
500.039429
 40
20.000000
 50
0.000000
 51
38.438709
  0
LINE
  8
0
  6
CONTINUOUS
 10
554.705017
 20
533.199402
 11
571.155396
 21
512.472961
  0
LINE
  8
0
  6
CONTINUOUS
 10
732.204895
 20
447.039429
 11
602.205505
 21
447.039429
  0
LINE
  8
0
  6
CONTINUOUS
 10
732.205505
 20
553.039429
 11
602.205505
 21
553.039429
  0
LINE
  8
0
  6
CONTINUOUS
 10
732.204895
 20
468.539459
 11
612.204895
 21
468.539459
  0
LINE
  8
0
  6
CONTINUOUS
 10
732.204895
 20
531.539429
 11
612.204895
 21
531.539429
  0
LINE
  8
0
  6
CONTINUOUS
 10
612.204895
 20
449.039429
 11
612.204895
 21
468.539459
  0
ARC
  8
0
  6
CONTINUOUS
 10
610.204895
 20
449.039398
 40
2.000000
 50
-90.000000
 51
0.000000
  0
ARC
  8
0
  6
CONTINUOUS
 10
610.204895
 20
551.039429
 40
2.000000
 50
0.000000
 51
90.000000
  0
LINE
  8
0
  6
CENTER
 10
442.704895
 20
266.938538
 11
442.704895
 21
-1.266465
  0
LINE
  8
0
  6
CENTER
 10
513.819946
 20
175.354996
 11
371.224945
 21
175.354996
  0
LINE
  8
0
  6
CONTINUOUS
 10
532.704895
 20
10.355000
 11
352.704895
 21
10.355000
  0
LINE
  8
0
  6
CONTINUOUS
 10
532.704895
 20
30.355000
 11
352.704895
 21
30.355000
  0
LINE
  8
0
  6
CONTINUOUS
 10
474.519287
 20
252.854996
 11
410.890472
 21
252.854996
  0
LINE
  8
0
  6
CONTINUOUS
 10
352.704895
 20
208.686996
 11
352.704895
 21
10.355000
  0
LINE
  8
0
  6
CONTINUOUS
 10
532.704895
 20
208.686996
 11
532.704895
 21
10.355000
  0
LINE
  8
0
  6
CONTINUOUS
 10
545.704895
 20
192.854996
 11
537.704895
 21
192.854996
  0
LINE
  8
0
  6
CONTINUOUS
 10
545.704895
 20
50.855000
 11
537.704895
 21
50.855000
  0
LINE
  8
0
  6
CONTINUOUS
 10
405.106293
 20
251.012344
 11
356.920471
 21
216.844315
  0
LINE
  8
0
  6
CONTINUOUS
 10
528.489075
 20
216.844315
 11
480.303467
 21
251.012344
  0
ARC
  8
0
  6
CONTINUOUS
 10
362.704895
 20
208.686966
 40
10.000000
 50
125.339897
 51
180.000000
  0
ARC
  8
0
  6
CONTINUOUS
 10
410.890472
 20
242.854996
 40
10.000000
 50
90.000000
 51
125.339996
  0
ARC
  8
0
  6
CONTINUOUS
 10
474.519287
 20
242.854996
 40
10.000000
 50
54.659698
 51
90.000000
  0
ARC
  8
0
  6
CONTINUOUS
 10
522.704895
 20
208.687042
 40
10.000000
 50
0.000000
 51
54.659500
  0
ARC
  8
0
  6
CONTINUOUS
 10
537.704895
 20
197.854996
 40
5.000000
 50
180.000000
 51
270.000000
  0
ARC
  8
0
  6
CONTINUOUS
 10
537.704895
 20
45.854980
 40
5.000000
 50
90.000000
 51
180.000000
  0
LINE
  8
0
  6
CENTER
 10
382.704895
 20
37.443535
 11
382.704895
 21
3.868535
  0
LINE
  8
0
  6
CENTER
 10
502.704895
 20
36.258533
 11
502.704895
 21
3.868535
  0
LINE
  8
0
  6
DASHED
 10
390.204895
 20
30.355000
 11
390.204895
 21
10.355000
  0
LINE
  8
0
  6
DASHED
 10
375.204895
 20
30.355000
 11
375.204895
 21
10.355000
  0
LINE
  8
0
  6
DASHED
 10
495.204895
 20
30.355000
 11
495.204895
 21
10.355000
  0
LINE
  8
0
  6
DASHED
 10
510.204895
 20
30.355000
 11
510.204895
 21
10.355000
  0
LINE
  8
0
  6
CONTINUOUS
 10
366.704895
 20
27.669680
 11
366.704895
 21
10.355000
  0
LINE
  8
0
  6
CONTINUOUS
 10
518.704895
 20
27.669680
 11
518.704895
 21
10.355000
  0
LINE
  8
0
  6
CONTINUOUS
 10
408.947479
 20
35.355000
 11
476.462280
 21
35.355000
  0
LINE
  8
0
  6
CONTINUOUS
 10
477.704895
 20
34.218121
 11
477.704895
 21
31.355000
  0
LINE
  8
0
  6
CONTINUOUS
 10
407.704895
 20
34.218121
 11
407.704895
 21
31.355000
  0
LINE
  8
0
  6
CONTINUOUS
 10
406.826294
 20
34.476318
 11
404.169281
 21
31.819441
  0
LINE
  8
0
  6
CONTINUOUS
 10
478.583496
 20
34.476318
 11
481.240479
 21
31.819500
  0
ARC
  8
0
  6
CONTINUOUS
 10
484.775879
 20
35.355000
 40
5.000000
 50
-135.000107
 51
-90.000000
  0
ARC
  8
0
  6
CONTINUOUS
 10
400.633881
 20
35.355000
 40
5.000000
 50
-90.000000
 51
-45.000111
  0
ARC
  8
0
  6
CONTINUOUS
 10
476.462280
 20
32.355000
 40
3.000000
 50
44.999599
 51
90.000000
  0
ARC
  8
0
  6
CONTINUOUS
 10
408.947479
 20
32.355000
 40
3.000000
 50
90.000000
 51
134.999695
  0
ARC
  8
0
  6
CONTINUOUS
 10
478.704895
 20
31.355000
 40
1.000000
 50
180.000000
 51
270.000000
  0
ARC
  8
0
  6
CONTINUOUS
 10
406.704895
 20
31.355000
 40
1.000000
 50
-90.000000
 51
0.000000
  0
CIRCLE
  8
0
  6
CONTINUOUS
 10
442.704895
 20
175.354996
 40
46.000000
  0
ARC
  8
0
  6
CONTINUOUS
 10
442.704895
 20
175.354996
 40
52.000000
 50
12.522600
 51
167.477295
  0
ARC
  8
0
  6
CONTINUOUS
 10
442.704895
 20
175.354996
 40
48.000000
 50
-192.522705
 51
12.522580
  0
ARC
  8
0
  6
CONTINUOUS
 10
472.704895
 20
104.855003
 40
34.000000
 50
-90.000000
 51
12.522600
  0
ARC
  8
0
  6
CONTINUOUS
 10
472.704895
 20
104.855003
 40
38.000000
 50
-90.000000
 51
12.522600
  0
ARC
  8
0
  6
CONTINUOUS
 10
412.704895
 20
104.855003
 40
34.000000
 50
167.477295
 51
270.000000
  0
ARC
  8
0
  6
CONTINUOUS
 10
412.704895
 20
104.855003
 40
38.000000
 50
167.477295
 51
270.000000
  0
LINE
  8
0
  6
CONTINUOUS
 10
509.800873
 20
113.094360
 11
493.467896
 21
186.629898
  0
LINE
  8
0
  6
CONTINUOUS
 10
391.941895
 20
186.630005
 11
375.608887
 21
113.094429
  0
LINE
  8
0
  6
CONTINUOUS
 10
395.846680
 20
185.762680
 11
379.513672
 21
112.227119
  0
LINE
  8
0
  6
CONTINUOUS
 10
505.896088
 20
112.227066
 11
489.562897
 21
185.762619
  0
LINE
  8
0
  6
CONTINUOUS
 10
472.704895
 20
70.855003
 11
412.704895
 21
70.855003
  0
LINE
  8
0
  6
CONTINUOUS
 10
472.704895
 20
66.855003
 11
412.704895
 21
66.855003
  0
ARC
  8
0
  6
CONTINUOUS
 10
323.023285
 20
121.855003
 40
215.181595
 50
-12.982100
 51
12.982100
  0
LINE
  8
0
  6
CONTINUOUS
 10
430.477875
 20
88.855003
 11
425.537476
 21
88.855003
  0
LINE
  8
0
  6
CONTINUOUS
 10
433.204895
 20
97.130402
 11
433.204895
 21
88.855003
  0
LINE
  8
0
  6
CONTINUOUS
 10
437.954895
 20
100.136238
 11
437.954895
 21
103.105003
  0
LINE
  8
0
  6
CONTINUOUS
 10
447.454895
 20
100.136238
 11
447.454895
 21
103.105003
  0
LINE
  8
0
  6
CONTINUOUS
 10
441.777069
 20
101.360863
 11
441.777069
 21
90.413597
  0
LINE
  8
0
  6
CONTINUOUS
 10
443.558472
 20
101.360863
 11
443.558472
 21
90.413597
  0
LINE
  8
0
  6
CONTINUOUS
 10
452.909882
 20
101.360863
 11
452.909882
 21
90.339378
  0
LINE
  8
0
  6
CONTINUOUS
 10
454.542877
 20
95.516144
 11
454.542877
 21
90.339378
  0
LINE
  8
0
  6
CONTINUOUS
 10
430.950897
 20
101.212418
 11
426.373077
 21
101.212418
  0
LINE
  8
0
  6
CONTINUOUS
 10
426.373077
 20
101.212418
 11
425.300476
 21
99.882423
  0
LINE
  8
0
  6
CONTINUOUS
 10
425.429474
 20
103.105003
 11
423.704895
 21
100.896538
  0
LINE
  8
0
  6
CONTINUOUS
 10
425.300476
 20
91.672836
 11
426.390289
 21
90.524918
  0
LINE
  8
0
  6
CONTINUOUS
 10
423.704895
 20
90.704117
 11
425.537476
 21
88.855003
  0
LINE
  8
0
  6
CONTINUOUS
 10
423.704895
 20
100.896538
 11
423.704895
 21
90.704117
  0
LINE
  8
0
  6
CONTINUOUS
 10
425.300476
 20
99.882423
 11
425.300476
 21
91.672836
  0
LINE
  8
0
  6
CONTINUOUS
 10
431.831879
 20
100.360863
 11
430.932892
 21
101.212418
  0
LINE
  8
0
  6
CONTINUOUS
 10
431.817474
 20
103.105003
 11
433.204895
 21
101.565422
  0
LINE
  8
0
  6
CONTINUOUS
 10
431.831879
 20
100.136238
 11
433.204895
 21
100.136238
  0
LINE
  8
0
  6
CONTINUOUS
 10
425.429474
 20
103.105003
 11
431.817474
 21
103.105003
  0
LINE
  8
0
  6
CONTINUOUS
 10
429.345490
 20
97.130402
 11
433.204895
 21
97.130402
  0
LINE
  8
0
  6
CONTINUOUS
 10
431.831879
 20
95.571800
 11
429.345490
 21
95.571800
  0
LINE
  8
0
  6
CONTINUOUS
 10
428.863068
 20
90.524918
 11
426.390289
 21
90.524918
  0
LINE
  8
0
  6
CONTINUOUS
 10
431.831879
 20
94.087418
 11
431.831879
 21
95.274918
  0
ARC
  8
0
  6
CONTINUOUS
 10
428.863068
 20
93.493660
 40
2.968750
 50
-89.999786
 51
0.000109
  0
LINE
  8
0
  6
CONTINUOUS
 10
431.831879
 20
89.990921
 11
431.831879
 21
88.855003
  0
LINE
  8
0
  6
CONTINUOUS
 10
433.204895
 20
101.565422
 11
433.204895
 21
100.136238
  0
LINE
  8
0
  6
CONTINUOUS
 10
431.831879
 20
95.571800
 11
431.831879
 21
93.493660
  0
LINE
  8
0
  6
CONTINUOUS
 10
429.345490
 20
97.130402
 11
429.345490
 21
95.571800
  0
LINE
  8
0
  6
CONTINUOUS
 10
431.831879
 20
88.855003
 11
433.204895
 21
88.855003
  0
LINE
  8
0
  6
CONTINUOUS
 10
431.831879
 20
89.990921
 11
430.477875
 21
88.855003
  0
LINE
  8
0
  6
CONTINUOUS
 10
443.558472
 20
90.413597
 11
444.152069
 21
90.413597
  0
LINE
  8
0
  6
CONTINUOUS
 10
441.072083
 20
90.413597
 11
441.072083
 21
88.855003
  0
LINE
  8
0
  6
CONTINUOUS
 10
444.152069
 20
90.413597
 11
444.152069
 21
88.855003
  0
LINE
  8
0
  6
CONTINUOUS
 10
446.463867
 20
100.136238
 11
447.454895
 21
100.136238
  0
LINE
  8
0
  6
CONTINUOUS
 10
437.954895
 20
100.136238
 11
439.009491
 21
100.136238
  0
LINE
  8
0
  6
CONTINUOUS
 10
437.954895
 20
103.105003
 11
447.454895
 21
103.105003
  0
LINE
  8
0
  6
CONTINUOUS
 10
441.072083
 20
88.855003
 11
444.152069
 21
88.855003
  0
LINE
  8
0
  6
CONTINUOUS
 10
441.072083
 20
90.413597
 11
441.777069
 21
90.413597
  0
ARC
  8
0
  6
CONTINUOUS
 10
457.901093
 20
99.301277
 40
3.803712
 50
-73.981873
 51
90.003510
  0
ARC
  8
0
  6
CONTINUOUS
 10
457.901093
 20
99.301277
 40
2.320524
 50
-82.585274
 51
62.411850
  0
LINE
  8
0
  6
CONTINUOUS
 10
452.204895
 20
103.105003
 11
457.901093
 21
103.105003
  0
LINE
  8
0
  6
CONTINUOUS
 10
458.200684
 20
97.000160
 11
454.542877
 21
97.000160
  0
LINE
  8
0
  6
CONTINUOUS
 10
452.204895
 20
103.105003
 11
452.204895
 21
101.360863
  0
LINE
  8
0
  6
CONTINUOUS
 10
454.542877
 20
101.360863
 11
454.542877
 21
97.000160
  0
LINE
  8
0
  6
CONTINUOUS
 10
458.950684
 20
95.645264
 11
461.305084
 21
90.339378
  0
LINE
  8
0
  6
CONTINUOUS
 10
457.583496
 20
95.516144
 11
459.811279
 21
90.339378
  0
LINE
  8
0
  6
CONTINUOUS
 10
452.204895
 20
90.339378
 11
452.909882
 21
90.339378
  0
LINE
  8
0
  6
CONTINUOUS
 10
454.542877
 20
90.339378
 11
455.192291
 21
90.339378
  0
LINE
  8
0
  6
CONTINUOUS
 10
455.192291
 20
88.855003
 11
452.204895
 21
88.855003
  0
LINE
  8
0
  6
CONTINUOUS
 10
459.515472
 20
90.339378
 11
459.811279
 21
90.339378
  0
LINE
  8
0
  6
CONTINUOUS
 10
461.305084
 20
90.339378
 11
461.704895
 21
90.339378
  0
LINE
  8
0
  6
CONTINUOUS
 10
459.515472
 20
88.855003
 11
461.704895
 21
88.855003
  0
LINE
  8
0
  6
CONTINUOUS
 10
461.704895
 20
90.339378
 11
461.704895
 21
88.855003
  0
LINE
  8
0
  6
CONTINUOUS
 10
459.515472
 20
90.339378
 11
459.515472
 21
88.855003
  0
LINE
  8
0
  6
CONTINUOUS
 10
455.192291
 20
90.339378
 11
455.192291
 21
88.855003
  0
LINE
  8
0
  6
CONTINUOUS
 10
452.204895
 20
90.339378
 11
452.204895
 21
88.855003
  0
LINE
  8
0
  6
CONTINUOUS
 10
439.519684
 20
101.360863
 11
439.009491
 21
100.136238
  0
LINE
  8
0
  6
CONTINUOUS
 10
446.033691
 20
101.360863
 11
446.463867
 21
100.136238
  0
LINE
  8
0
  6
CONTINUOUS
 10
443.558472
 20
101.360863
 11
446.033691
 21
101.360863
  0
LINE
  8
0
  6
CONTINUOUS
 10
441.777069
 20
101.360863
 11
439.519684
 21
101.360863
  0
LINE
  8
0
  6
CONTINUOUS
 10
454.542877
 20
95.516144
 11
457.583496
 21
95.516144
  0
LINE
  8
0
  6
CONTINUOUS
 10
452.204895
 20
101.360863
 11
452.909882
 21
101.360863
  0
LINE
  8
0
  6
CONTINUOUS
 10
454.542877
 20
101.360863
 11
458.975891
 21
101.357979
  0
LINE
  8
0
  6
CONTINUOUS
 10
431.831879
 20
100.360863
 11
431.831879
 21
100.136238
  0
LINE
  8
0
  6
CONTINUOUS
 10
527.704895
 20
185.281418
 11
527.704895
 21
100.428596
  0
LINE
  8
0
  6
CONTINUOUS
 10
357.704895
 20
185.281403
 11
357.704895
 21
100.428596
  0
ARC
  8
0
  6
CONTINUOUS
 10
442.704895
 20
142.854996
 40
105.000000
 50
50.655579
 51
129.521500
  0
ARC
  8
0
  6
CONTINUOUS
 10
442.704895
 20
142.854996
 40
105.000000
 50
230.478897
 51
309.521606
  0
ARC
  8
0
  6
CONTINUOUS
 10
477.704895
 20
185.281418
 40
50.000000
 50
0.000000
 51
51.150589
  0
ARC
  8
0
  6
CONTINUOUS
 10
407.704895
 20
185.281403
 40
50.000000
 50
129.521698
 51
180.000000
  0
ARC
  8
0
  6
CONTINUOUS
 10
407.704895
 20
100.428596
 40
50.000000
 50
180.000000
 51
230.479202
  0
ARC
  8
0
  6
CONTINUOUS
 10
477.704895
 20
100.428596
 40
50.000000
 50
-50.478550
 51
0.000000
  0
LINE
  8
0
  6
CONTINUOUS
 10
427.704895
 20
181.354996
 11
427.704895
 21
169.354996
  0
LINE
  8
0
  6
CONTINUOUS
 10
419.704895
 20
181.354996
 11
419.704895
 21
169.354996
  0
LINE
  8
0
  6
CONTINUOUS
 10
419.704895
 20
181.354996
 11
427.704895
 21
181.354996
  0
LINE
  8
0
  6
CONTINUOUS
 10
419.704895
 20
169.354996
 11
427.704895
 21
169.354996
  0
ARC
  8
0
  6
CONTINUOUS
 10
442.704895
 20
175.354996
 40
20.000000
 50
-162.542404
 51
162.542404
  0
LINE
  8
0
  6
CONTINUOUS
 10
740.704895
 20
447.039429
 11
732.204895
 21
447.039429
  0
LINE
  8
0
  6
CONTINUOUS
 10
740.704895
 20
553.039429
 11
732.204895
 21
553.039429
  0
LINE
  8
0
  6
CONTINUOUS
 10
732.204895
 20
468.539429
 11
740.704895
 21
468.539429
  0
LINE
  8
0
  6
CONTINUOUS
 10
732.204895
 20
531.539429
 11
740.704895
 21
531.539429
  0
LINE
  8
0
  6
CONTINUOUS
 10
732.204224
 20
553.039429
 11
732.204224
 21
531.039429
  0
LINE
  8
0
  6
CONTINUOUS
 10
732.204895
 20
469.039459
 11
732.204895
 21
447.039429
  0
LINE
  8
0
  6
CONTINUOUS
 10
740.704895
 20
445.039429
 11
740.704895
 21
470.539459
  0
LINE
  8
0
  6
CONTINUOUS
 10
779.704895
 20
445.039429
 11
740.704895
 21
445.039429
  0
LINE
  8
0
  6
CONTINUOUS
 10
779.704895
 20
555.039429
 11
740.704895
 21
555.039429
  0
LINE
  8
0
  6
CONTINUOUS
 10
789.704895
 20
545.039429
 11
789.704895
 21
455.039429
  0
LINE
  8
0
  6
CONTINUOUS
 10
784.704895
 20
469.539429
 11
740.704895
 21
469.539429
  0
LINE
  8
0
  6
CONTINUOUS
 10
784.704895
 20
530.539429
 11
740.704895
 21
530.539429
  0
ARC
  8
0
  6
CONTINUOUS
 10
779.704834
 20
455.039429
 40
10.000000
 50
-90.000000
 51
0.000000
  0
ARC
  8
0
  6
CONTINUOUS
 10
779.704895
 20
545.039429
 40
10.000000
 50
0.000000
 51
90.000000
  0
LINE
  8
0
  6
CONTINUOUS
 10
740.704895
 20
161.854996
 11
740.704895
 21
51.855000
  0
LINE
  8
0
  6
CONTINUOUS
 10
740.704895
 20
159.854996
 11
732.204895
 21
159.854996
  0
LINE
  8
0
  6
CONTINUOUS
 10
740.704895
 20
53.855000
 11
732.204895
 21
53.855000
  0
LINE
  8
0
  6
CONTINUOUS
 10
740.704895
 20
149.417603
 11
732.204895
 21
149.417603
  0
LINE
  8
0
  6
CONTINUOUS
 10
740.704895
 20
64.170868
 11
732.204895
 21
64.170868
  0
LINE
  8
0
  6
CONTINUOUS
 10
779.704895
 20
161.854996
 11
740.704895
 21
161.854996
  0
LINE
  8
0
  6
CONTINUOUS
 10
779.704895
 20
51.855000
 11
740.704895
 21
51.855000
  0
LINE
  8
0
  6
CONTINUOUS
 10
789.704895
 20
61.855000
 11
789.704895
 21
151.854996
  0
LINE
  8
0
  6
CONTINUOUS
 10
784.704895
 20
137.354996
 11
740.704895
 21
137.354996
  0
LINE
  8
0
  6
CONTINUOUS
 10
784.704895
 20
76.355003
 11
740.704895
 21
76.355003
  0
ARC
  8
0
  6
CONTINUOUS
 10
779.704773
 20
151.854996
 40
10.000000
 50
0.000000
 51
90.000000
  0
ARC
  8
0
  6
CONTINUOUS
 10
779.704895
 20
61.855000
 40
10.000000
 50
-90.000000
 51
0.000000
  0
LINE
  8
0
  6
CONTINUOUS
 10
732.204895
 20
53.855000
 11
732.204895
 21
159.854996
  0
LINE
  8
0
  6
CONTINUOUS
 10
741.204895
 20
471.039459
 11
741.204895
 21
529.039429
  0
LINE
  8
0
  6
CONTINUOUS
 10
679.204895
 20
529.039429
 11
679.204895
 21
471.039459
  0
LINE
  8
0
  6
CONTINUOUS
 10
739.204895
 20
469.039459
 11
681.204895
 21
469.039459
  0
LINE
  8
0
  6
CONTINUOUS
 10
739.204895
 20
531.039429
 11
681.204895
 21
531.039429
  0
LINE
  8
0
  6
CONTINUOUS
 10
681.204895
 20
469.039459
 11
679.204895
 21
471.039459
  0
LINE
  8
0
  6
CONTINUOUS
 10
679.204895
 20
529.039429
 11
681.204895
 21
531.039429
  0
LINE
  8
0
  6
CONTINUOUS
 10
741.204895
 20
529.039429
 11
739.204895
 21
531.039429
  0
LINE
  8
0
  6
CONTINUOUS
 10
741.204895
 20
471.039459
 11
739.204895
 21
469.039459
  0
LINE
  8
0
  6
CONTINUOUS
 10
687.204895
 20
474.039459
 11
687.204895
 21
469.039459
  0
LINE
  8
0
  6
CONTINUOUS
 10
684.204895
 20
477.039459
 11
679.204895
 21
477.039459
  0
CIRCLE
  8
0
  6
CONTINUOUS
 10
683.204895
 20
473.039459
 40
2.250000
  0
ARC
  8
0
  6
CONTINUOUS
 10
684.204895
 20
474.039459
 40
3.000000
 50
0.000000
 51
90.000000
  0
LINE
  8
0
  6
CONTINUOUS
 10
680.204895
 20
478.039459
 11
680.204895
 21
522.039429
  0
LINE
  8
0
  6
CONTINUOUS
 10
684.204895
 20
478.039459
 11
680.204895
 21
478.039459
  0
ARC
  8
0
  6
CONTINUOUS
 10
684.204895
 20
474.039459
 40
4.000000
 50
0.000000
 51
90.000000
  0
LINE
  8
0
  6
CONTINUOUS
 10
688.204895
 20
470.039459
 11
688.204895
 21
474.039459
  0
LINE
  8
0
  6
CONTINUOUS
 10
680.204895
 20
478.039459
 11
679.204895
 21
477.039459
  0
LINE
  8
0
  6
CONTINUOUS
 10
732.204895
 20
470.039459
 11
688.204895
 21
470.039459
  0
LINE
  8
0
  6
CONTINUOUS
 10
688.204895
 20
470.039459
 11
687.204895
 21
469.039459
  0
LINE
  8
0
  6
CONTINUOUS
 10
736.204895
 20
477.039459
 11
741.204895
 21
477.039459
  0
LINE
  8
0
  6
CONTINUOUS
 10
733.204895
 20
474.039459
 11
733.204895
 21
469.039459
  0
CIRCLE
  8
0
  6
CONTINUOUS
 10
737.204895
 20
473.039459
 40
2.250000
  0
ARC
  8
0
  6
CONTINUOUS
 10
736.204895
 20
474.039459
 40
3.000000
 50
90.000000
 51
180.000000
  0
LINE
  8
0
  6
CONTINUOUS
 10
732.204895
 20
474.039459
 11
732.204895
 21
470.039459
  0
ARC
  8
0
  6
CONTINUOUS
 10
736.204895
 20
474.039459
 40
4.000000
 50
90.000000
 51
180.000000
  0
LINE
  8
0
  6
CONTINUOUS
 10
740.204895
 20
478.039459
 11
736.204895
 21
478.039459
  0
LINE
  8
0
  6
CONTINUOUS
 10
732.204895
 20
470.039459
 11
733.204895
 21
469.039459
  0
LINE
  8
0
  6
CONTINUOUS
 10
740.204895
 20
478.039459
 11
741.204895
 21
477.039459
  0
LINE
  8
0
  6
CONTINUOUS
 10
733.204895
 20
526.039429
 11
733.204895
 21
531.039429
  0
LINE
  8
0
  6
CONTINUOUS
 10
736.204895
 20
523.039429
 11
741.204895
 21
523.039429
  0
CIRCLE
  8
0
  6
CONTINUOUS
 10
737.204895
 20
527.039429
 40
2.250000
  0
ARC
  8
0
  6
CONTINUOUS
 10
736.204895
 20
526.039429
 40
3.000000
 50
180.000000
 51
270.000000
  0
LINE
  8
0
  6
CONTINUOUS
 10
736.204895
 20
522.039429
 11
740.204895
 21
522.039429
  0
ARC
  8
0
  6
CONTINUOUS
 10
736.204895
 20
526.039429
 40
4.000000
 50
180.000000
 51
270.000000
  0
LINE
  8
0
  6
CONTINUOUS
 10
732.204895
 20
530.039429
 11
732.204895
 21
526.039429
  0
LINE
  8
0
  6
CONTINUOUS
 10
740.204895
 20
522.039429
 11
741.204895
 21
523.039429
  0
LINE
  8
0
  6
CONTINUOUS
 10
732.204895
 20
530.039429
 11
733.204895
 21
531.039429
  0
LINE
  8
0
  6
CONTINUOUS
 10
684.204895
 20
523.039429
 11
679.204895
 21
523.039429
  0
LINE
  8
0
  6
CONTINUOUS
 10
687.204895
 20
526.039429
 11
687.204895
 21
531.039429
  0
CIRCLE
  8
0
  6
CONTINUOUS
 10
683.204895
 20
527.039429
 40
2.250000
  0
ARC
  8
0
  6
CONTINUOUS
 10
684.204895
 20
526.039429
 40
3.000000
 50
-90.000000
 51
0.000000
  0
LINE
  8
0
  6
CONTINUOUS
 10
688.204895
 20
526.039429
 11
688.204895
 21
530.039429
  0
ARC
  8
0
  6
CONTINUOUS
 10
684.204895
 20
526.039429
 40
4.000000
 50
-90.000000
 51
0.000000
  0
LINE
  8
0
  6
CONTINUOUS
 10
680.204895
 20
522.039429
 11
684.204895
 21
522.039429
  0
LINE
  8
0
  6
CONTINUOUS
 10
688.204895
 20
530.039429
 11
687.204895
 21
531.039429
  0
LINE
  8
0
  6
CONTINUOUS
 10
680.204895
 20
522.039429
 11
679.204895
 21
523.039429
  0
LINE
  8
0
  6
CONTINUOUS
 10
732.204895
 20
530.039429
 11
688.204895
 21
530.039429
  0
LINE
  8
0
  6
CONTINUOUS
 10
740.204895
 20
478.039459
 11
740.204895
 21
522.039429
  0
LINE
  8
0
  6
CENTER
 10
710.204895
 20
463.793182
 11
710.204895
 21
536.486023
  0
LINE
  8
0
  6
CONTINUOUS
 10
740.704895
 20
555.039429
 11
740.704895
 21
529.539429
  0
LINE
  8
0
  6
CONTINUOUS
 10
739.704895
 20
161.355011
 11
681.204895
 21
161.354996
  0
LINE
  8
0
  6
CONTINUOUS
 10
739.704895
 20
161.354996
 11
739.704895
 21
159.854996
  0
LINE
  8
0
  6
CONTINUOUS
 10
693.704895
 20
161.354996
 11
693.704895
 21
159.854996
  0
LINE
  8
0
  6
CONTINUOUS
 10
741.204895
 20
210.354996
 11
741.204895
 21
163.355011
  0
LINE
  8
0
  6
CONTINUOUS
 10
679.204895
 20
210.354996
 11
679.204895
 21
163.354996
  0
LINE
  8
0
  6
CONTINUOUS
 10
679.204895
 20
163.354996
 11
681.204895
 21
161.354996
  0
LINE
  8
0
  6
CONTINUOUS
 10
741.204895
 20
163.355011
 11
739.204895
 21
161.355011
  0
LINE
  8
0
  6
CONTINUOUS
 10
741.204895
 20
163.355011
 11
679.204895
 21
163.354996
  0
LINE
  8
0
  6
CONTINUOUS
 10
741.204895
 20
173.355011
 11
679.204895
 21
173.355011
  0
LINE
  8
0
  6
CENTER
 10
710.204895
 20
218.868744
 11
710.204895
 21
156.760986
  0
LINE
  8
0
  6
CONTINUOUS
 10
741.204895
 20
174.355011
 11
679.204895
 21
174.355011
  0
LINE
  8
0
  6
CONTINUOUS
 10
740.204895
 20
211.354996
 11
680.204895
 21
211.354996
  0
LINE
  8
0
  6
CONTINUOUS
 10
680.204895
 20
211.354996
 11
679.204895
 21
210.354996
  0
LINE
  8
0
  6
CONTINUOUS
 10
741.204895
 20
210.354996
 11
740.204895
 21
211.354996
  0
LINE
  8
0
  6
CONTINUOUS
 10
741.204895
 20
210.354996
 11
679.204895
 21
210.354996
  0
LINE
  8
0
  6
CENTER
 10
743.829895
 20
194.355026
 11
738.079895
 21
194.355026
  0
LINE
  8
0
  6
CONTINUOUS
 10
742.329895
 20
204.855026
 11
739.204895
 21
204.855026
  0
LINE
  8
0
  6
CONTINUOUS
 10
742.329895
 20
183.855011
 11
739.204895
 21
183.855011
  0
LINE
  8
0
  6
CONTINUOUS
 10
612.204895
 20
531.539429
 11
612.204895
 21
551.039429
  0
TEXT
  8
0
 10
-8.000000
 20
-6.000000
 40
4.000000
 41
1.000000
  1
HLMN-40L-1200~1800-T90C
 50
0.000000
  0
ENDSEC
  0
EOF
