  0
SECTION
  2
HEADER
  9
$CLAYER
  8
1
  9
$LTSCALE
 40
3.0
  0
ENDSEC
  0
SECTION
  2
TABLES
  0
TABLE
  2
LTYPE
 70
     4
  0
LTYPE
  2
CONTINUOUS
  3
solid line
 70
    64
 72
    65
 73
     0
 40
0.0
  0
LTYPE
  2
DASHED
  3
__ __ __ __ __ __ __ __ __ __ __ __ __ __ __
 70
    64
 72
    65
 73
     2
 40
0.75
 49
0.5
 49
-0.25
  0
LTYPE
  2
CENTER
  3
____ _ ____ _ ____ _ ____ _ ____ _ ____ _ ____
 70
    64
 72
    65
 73
     4
 40
2.0
 49
1.25
 49
-0.25
 49
0.25
 49
-0.25
  0
LTYPE
  2
PHANTOM
  3
_____ _ _ _____ _ _ _____ _ _ _____ _ _ ____
 70
    64
 72
    65
 73
     6
 40
2.5
 49
1.25
 49
-0.25
 49
0.25
 49
-0.25
 49
0.25
 49
-0.25
  0
ENDTAB
  0
TABLE
  2
LAYER
 70
     1
  0
LAYER
  2
0
 70
    64
 62
     7
  6
CONTINUOUS
  0
ENDTAB
  0
TABLE
  2
STYLE
 70
     1
  0
STYLE
  2
STANDARD
 70
     0
 40
0.000000
 41
1.000000
 50
0.000000
 71
     0
 42
3.000000
  3
txt
  4
BIGFONT
  0
ENDTAB
  0
ENDSEC
  0
SECTION
  2
BLOCKS
  0
ENDSEC
  0
SECTION
  2
ENTITIES
  0
LINE
  8
0
  6
CONTINUOUS
 10
535.792358
 20
50.770000
 11
535.792358
 21
192.770004
  0
LINE
  8
0
  6
CENTER
 10
628.187500
 20
121.769997
 11
489.302368
 21
121.769997
  0
LINE
  8
0
  6
CONTINUOUS
 10
722.292358
 20
159.770004
 11
592.292358
 21
159.770004
  0
LINE
  8
0
  6
CONTINUOUS
 10
722.292358
 20
53.770000
 11
592.292358
 21
53.770000
  0
LINE
  8
0
  6
CONTINUOUS
 10
722.292358
 20
149.393341
 11
603.630615
 21
149.393341
  0
LINE
  8
0
  6
CONTINUOUS
 10
722.292358
 20
64.146637
 11
603.630615
 21
64.146637
  0
LINE
  8
0
  6
CONTINUOUS
 10
602.292358
 20
157.770004
 11
602.292358
 21
55.769981
  0
ARC
  8
0
  6
CONTINUOUS
 10
600.292358
 20
157.770020
 40
2.000000
 50
0.000000
 51
90.000000
  0
ARC
  8
0
  6
CONTINUOUS
 10
600.292358
 20
55.770000
 40
2.000000
 50
-90.000000
 51
0.000000
  0
LINE
  8
0
  6
CENTER
 10
95.948196
 20
-6.240000
 11
95.948196
 21
265.915009
  0
LINE
  8
0
  6
CENTER
 10
-4.854182
 20
121.769997
 11
191.855820
 21
121.769997
  0
LINE
  8
0
  6
CENTER
 10
3.045818
 20
175.270004
 11
253.384995
 21
175.270004
  0
LINE
  8
0
  6
CENTER
 10
25.948200
 20
41.950001
 11
25.948200
 21
3.240000
  0
LINE
  8
0
  6
CENTER
 10
165.948196
 20
39.185001
 11
165.948196
 21
2.450000
  0
LINE
  8
0
  6
DASHED
 10
158.448196
 20
30.270000
 11
158.448196
 21
10.270000
  0
LINE
  8
0
  6
DASHED
 10
173.448196
 20
30.270000
 11
173.448196
 21
10.270000
  0
LINE
  8
0
  6
DASHED
 10
33.448200
 20
30.270000
 11
33.448200
 21
10.270000
  0
LINE
  8
0
  6
DASHED
 10
18.448200
 20
30.270000
 11
18.448200
 21
10.270000
  0
LINE
  8
0
  6
CONTINUOUS
 10
5.948200
 20
10.270000
 11
60.948200
 21
10.270000
  0
LINE
  8
0
  6
CONTINUOUS
 10
130.948196
 20
10.270000
 11
185.948196
 21
10.270000
  0
LINE
  8
0
  6
CONTINUOUS
 10
152.948196
 20
30.270000
 11
182.948196
 21
30.270000
  0
LINE
  8
0
  6
CONTINUOUS
 10
8.948200
 20
30.270000
 11
38.948200
 21
30.270000
  0
LINE
  8
0
  6
CONTINUOUS
 10
5.948200
 20
27.638880
 11
5.948200
 21
10.270020
  0
LINE
  8
0
  6
CONTINUOUS
 10
185.948196
 20
27.638880
 11
185.948196
 21
10.270000
  0
LINE
  8
0
  6
CONTINUOUS
 10
147.948196
 20
232.550095
 11
147.948196
 21
247.931763
  0
LINE
  8
0
  6
CONTINUOUS
 10
43.948200
 20
247.931381
 11
43.948200
 21
10.270000
  0
LINE
  8
0
  6
CONTINUOUS
 10
62.448200
 20
11.770000
 11
129.448196
 21
11.770000
  0
LINE
  8
0
  6
CONTINUOUS
 10
48.392799
 20
213.770004
 11
144.179993
 21
213.770004
  0
LINE
  8
0
  6
CONTINUOUS
 10
144.018005
 20
251.931137
 11
95.948196
 21
252.770020
  0
LINE
  8
0
  6
CONTINUOUS
 10
47.878399
 20
251.930786
 11
95.948196
 21
252.770020
  0
LINE
  8
0
  6
CONTINUOUS
 10
22.948200
 20
134.550110
 11
22.948200
 21
215.989883
  0
LINE
  8
0
  6
CONTINUOUS
 10
168.948196
 20
134.550110
 11
168.948196
 21
215.989883
  0
LINE
  8
0
  6
CONTINUOUS
 10
29.948200
 20
76.050102
 11
29.948200
 21
179.410278
  0
LINE
  8
0
  6
CONTINUOUS
 10
161.948196
 20
76.050117
 11
161.948196
 21
179.410278
  0
ARC
  8
0
  6
CONTINUOUS
 10
47.948200
 20
247.931396
 40
4.000000
 50
91.000580
 51
180.000000
  0
ARC
  8
0
  6
CONTINUOUS
 10
143.948196
 20
247.931747
 40
4.000000
 50
0.000000
 51
89.000359
  0
LINE
  8
0
  6
CONTINUOUS
 10
28.025200
 20
222.720566
 11
38.871201
 21
225.819443
  0
LINE
  8
0
  6
CONTINUOUS
 10
153.025208
 20
225.819443
 11
163.871201
 21
222.720566
  0
LINE
  8
0
  6
CONTINUOUS
 10
35.025200
 20
69.319443
 11
38.871201
 21
68.220558
  0
LINE
  8
0
  6
CONTINUOUS
 10
156.871201
 20
69.319443
 11
153.025208
 21
68.220558
  0
LINE
  8
0
  6
CONTINUOUS
 10
183.339600
 20
30.613239
 11
150.556793
 21
34.926762
  0
LINE
  8
0
  6
CONTINUOUS
 10
8.556800
 20
30.613239
 11
41.339600
 21
34.926781
  0
ARC
  8
0
  6
CONTINUOUS
 10
29.948200
 20
215.989914
 40
7.000000
 50
105.945801
 51
180.000000
  0
ARC
  8
0
  6
CONTINUOUS
 10
29.948200
 20
134.550156
 40
7.000000
 50
180.000000
 51
240.000198
  0
ARC
  8
0
  6
CONTINUOUS
 10
161.948196
 20
215.989853
 40
7.000000
 50
0.000000
 51
74.054764
  0
ARC
  8
0
  6
CONTINUOUS
 10
161.948196
 20
134.550095
 40
7.000000
 50
-59.999882
 51
0.000000
  0
ARC
  8
0
  6
CONTINUOUS
 10
36.948200
 20
76.050163
 40
7.000000
 50
180.000000
 51
254.054901
  0
ARC
  8
0
  6
CONTINUOUS
 10
154.948196
 20
76.050102
 40
7.000000
 50
-74.054497
 51
0.000000
  0
LINE
  8
0
  6
CONTINUOUS
 10
147.948196
 20
35.270000
 11
147.948196
 21
232.550095
  0
ARC
  8
0
  6
CONTINUOUS
 10
154.948196
 20
232.550156
 40
7.000000
 50
180.000000
 51
254.054901
  0
ARC
  8
0
  6
CONTINUOUS
 10
154.948196
 20
61.489941
 40
7.000000
 50
105.945801
 51
180.000000
  0
ARC
  8
0
  6
CONTINUOUS
 10
168.948196
 20
122.425743
 40
7.000000
 50
120.000099
 51
180.000000
  0
ARC
  8
0
  6
CONTINUOUS
 10
150.948196
 20
37.901138
 40
3.000000
 50
180.000000
 51
262.504395
  0
ARC
  8
0
  6
CONTINUOUS
 10
182.948196
 20
27.270000
 40
3.000000
 50
0.000000
 51
90.000000
  0
ARC
  8
0
  6
CONTINUOUS
 10
182.948196
 20
27.638861
 40
3.000000
 50
0.000000
 51
82.504204
  0
LINE
  8
0
  6
CONTINUOUS
 10
147.948196
 20
35.270000
 11
147.948196
 21
10.270000
  0
ARC
  8
0
  6
CONTINUOUS
 10
152.948196
 20
35.270020
 40
5.000000
 50
180.000000
 51
270.000000
  0
ARC
  8
0
  6
CONTINUOUS
 10
40.948200
 20
37.901138
 40
3.000000
 50
-82.503883
 51
0.000000
  0
ARC
  8
0
  6
CONTINUOUS
 10
38.948200
 20
35.270000
 40
5.000000
 50
-90.000000
 51
0.000000
  0
ARC
  8
0
  6
CONTINUOUS
 10
8.948200
 20
27.270020
 40
3.000000
 50
90.000000
 51
180.000000
  0
ARC
  8
0
  6
CONTINUOUS
 10
8.948200
 20
27.638901
 40
3.000000
 50
97.496292
 51
180.000000
  0
LINE
  8
0
  6
CONTINUOUS
 10
60.948200
 20
10.270000
 11
62.448200
 21
11.770000
  0
LINE
  8
0
  6
CONTINUOUS
 10
130.948196
 20
10.270000
 11
129.448196
 21
11.770000
  0
ARC
  8
0
  6
CONTINUOUS
 10
36.948200
 20
61.489861
 40
7.000000
 50
0.000000
 51
74.054688
  0
ARC
  8
0
  6
CONTINUOUS
 10
22.948200
 20
122.425781
 40
7.000000
 50
0.000000
 51
60.000092
  0
ARC
  8
0
  6
CONTINUOUS
 10
36.948200
 20
232.550095
 40
7.000000
 50
-74.054443
 51
0.000000
  0
ARC
  8
0
  6
CONTINUOUS
 10
95.948196
 20
121.769997
 40
71.000000
 50
-21.630920
 51
6.068256
  0
ARC
  8
0
  6
CONTINUOUS
 10
95.948196
 20
121.769997
 40
71.000000
 50
173.931793
 51
201.630905
  0
LINE
  8
0
  6
CONTINUOUS
 10
148.948196
 20
65.095482
 11
148.948196
 21
58.770000
  0
LINE
  8
0
  6
CONTINUOUS
 10
42.948200
 20
58.770000
 11
42.948200
 21
64.959000
  0
ARC
  8
0
  6
CONTINUOUS
 10
143.948196
 20
58.770000
 40
5.000000
 50
-36.869869
 51
0.000000
  0
ARC
  8
0
  6
CONTINUOUS
 10
47.948200
 20
58.770000
 40
5.000000
 50
180.000000
 51
216.865204
  0
LINE
  8
0
  6
CONTINUOUS
 10
235.948196
 20
155.270004
 11
235.948196
 21
195.270004
  0
LINE
  8
0
  6
CONTINUOUS
 10
170.948196
 20
195.270004
 11
235.948196
 21
195.270004
  0
LINE
  8
0
  6
CONTINUOUS
 10
170.948196
 20
155.270004
 11
235.948196
 21
155.270004
  0
LINE
  8
0
  6
CONTINUOUS
 10
170.948196
 20
197.770004
 11
170.948196
 21
152.770004
  0
LINE
  8
0
  6
CONTINUOUS
 10
168.948196
 20
197.770004
 11
170.948196
 21
197.770004
  0
LINE
  8
0
  6
CONTINUOUS
 10
168.948196
 20
152.770004
 11
170.948196
 21
152.770004
  0
ARC
  8
0
  6
CONTINUOUS
 10
181.948196
 20
175.270004
 40
6.000000
 50
90.000000
 51
270.000000
  0
LINE
  8
0
  6
CONTINUOUS
 10
181.948196
 20
181.270004
 11
235.948196
 21
181.270004
  0
LINE
  8
0
  6
CONTINUOUS
 10
181.948196
 20
169.270004
 11
235.948196
 21
169.270004
  0
LINE
  8
0
  6
CONTINUOUS
 10
544.792358
 20
76.526001
 11
544.792358
 21
190.770004
  0
LINE
  8
0
  6
CENTER
 10
795.662476
 20
106.769997
 11
489.302368
 21
106.769997
  0
LINE
  8
0
  6
CONTINUOUS
 10
542.792358
 20
192.770004
 11
535.792358
 21
192.770004
  0
LINE
  8
0
  6
CONTINUOUS
 10
542.792358
 20
50.770020
 11
535.792358
 21
50.770020
  0
LINE
  8
0
  6
CONTINUOUS
 10
563.792358
 20
53.770000
 11
592.292358
 21
53.770000
  0
LINE
  8
0
  6
CONTINUOUS
 10
592.292358
 20
159.770004
 11
547.792419
 21
159.770004
  0
LINE
  8
0
  6
CONTINUOUS
 10
546.292358
 20
170.903976
 11
564.880676
 21
160.171921
  0
ARC
  8
0
  6
CONTINUOUS
 10
542.792358
 20
190.770004
 40
2.000000
 50
0.000000
 51
90.000000
  0
ARC
  8
0
  6
CONTINUOUS
 10
542.792358
 20
52.770000
 40
2.000000
 50
-90.000000
 51
-14.477700
  0
LINE
  8
0
  6
CONTINUOUS
 10
563.792358
 20
55.770000
 11
563.792358
 21
72.526001
  0
LINE
  8
0
  6
CONTINUOUS
 10
546.792358
 20
74.526001
 11
561.792358
 21
74.526001
  0
ARC
  8
0
  6
CONTINUOUS
 10
561.792358
 20
72.526016
 40
2.000000
 50
0.000000
 51
90.000000
  0
ARC
  8
0
  6
CONTINUOUS
 10
546.665344
 20
51.770000
 40
2.000000
 50
90.000000
 51
165.522720
  0
ARC
  8
0
  6
CONTINUOUS
 10
546.792358
 20
76.526001
 40
2.000000
 50
180.000000
 51
270.000000
  0
LINE
  8
0
  6
CONTINUOUS
 10
563.792358
 20
53.770000
 11
546.665344
 21
53.770000
  0
ARC
  8
0
  6
CONTINUOUS
 10
565.792358
 20
55.770000
 40
2.000000
 50
180.000000
 51
270.000000
  0
ARC
  8
0
  6
CONTINUOUS
 10
547.792358
 20
162.770004
 40
3.000000
 50
180.000000
 51
270.000000
  0
ARC
  8
0
  6
CONTINUOUS
 10
547.792358
 20
173.502045
 40
3.000000
 50
180.000000
 51
239.999664
  0
ARC
  8
0
  6
CONTINUOUS
 10
566.380676
 20
162.770004
 40
3.000000
 50
-120.000298
 51
-90.000000
  0
LINE
  8
0
  6
CONTINUOUS
 10
592.292358
 20
159.770004
 11
592.292358
 21
53.770000
  0
LINE
  8
0
  6
CONTINUOUS
 10
363.923920
 20
409.954651
 11
409.793030
 21
409.954590
  0
LINE
  8
0
  6
CONTINUOUS
 10
363.924500
 20
589.954712
 11
432.793030
 21
589.954712
  0
LINE
  8
0
  6
CENTER
 10
432.792938
 20
610.270020
 11
432.792389
 21
334.876617
  0
LINE
  8
0
  6
CENTER
 10
357.939209
 20
429.953827
 11
386.307251
 21
429.953827
  0
LINE
  8
0
  6
CONTINUOUS
 10
342.792725
 20
499.954620
 11
343.700714
 21
551.954651
  0
LINE
  8
0
  6
CONTINUOUS
 10
354.469910
 20
583.212097
 11
343.700714
 21
551.954651
  0
ARC
  8
0
  6
CONTINUOUS
 10
363.924316
 20
579.954651
 40
10.000000
 50
90.000000
 51
160.989105
  0
ARC
  8
0
  6
CONTINUOUS
 10
372.792725
 20
429.953827
 40
7.500000
 50
-226.074890
 51
32.226799
  0
LINE
  8
0
  6
CONTINUOUS
 10
342.792725
 20
499.954620
 11
343.700500
 21
447.954651
  0
LINE
  8
0
  6
CONTINUOUS
 10
354.469513
 20
416.697266
 11
343.700500
 21
447.954651
  0
ARC
  8
0
  6
CONTINUOUS
 10
363.923920
 20
419.954651
 40
10.000000
 50
199.010895
 51
270.000000
  0
LINE
  8
0
  6
CONTINUOUS
 10
522.792725
 20
499.954437
 11
521.884888
 21
551.954346
  0
LINE
  8
0
  6
CONTINUOUS
 10
511.115906
 20
583.211853
 11
521.884888
 21
551.954346
  0
ARC
  8
0
  6
CONTINUOUS
 10
501.661316
 20
579.954407
 40
10.000000
 50
19.010900
 51
90.000000
  0
LINE
  8
0
  6
CONTINUOUS
 10
522.792725
 20
499.954437
 11
521.936157
 21
450.901825
  0
LINE
  8
0
  6
CONTINUOUS
 10
511.115509
 20
416.697052
 11
521.537903
 21
446.947815
  0
LINE
  8
0
  6
CONTINUOUS
 10
533.754944
 20
428.954468
 11
535.792480
 21
428.954468
  0
LINE
  8
0
  6
CONTINUOUS
 10
535.792542
 20
428.954468
 11
535.792908
 21
570.954346
  0
LINE
  8
0
  6
CONTINUOUS
 10
524.682922
 20
442.766266
 11
526.993530
 21
434.142670
  0
ARC
  8
0
  6
CONTINUOUS
 10
533.754944
 20
435.954468
 40
7.000000
 50
194.999893
 51
270.000000
  0
ARC
  8
0
  6
CONTINUOUS
 10
517.921326
 20
440.954468
 40
7.000000
 50
14.999700
 51
90.000000
  0
LINE
  8
0
  6
CONTINUOUS
 10
533.755310
 20
570.954346
 11
535.792908
 21
570.954346
  0
LINE
  8
0
  6
CONTINUOUS
 10
524.683105
 20
557.142517
 11
526.993713
 21
565.766113
  0
ARC
  8
0
  6
CONTINUOUS
 10
533.755310
 20
563.954346
 40
7.000000
 50
90.000000
 51
165.000107
  0
ARC
  8
0
  6
CONTINUOUS
 10
517.921509
 20
558.954346
 40
7.000000
 50
301.109222
 51
345.000336
  0
ARC
  8
0
  6
CONTINUOUS
 10
501.661316
 20
419.954041
 40
10.000000
 50
270.000000
 51
340.989105
  0
ARC
  8
0
  6
CONTINUOUS
 10
492.792908
 20
429.953156
 40
7.500000
 50
-212.232941
 51
58.076355
  0
LINE
  8
0
  6
CENTER
 10
372.792999
 20
441.755432
 11
372.792511
 21
417.879028
  0
LINE
  8
0
  6
CENTER
 10
479.782318
 20
429.953735
 11
505.360077
 21
429.953735
  0
LINE
  8
0
  6
CENTER
 10
492.792725
 20
441.755432
 11
492.792511
 21
417.878845
  0
LINE
  8
0
  6
CONTINUOUS
 10
346.648621
 20
447.954193
 11
518.936646
 21
447.954193
  0
LINE
  8
0
  6
CONTINUOUS
 10
475.573486
 20
426.954193
 11
390.012573
 21
426.954193
  0
ARC
  8
0
  6
CONTINUOUS
 10
346.648621
 20
450.954193
 40
3.000000
 50
181.000153
 51
270.000000
  0
ARC
  8
0
  6
CONTINUOUS
 10
518.936646
 20
450.954193
 40
3.000000
 50
270.000000
 51
358.999634
  0
LINE
  8
0
  6
CONTINUOUS
 10
346.648621
 20
551.954224
 11
518.936646
 21
551.954224
  0
ARC
  8
0
  6
CONTINUOUS
 10
346.648621
 20
548.954224
 40
3.000000
 50
90.000000
 51
178.999847
  0
ARC
  8
0
  6
CONTINUOUS
 10
518.936646
 20
548.954224
 40
3.000000
 50
1.000372
 51
90.000000
  0
LINE
  8
0
  6
CONTINUOUS
 10
397.792816
 20
546.954224
 11
397.792816
 21
452.954193
  0
LINE
  8
0
  6
CONTINUOUS
 10
467.792816
 20
546.954224
 11
467.792816
 21
452.954193
  0
LINE
  8
0
  6
CONTINUOUS
 10
491.512817
 20
433.954193
 11
484.793030
 21
433.954193
  0
LINE
  8
0
  6
CONTINUOUS
 10
371.792908
 20
433.954193
 11
380.793030
 21
433.954193
  0
ARC
  8
0
  6
CONTINUOUS
 10
371.792908
 20
440.954193
 40
7.000000
 50
180.000000
 51
270.000000
  0
ARC
  8
0
  6
CONTINUOUS
 10
357.792908
 20
440.954193
 40
7.000000
 50
0.000000
 51
90.000000
  0
LINE
  8
0
  6
CENTER
 10
357.939209
 20
569.953735
 11
386.307251
 21
569.953735
  0
ARC
  8
0
  6
CONTINUOUS
 10
372.792725
 20
569.953735
 40
7.500000
 50
-32.226799
 51
226.074890
  0
ARC
  8
0
  6
CONTINUOUS
 10
492.792908
 20
569.954407
 40
7.500000
 50
-46.078163
 51
212.232941
  0
LINE
  8
0
  6
CENTER
 10
372.792999
 20
558.152161
 11
372.792511
 21
582.028564
  0
LINE
  8
0
  6
CENTER
 10
479.782318
 20
569.953857
 11
505.360077
 21
569.953857
  0
LINE
  8
0
  6
CENTER
 10
492.792725
 20
558.152161
 11
492.792511
 21
582.028748
  0
LINE
  8
0
  6
CONTINUOUS
 10
475.573486
 20
572.954224
 11
390.012573
 21
572.954224
  0
LINE
  8
0
  6
CONTINUOUS
 10
493.792908
 20
565.954224
 11
484.793030
 21
565.954285
  0
ARC
  8
0
  6
CONTINUOUS
 10
493.792908
 20
558.954224
 40
7.000000
 50
0.000000
 51
90.000000
  0
ARC
  8
0
  6
CONTINUOUS
 10
507.792908
 20
558.954224
 40
7.000000
 50
180.000000
 51
270.000000
  0
LINE
  8
0
  6
CONTINUOUS
 10
371.792908
 20
565.954224
 11
380.793030
 21
565.954285
  0
ARC
  8
0
  6
CONTINUOUS
 10
371.792908
 20
558.954224
 40
7.000000
 50
90.000000
 51
180.000000
  0
ARC
  8
0
  6
CONTINUOUS
 10
357.792908
 20
558.954224
 40
7.000000
 50
-90.000000
 51
0.000000
  0
LINE
  8
0
  6
CONTINUOUS
 10
498.243469
 20
439.031158
 11
499.342346
 21
442.877258
  0
ARC
  8
0
  6
CONTINUOUS
 10
491.512817
 20
440.954193
 40
7.000000
 50
270.000000
 51
344.054596
  0
ARC
  8
0
  6
CONTINUOUS
 10
506.073029
 20
440.954193
 40
7.000000
 50
90.000000
 51
164.054611
  0
LINE
  8
0
  6
CONTINUOUS
 10
452.792725
 20
359.954437
 11
409.793030
 21
359.954437
  0
LINE
  8
0
  6
CONTINUOUS
 10
412.792725
 20
424.954437
 11
412.792725
 21
419.954437
  0
LINE
  8
0
  6
CONTINUOUS
 10
452.792725
 20
424.954437
 11
452.792725
 21
359.954437
  0
LINE
  8
0
  6
CONTINUOUS
 10
410.292725
 20
424.954437
 11
455.292725
 21
424.954437
  0
LINE
  8
0
  6
CONTINUOUS
 10
410.292725
 20
426.954437
 11
410.292725
 21
424.954437
  0
LINE
  8
0
  6
CONTINUOUS
 10
455.292725
 20
426.954437
 11
455.292725
 21
424.954437
  0
LINE
  8
0
  6
CONTINUOUS
 10
452.792725
 20
409.954529
 11
501.660919
 21
409.954468
  0
LINE
  8
0
  6
CONTINUOUS
 10
432.793030
 20
589.954529
 11
501.661316
 21
589.954407
  0
LINE
  8
0
  6
CONTINUOUS
 10
409.793030
 20
359.954437
 11
409.793030
 21
419.954437
  0
LINE
  8
0
  6
CONTINUOUS
 10
413.714020
 20
419.954437
 11
409.793030
 21
419.954437
  0
LINE
  8
0
  6
CONTINUOUS
 10
480.888275
 20
429.398651
 11
484.793030
 21
433.954193
  0
ARC
  8
0
  6
CONTINUOUS
 10
475.573486
 20
433.954193
 40
7.000000
 50
270.000000
 51
319.398712
  0
LINE
  8
0
  6
CONTINUOUS
 10
384.697784
 20
429.398651
 11
380.793030
 21
433.954193
  0
ARC
  8
0
  6
CONTINUOUS
 10
390.012573
 20
433.954193
 40
7.000000
 50
220.601288
 51
270.000000
  0
LINE
  8
0
  6
CONTINUOUS
 10
384.697784
 20
570.509827
 11
380.793030
 21
565.954285
  0
ARC
  8
0
  6
CONTINUOUS
 10
390.012573
 20
565.954285
 40
7.000000
 50
90.000000
 51
139.398712
  0
LINE
  8
0
  6
CONTINUOUS
 10
480.888275
 20
570.509827
 11
484.793030
 21
565.954285
  0
ARC
  8
0
  6
CONTINUOUS
 10
475.573486
 20
565.954285
 40
7.000000
 50
40.601295
 51
90.000000
  0
LINE
  8
0
  6
CONTINUOUS
 10
413.714020
 20
359.954437
 11
413.714020
 21
419.954437
  0
LINE
  8
0
  6
CENTER
 10
319.591766
 20
499.954437
 11
802.260010
 21
499.954437
  0
LINE
  8
0
  6
CONTINUOUS
 10
542.792542
 20
428.954437
 11
535.792480
 21
428.954437
  0
LINE
  8
0
  6
CONTINUOUS
 10
544.792542
 20
568.954407
 11
544.792542
 21
430.954437
  0
LINE
  8
0
  6
CONTINUOUS
 10
542.792542
 20
570.954407
 11
535.792908
 21
570.954407
  0
LINE
  8
0
  6
CONTINUOUS
 10
592.292542
 20
446.954437
 11
544.792542
 21
446.954437
  0
LINE
  8
0
  6
CONTINUOUS
 10
592.292542
 20
552.954407
 11
544.792542
 21
552.954407
  0
LINE
  8
0
  6
CONTINUOUS
 10
592.292542
 20
446.954437
 11
592.292542
 21
552.954407
  0
ARC
  8
0
  6
CONTINUOUS
 10
542.792542
 20
430.954437
 40
2.000000
 50
-90.000000
 51
0.000000
  0
ARC
  8
0
  6
CONTINUOUS
 10
542.792542
 20
568.954407
 40
2.000000
 50
0.000000
 51
90.000000
  0
ARC
  8
0
  6
CONTINUOUS
 10
545.577454
 20
499.954437
 40
20.000000
 50
-38.438709
 51
0.000000
  0
LINE
  8
0
  6
CONTINUOUS
 10
544.792542
 20
466.794434
 11
561.242920
 21
487.520874
  0
ARC
  8
0
  6
CONTINUOUS
 10
545.577454
 20
499.954437
 40
20.000000
 50
0.000000
 51
38.438709
  0
LINE
  8
0
  6
CONTINUOUS
 10
544.792542
 20
533.114441
 11
561.242920
 21
512.387939
  0
LINE
  8
0
  6
CONTINUOUS
 10
722.293030
 20
446.954437
 11
592.293030
 21
446.954437
  0
LINE
  8
0
  6
CONTINUOUS
 10
722.293030
 20
552.954407
 11
592.293030
 21
552.954407
  0
LINE
  8
0
  6
CONTINUOUS
 10
722.292358
 20
468.454437
 11
602.292358
 21
468.454437
  0
LINE
  8
0
  6
CONTINUOUS
 10
722.292358
 20
531.454407
 11
602.292358
 21
531.454407
  0
LINE
  8
0
  6
CONTINUOUS
 10
602.292358
 20
448.954437
 11
602.292358
 21
468.454437
  0
ARC
  8
0
  6
CONTINUOUS
 10
600.292358
 20
448.954407
 40
2.000000
 50
-90.000000
 51
0.000000
  0
ARC
  8
0
  6
CONTINUOUS
 10
600.292358
 20
550.954407
 40
2.000000
 50
0.000000
 51
90.000000
  0
LINE
  8
0
  6
CENTER
 10
432.792389
 20
266.853546
 11
432.792389
 21
-1.351465
  0
LINE
  8
0
  6
CENTER
 10
503.907440
 20
175.270004
 11
361.312439
 21
175.270004
  0
LINE
  8
0
  6
CONTINUOUS
 10
522.792358
 20
10.270000
 11
342.792389
 21
10.270000
  0
LINE
  8
0
  6
CONTINUOUS
 10
522.792358
 20
30.270000
 11
342.792389
 21
30.270000
  0
LINE
  8
0
  6
CONTINUOUS
 10
464.606781
 20
252.770004
 11
400.977997
 21
252.770004
  0
LINE
  8
0
  6
CONTINUOUS
 10
342.792389
 20
208.602005
 11
342.792389
 21
10.270000
  0
LINE
  8
0
  6
CONTINUOUS
 10
522.792358
 20
208.602005
 11
522.792358
 21
10.270000
  0
LINE
  8
0
  6
CONTINUOUS
 10
535.792358
 20
192.770004
 11
527.792358
 21
192.770004
  0
LINE
  8
0
  6
CONTINUOUS
 10
535.792358
 20
50.770000
 11
527.792358
 21
50.770000
  0
LINE
  8
0
  6
CONTINUOUS
 10
395.193787
 20
250.927338
 11
347.007996
 21
216.759323
  0
LINE
  8
0
  6
CONTINUOUS
 10
518.576599
 20
216.759323
 11
470.390991
 21
250.927338
  0
ARC
  8
0
  6
CONTINUOUS
 10
352.792389
 20
208.601959
 40
10.000000
 50
125.339897
 51
180.000000
  0
ARC
  8
0
  6
CONTINUOUS
 10
400.977997
 20
242.770004
 40
10.000000
 50
90.000000
 51
125.339996
  0
ARC
  8
0
  6
CONTINUOUS
 10
464.606781
 20
242.770004
 40
10.000000
 50
54.659698
 51
90.000000
  0
ARC
  8
0
  6
CONTINUOUS
 10
512.792358
 20
208.602036
 40
10.000000
 50
0.000000
 51
54.659500
  0
ARC
  8
0
  6
CONTINUOUS
 10
527.792358
 20
197.770004
 40
5.000000
 50
180.000000
 51
270.000000
  0
ARC
  8
0
  6
CONTINUOUS
 10
527.792358
 20
45.769981
 40
5.000000
 50
90.000000
 51
180.000000
  0
LINE
  8
0
  6
CENTER
 10
372.792389
 20
37.358536
 11
372.792389
 21
3.783535
  0
LINE
  8
0
  6
CENTER
 10
492.792389
 20
36.173534
 11
492.792389
 21
3.783535
  0
LINE
  8
0
  6
DASHED
 10
380.292389
 20
30.270000
 11
380.292389
 21
10.270000
  0
LINE
  8
0
  6
DASHED
 10
365.292389
 20
30.270000
 11
365.292389
 21
10.270000
  0
LINE
  8
0
  6
DASHED
 10
485.292389
 20
30.270000
 11
485.292389
 21
10.270000
  0
LINE
  8
0
  6
DASHED
 10
500.292389
 20
30.270000
 11
500.292389
 21
10.270000
  0
LINE
  8
0
  6
CONTINUOUS
 10
356.792389
 20
27.584681
 11
356.792389
 21
10.270000
  0
LINE
  8
0
  6
CONTINUOUS
 10
508.792389
 20
27.584681
 11
508.792389
 21
10.270000
  0
LINE
  8
0
  6
CONTINUOUS
 10
399.034973
 20
35.270000
 11
466.549774
 21
35.270000
  0
LINE
  8
0
  6
CONTINUOUS
 10
467.792389
 20
34.133121
 11
467.792389
 21
31.270000
  0
LINE
  8
0
  6
CONTINUOUS
 10
397.792389
 20
34.133121
 11
397.792389
 21
31.270000
  0
LINE
  8
0
  6
CONTINUOUS
 10
396.913788
 20
34.391319
 11
394.256775
 21
31.734440
  0
LINE
  8
0
  6
CONTINUOUS
 10
468.670990
 20
34.391319
 11
471.327972
 21
31.734501
  0
ARC
  8
0
  6
CONTINUOUS
 10
474.863373
 20
35.270000
 40
5.000000
 50
-135.000107
 51
-90.000000
  0
ARC
  8
0
  6
CONTINUOUS
 10
390.721375
 20
35.270000
 40
5.000000
 50
-90.000000
 51
-45.000111
  0
ARC
  8
0
  6
CONTINUOUS
 10
466.549774
 20
32.270000
 40
3.000000
 50
44.999599
 51
90.000000
  0
ARC
  8
0
  6
CONTINUOUS
 10
399.034973
 20
32.270000
 40
3.000000
 50
90.000000
 51
134.999695
  0
ARC
  8
0
  6
CONTINUOUS
 10
468.792389
 20
31.270000
 40
1.000000
 50
180.000000
 51
270.000000
  0
ARC
  8
0
  6
CONTINUOUS
 10
396.792389
 20
31.270000
 40
1.000000
 50
-90.000000
 51
0.000000
  0
CIRCLE
  8
0
  6
CONTINUOUS
 10
432.792389
 20
175.270004
 40
46.000000
  0
ARC
  8
0
  6
CONTINUOUS
 10
432.792389
 20
175.270004
 40
52.000000
 50
12.522600
 51
167.477295
  0
ARC
  8
0
  6
CONTINUOUS
 10
432.792389
 20
175.270004
 40
48.000000
 50
-192.522705
 51
12.522580
  0
ARC
  8
0
  6
CONTINUOUS
 10
462.792389
 20
104.769997
 40
34.000000
 50
-90.000000
 51
12.522600
  0
ARC
  8
0
  6
CONTINUOUS
 10
462.792389
 20
104.769997
 40
38.000000
 50
-90.000000
 51
12.522600
  0
ARC
  8
0
  6
CONTINUOUS
 10
402.792389
 20
104.769997
 40
34.000000
 50
167.477295
 51
270.000000
  0
ARC
  8
0
  6
CONTINUOUS
 10
402.792389
 20
104.769997
 40
38.000000
 50
167.477295
 51
270.000000
  0
LINE
  8
0
  6
CONTINUOUS
 10
499.888397
 20
113.009361
 11
483.555389
 21
186.544907
  0
LINE
  8
0
  6
CONTINUOUS
 10
382.029388
 20
186.544998
 11
365.696381
 21
113.009422
  0
LINE
  8
0
  6
CONTINUOUS
 10
385.934174
 20
185.677673
 11
369.601196
 21
112.142120
  0
LINE
  8
0
  6
CONTINUOUS
 10
495.983582
 20
112.142067
 11
479.650391
 21
185.677628
  0
LINE
  8
0
  6
CONTINUOUS
 10
462.792389
 20
70.769997
 11
402.792389
 21
70.769997
  0
LINE
  8
0
  6
CONTINUOUS
 10
462.792389
 20
66.769997
 11
402.792389
 21
66.769997
  0
ARC
  8
0
  6
CONTINUOUS
 10
313.110779
 20
121.769997
 40
215.181595
 50
-12.982100
 51
12.982100
  0
LINE
  8
0
  6
CONTINUOUS
 10
420.565369
 20
88.769997
 11
415.624969
 21
88.769997
  0
LINE
  8
0
  6
CONTINUOUS
 10
423.292389
 20
97.045403
 11
423.292389
 21
88.769997
  0
LINE
  8
0
  6
CONTINUOUS
 10
428.042389
 20
100.051239
 11
428.042389
 21
103.019997
  0
LINE
  8
0
  6
CONTINUOUS
 10
437.542389
 20
100.051239
 11
437.542389
 21
103.019997
  0
LINE
  8
0
  6
CONTINUOUS
 10
431.864594
 20
101.275864
 11
431.864594
 21
90.328598
  0
LINE
  8
0
  6
CONTINUOUS
 10
433.645996
 20
101.275864
 11
433.645996
 21
90.328598
  0
LINE
  8
0
  6
CONTINUOUS
 10
442.997375
 20
101.275864
 11
442.997375
 21
90.254379
  0
LINE
  8
0
  6
CONTINUOUS
 10
444.630371
 20
95.431137
 11
444.630371
 21
90.254379
  0
LINE
  8
0
  6
CONTINUOUS
 10
421.038391
 20
101.127419
 11
416.460571
 21
101.127419
  0
LINE
  8
0
  6
CONTINUOUS
 10
416.460571
 20
101.127419
 11
415.387970
 21
99.797417
  0
LINE
  8
0
  6
CONTINUOUS
 10
415.516968
 20
103.019997
 11
413.792389
 21
100.811539
  0
LINE
  8
0
  6
CONTINUOUS
 10
415.387970
 20
91.587837
 11
416.477783
 21
90.439919
  0
LINE
  8
0
  6
CONTINUOUS
 10
413.792389
 20
90.619118
 11
415.624969
 21
88.769997
  0
LINE
  8
0
  6
CONTINUOUS
 10
413.792389
 20
100.811539
 11
413.792389
 21
90.619118
  0
LINE
  8
0
  6
CONTINUOUS
 10
415.387970
 20
99.797417
 11
415.387970
 21
91.587837
  0
LINE
  8
0
  6
CONTINUOUS
 10
421.919373
 20
100.275864
 11
421.020386
 21
101.127419
  0
LINE
  8
0
  6
CONTINUOUS
 10
421.904968
 20
103.019997
 11
423.292389
 21
101.480423
  0
LINE
  8
0
  6
CONTINUOUS
 10
421.919373
 20
100.051239
 11
423.292389
 21
100.051239
  0
LINE
  8
0
  6
CONTINUOUS
 10
415.516968
 20
103.019997
 11
421.904968
 21
103.019997
  0
LINE
  8
0
  6
CONTINUOUS
 10
419.432983
 20
97.045403
 11
423.292389
 21
97.045403
  0
LINE
  8
0
  6
CONTINUOUS
 10
421.919373
 20
95.486801
 11
419.432983
 21
95.486801
  0
LINE
  8
0
  6
CONTINUOUS
 10
418.950592
 20
90.439919
 11
416.477783
 21
90.439919
  0
LINE
  8
0
  6
CONTINUOUS
 10
421.919373
 20
94.002419
 11
421.919373
 21
95.189919
  0
ARC
  8
0
  6
CONTINUOUS
 10
418.950592
 20
93.408661
 40
2.968750
 50
-89.999786
 51
0.000109
  0
LINE
  8
0
  6
CONTINUOUS
 10
421.919373
 20
89.905922
 11
421.919373
 21
88.769997
  0
LINE
  8
0
  6
CONTINUOUS
 10
423.292389
 20
101.480423
 11
423.292389
 21
100.051239
  0
LINE
  8
0
  6
CONTINUOUS
 10
421.919373
 20
95.486801
 11
421.919373
 21
93.408661
  0
LINE
  8
0
  6
CONTINUOUS
 10
419.432983
 20
97.045403
 11
419.432983
 21
95.486801
  0
LINE
  8
0
  6
CONTINUOUS
 10
421.919373
 20
88.769997
 11
423.292389
 21
88.769997
  0
LINE
  8
0
  6
CONTINUOUS
 10
421.919373
 20
89.905922
 11
420.565369
 21
88.769997
  0
LINE
  8
0
  6
CONTINUOUS
 10
433.645996
 20
90.328598
 11
434.239594
 21
90.328598
  0
LINE
  8
0
  6
CONTINUOUS
 10
431.159576
 20
90.328598
 11
431.159576
 21
88.769997
  0
LINE
  8
0
  6
CONTINUOUS
 10
434.239594
 20
90.328598
 11
434.239594
 21
88.769997
  0
LINE
  8
0
  6
CONTINUOUS
 10
436.551392
 20
100.051239
 11
437.542389
 21
100.051239
  0
LINE
  8
0
  6
CONTINUOUS
 10
428.042389
 20
100.051239
 11
429.096985
 21
100.051239
  0
LINE
  8
0
  6
CONTINUOUS
 10
428.042389
 20
103.019997
 11
437.542389
 21
103.019997
  0
LINE
  8
0
  6
CONTINUOUS
 10
431.159576
 20
88.769997
 11
434.239594
 21
88.769997
  0
LINE
  8
0
  6
CONTINUOUS
 10
431.159576
 20
90.328598
 11
431.864594
 21
90.328598
  0
ARC
  8
0
  6
CONTINUOUS
 10
447.988586
 20
99.216278
 40
3.803712
 50
-73.981873
 51
90.003510
  0
ARC
  8
0
  6
CONTINUOUS
 10
447.988586
 20
99.216278
 40
2.320524
 50
-82.585274
 51
62.411850
  0
LINE
  8
0
  6
CONTINUOUS
 10
442.292389
 20
103.019997
 11
447.988586
 21
103.019997
  0
LINE
  8
0
  6
CONTINUOUS
 10
448.288177
 20
96.915161
 11
444.630371
 21
96.915161
  0
LINE
  8
0
  6
CONTINUOUS
 10
442.292389
 20
103.019997
 11
442.292389
 21
101.275864
  0
LINE
  8
0
  6
CONTINUOUS
 10
444.630371
 20
101.275864
 11
444.630371
 21
96.915161
  0
LINE
  8
0
  6
CONTINUOUS
 10
449.038177
 20
95.560257
 11
451.392578
 21
90.254379
  0
LINE
  8
0
  6
CONTINUOUS
 10
447.670990
 20
95.431137
 11
449.898773
 21
90.254379
  0
LINE
  8
0
  6
CONTINUOUS
 10
442.292389
 20
90.254379
 11
442.997375
 21
90.254379
  0
LINE
  8
0
  6
CONTINUOUS
 10
444.630371
 20
90.254379
 11
445.279785
 21
90.254379
  0
LINE
  8
0
  6
CONTINUOUS
 10
445.279785
 20
88.769997
 11
442.292389
 21
88.769997
  0
LINE
  8
0
  6
CONTINUOUS
 10
449.602997
 20
90.254379
 11
449.898773
 21
90.254379
  0
LINE
  8
0
  6
CONTINUOUS
 10
451.392578
 20
90.254379
 11
451.792389
 21
90.254379
  0
LINE
  8
0
  6
CONTINUOUS
 10
449.602997
 20
88.769997
 11
451.792389
 21
88.769997
  0
LINE
  8
0
  6
CONTINUOUS
 10
451.792389
 20
90.254379
 11
451.792389
 21
88.769997
  0
LINE
  8
0
  6
CONTINUOUS
 10
449.602997
 20
90.254379
 11
449.602997
 21
88.769997
  0
LINE
  8
0
  6
CONTINUOUS
 10
445.279785
 20
90.254379
 11
445.279785
 21
88.769997
  0
LINE
  8
0
  6
CONTINUOUS
 10
442.292389
 20
90.254379
 11
442.292389
 21
88.769997
  0
LINE
  8
0
  6
CONTINUOUS
 10
429.607178
 20
101.275864
 11
429.096985
 21
100.051239
  0
LINE
  8
0
  6
CONTINUOUS
 10
436.121185
 20
101.275864
 11
436.551392
 21
100.051239
  0
LINE
  8
0
  6
CONTINUOUS
 10
433.645996
 20
101.275864
 11
436.121185
 21
101.275864
  0
LINE
  8
0
  6
CONTINUOUS
 10
431.864594
 20
101.275864
 11
429.607178
 21
101.275864
  0
LINE
  8
0
  6
CONTINUOUS
 10
444.630371
 20
95.431137
 11
447.670990
 21
95.431137
  0
LINE
  8
0
  6
CONTINUOUS
 10
442.292389
 20
101.275864
 11
442.997375
 21
101.275864
  0
LINE
  8
0
  6
CONTINUOUS
 10
444.630371
 20
101.275864
 11
449.063385
 21
101.272980
  0
LINE
  8
0
  6
CONTINUOUS
 10
421.919373
 20
100.275864
 11
421.919373
 21
100.051239
  0
LINE
  8
0
  6
CONTINUOUS
 10
517.792358
 20
185.196426
 11
517.792358
 21
100.343597
  0
LINE
  8
0
  6
CONTINUOUS
 10
347.792389
 20
185.196396
 11
347.792389
 21
100.343597
  0
ARC
  8
0
  6
CONTINUOUS
 10
432.792389
 20
142.770004
 40
105.000000
 50
50.655579
 51
129.521500
  0
ARC
  8
0
  6
CONTINUOUS
 10
432.792389
 20
142.770004
 40
105.000000
 50
230.478897
 51
309.521606
  0
ARC
  8
0
  6
CONTINUOUS
 10
467.792389
 20
185.196426
 40
50.000000
 50
0.000000
 51
51.150589
  0
ARC
  8
0
  6
CONTINUOUS
 10
397.792389
 20
185.196396
 40
50.000000
 50
129.521698
 51
180.000000
  0
ARC
  8
0
  6
CONTINUOUS
 10
397.792389
 20
100.343597
 40
50.000000
 50
180.000000
 51
230.479202
  0
ARC
  8
0
  6
CONTINUOUS
 10
467.792389
 20
100.343597
 40
50.000000
 50
-50.478550
 51
0.000000
  0
LINE
  8
0
  6
CONTINUOUS
 10
417.792389
 20
181.270004
 11
417.792389
 21
169.270004
  0
LINE
  8
0
  6
CONTINUOUS
 10
409.792389
 20
181.270004
 11
409.792389
 21
169.270004
  0
LINE
  8
0
  6
CONTINUOUS
 10
409.792389
 20
181.270004
 11
417.792389
 21
181.270004
  0
LINE
  8
0
  6
CONTINUOUS
 10
409.792389
 20
169.270004
 11
417.792389
 21
169.270004
  0
ARC
  8
0
  6
CONTINUOUS
 10
432.792389
 20
175.270004
 40
20.000000
 50
-162.542404
 51
162.542404
  0
LINE
  8
0
  6
CONTINUOUS
 10
730.792419
 20
446.954437
 11
722.292358
 21
446.954437
  0
LINE
  8
0
  6
CONTINUOUS
 10
730.792419
 20
552.954407
 11
722.292358
 21
552.954407
  0
LINE
  8
0
  6
CONTINUOUS
 10
722.292358
 20
468.454437
 11
730.792419
 21
468.454437
  0
LINE
  8
0
  6
CONTINUOUS
 10
722.292358
 20
531.454407
 11
730.792419
 21
531.454407
  0
LINE
  8
0
  6
CONTINUOUS
 10
722.292358
 20
552.954407
 11
722.292358
 21
506.820465
  0
LINE
  8
0
  6
CONTINUOUS
 10
728.792358
 20
505.954437
 11
728.792358
 21
493.954437
  0
LINE
  8
0
  6
CONTINUOUS
 10
721.792358
 20
505.954437
 11
721.792358
 21
493.954437
  0
LINE
  8
0
  6
CONTINUOUS
 10
727.792358
 20
492.954437
 11
722.792358
 21
492.954437
  0
LINE
  8
0
  6
CONTINUOUS
 10
722.792358
 20
506.954437
 11
727.792358
 21
506.954437
  0
ARC
  8
0
  6
CONTINUOUS
 10
722.792358
 20
493.954437
 40
1.000000
 50
180.000000
 51
270.000000
  0
ARC
  8
0
  6
CONTINUOUS
 10
727.792358
 20
493.954437
 40
1.000000
 50
-90.000000
 51
0.000000
  0
ARC
  8
0
  6
CONTINUOUS
 10
727.792358
 20
505.954437
 40
1.000000
 50
0.000000
 51
90.000000
  0
ARC
  8
0
  6
CONTINUOUS
 10
722.792358
 20
505.954437
 40
1.000000
 50
90.000000
 51
180.000000
  0
LINE
  8
0
  6
CONTINUOUS
 10
724.292358
 20
503.454437
 11
724.292358
 21
496.454437
  0
LINE
  8
0
  6
CONTINUOUS
 10
726.292358
 20
503.454437
 11
726.292358
 21
496.454437
  0
ARC
  8
0
  6
CONTINUOUS
 10
725.292358
 20
496.454437
 40
1.000000
 50
-90.000000
 51
0.000000
  0
ARC
  8
0
  6
CONTINUOUS
 10
725.292358
 20
496.454437
 40
1.000000
 50
180.000000
 51
270.000000
  0
ARC
  8
0
  6
CONTINUOUS
 10
725.292358
 20
503.454437
 40
1.000000
 50
0.000000
 51
90.000000
  0
ARC
  8
0
  6
CONTINUOUS
 10
725.292358
 20
503.454437
 40
1.000000
 50
90.000000
 51
180.000000
  0
LINE
  8
0
  6
CONTINUOUS
 10
722.292358
 20
493.088409
 11
722.292358
 21
446.954437
  0
LINE
  8
0
  6
CONTINUOUS
 10
730.792419
 20
444.954437
 11
730.792419
 21
554.954407
  0
LINE
  8
0
  6
CONTINUOUS
 10
769.792419
 20
444.954437
 11
730.792419
 21
444.954437
  0
LINE
  8
0
  6
CONTINUOUS
 10
769.792419
 20
554.954407
 11
730.792419
 21
554.954407
  0
LINE
  8
0
  6
CONTINUOUS
 10
779.792419
 20
544.954407
 11
779.792419
 21
454.954437
  0
LINE
  8
0
  6
CONTINUOUS
 10
774.792419
 20
469.454437
 11
730.792419
 21
469.454437
  0
LINE
  8
0
  6
CONTINUOUS
 10
774.792419
 20
530.454407
 11
730.792419
 21
530.454407
  0
ARC
  8
0
  6
CONTINUOUS
 10
769.792358
 20
454.954437
 40
10.000000
 50
-90.000000
 51
0.000000
  0
ARC
  8
0
  6
CONTINUOUS
 10
769.792419
 20
544.954407
 40
10.000000
 50
0.000000
 51
90.000000
  0
LINE
  8
0
  6
CONTINUOUS
 10
730.792358
 20
161.770004
 11
730.792358
 21
51.770000
  0
LINE
  8
0
  6
CONTINUOUS
 10
730.792358
 20
159.770004
 11
722.292358
 21
159.770004
  0
LINE
  8
0
  6
CONTINUOUS
 10
730.792358
 20
53.770000
 11
722.292358
 21
53.770000
  0
LINE
  8
0
  6
CONTINUOUS
 10
721.792358
 20
161.270004
 11
721.792358
 21
159.770004
  0
LINE
  8
0
  6
CONTINUOUS
 10
728.792358
 20
161.270004
 11
728.792358
 21
159.770004
  0
LINE
  8
0
  6
CONTINUOUS
 10
728.792358
 20
161.270004
 11
721.792358
 21
161.270004
  0
LINE
  8
0
  6
CONTINUOUS
 10
724.392395
 20
174.270004
 11
724.392395
 21
161.270004
  0
LINE
  8
0
  6
CONTINUOUS
 10
726.192383
 20
174.895004
 11
726.192383
 21
161.270004
  0
LINE
  8
0
  6
CONTINUOUS
 10
727.992371
 20
172.832504
 11
727.992371
 21
161.270004
  0
LINE
  8
0
  6
CONTINUOUS
 10
722.592407
 20
173.645004
 11
722.592407
 21
161.270004
  0
LINE
  8
0
  6
CONTINUOUS
 10
726.192383
 20
174.895004
 11
724.392395
 21
174.270004
  0
LINE
  8
0
  6
CONTINUOUS
 10
727.992371
 20
172.832504
 11
726.192383
 21
173.457504
  0
LINE
  8
0
  6
CONTINUOUS
 10
722.592407
 20
173.645004
 11
724.391357
 21
173.197296
  0
LINE
  8
0
  6
CONTINUOUS
 10
730.792358
 20
149.332596
 11
722.292358
 21
149.332596
  0
LINE
  8
0
  6
CONTINUOUS
 10
730.792358
 20
64.085869
 11
722.292358
 21
64.085869
  0
LINE
  8
0
  6
CONTINUOUS
 10
769.792358
 20
161.770004
 11
730.792358
 21
161.770004
  0
LINE
  8
0
  6
CONTINUOUS
 10
769.792358
 20
51.770000
 11
730.792358
 21
51.770000
  0
LINE
  8
0
  6
CONTINUOUS
 10
779.792358
 20
61.770000
 11
779.792358
 21
151.770004
  0
LINE
  8
0
  6
CONTINUOUS
 10
774.792358
 20
137.270004
 11
730.792358
 21
137.270004
  0
LINE
  8
0
  6
CONTINUOUS
 10
774.792358
 20
76.269997
 11
730.792358
 21
76.269997
  0
ARC
  8
0
  6
CONTINUOUS
 10
769.792297
 20
151.770004
 40
10.000000
 50
0.000000
 51
90.000000
  0
ARC
  8
0
  6
CONTINUOUS
 10
769.792358
 20
61.770000
 40
10.000000
 50
-90.000000
 51
0.000000
  0
LINE
  8
0
  6
CONTINUOUS
 10
722.292358
 20
53.770000
 11
722.292358
 21
159.770004
  0
ARC
  8
0
  6
CONTINUOUS
 10
730.792419
 20
541.724243
 40
4.500000
 50
180.000000
 51
270.000000
  0
ARC
  8
0
  6
CONTINUOUS
 10
730.792419
 20
541.724243
 40
3.000000
 50
180.000000
 51
270.000000
  0
ARC
  8
0
  6
CONTINUOUS
 10
730.792419
 20
541.724243
 40
1.500000
 50
180.000000
 51
270.000000
  0
LINE
  8
0
  6
CONTINUOUS
 10
729.292419
 20
541.724243
 11
729.292419
 21
546.739868
  0
LINE
  8
0
  6
CONTINUOUS
 10
727.792419
 20
541.724243
 11
727.792419
 21
546.224243
  0
LINE
  8
0
  6
CONTINUOUS
 10
726.292419
 20
541.724243
 11
726.292419
 21
546.224243
  0
LINE
  8
0
  6
CONTINUOUS
 10
729.292419
 20
546.724243
 11
727.792419
 21
546.224243
  0
LINE
  8
0
  6
CONTINUOUS
 10
727.792419
 20
545.724243
 11
726.292419
 21
546.224243
  0
LINE
  8
0
  6
CONTINUOUS
 10
602.292358
 20
531.454407
 11
602.292358
 21
550.954468
  0
TEXT
  8
0
 10
-4.000000
 20
-6.000000
 40
4.000000
 41
1.000000
  1
HLMN-40L-1200~1800-T90W
 50
0.000000
  0
ENDSEC
  0
EOF
