  0
SECTION
  2
HEADER
  9
$CLAYER
  8
1
  9
$LTSCALE
 40
3.0
  0
ENDSEC
  0
SECTION
  2
TABLES
  0
TABLE
  2
LTYPE
 70
     4
  0
LTYPE
  2
CONTINUOUS
  3
solid line
 70
    64
 72
    65
 73
     0
 40
0.0
  0
LTYPE
  2
DASHED
  3
__ __ __ __ __ __ __ __ __ __ __ __ __ __ __
 70
    64
 72
    65
 73
     2
 40
0.75
 49
0.5
 49
-0.25
  0
LTYPE
  2
CENTER
  3
____ _ ____ _ ____ _ ____ _ ____ _ ____ _ ____
 70
    64
 72
    65
 73
     4
 40
2.0
 49
1.25
 49
-0.25
 49
0.25
 49
-0.25
  0
LTYPE
  2
PHANTOM
  3
_____ _ _ _____ _ _ _____ _ _ _____ _ _ ____
 70
    64
 72
    65
 73
     6
 40
2.5
 49
1.25
 49
-0.25
 49
0.25
 49
-0.25
 49
0.25
 49
-0.25
  0
ENDTAB
  0
TABLE
  2
LAYER
 70
     1
  0
LAYER
  2
0
 70
    64
 62
     7
  6
CONTINUOUS
  0
ENDTAB
  0
TABLE
  2
STYLE
 70
     1
  0
STYLE
  2
STANDARD
 70
     0
 40
0.000000
 41
1.000000
 50
0.000000
 71
     0
 42
3.000000
  3
txt
  4
BIGFONT
  0
ENDTAB
  0
ENDSEC
  0
SECTION
  2
BLOCKS
  0
ENDSEC
  0
SECTION
  2
ENTITIES
  0
LINE
  8
0
  6
CONTINUOUS
 10
244.922379
 20
56.002499
 11
244.922379
 21
198.002502
  0
LINE
  8
0
  6
CENTER
 10
147.532501
 20
127.002502
 11
291.412384
 21
127.002502
  0
LINE
  8
0
  6
CENTER
 10
347.922394
 20
270.357513
 11
347.922394
 21
1.362500
  0
LINE
  8
0
  6
CENTER
 10
273.230011
 20
180.502502
 11
422.934998
 21
180.502502
  0
LINE
  8
0
  6
CONTINUOUS
 10
257.922394
 20
15.502500
 11
437.922394
 21
15.502500
  0
LINE
  8
0
  6
CONTINUOUS
 10
257.922394
 20
35.502499
 11
437.922394
 21
35.502499
  0
LINE
  8
0
  6
CONTINUOUS
 10
316.107971
 20
258.002502
 11
379.736786
 21
258.002502
  0
LINE
  8
0
  6
CONTINUOUS
 10
437.922394
 20
213.834503
 11
437.922394
 21
15.502500
  0
LINE
  8
0
  6
CONTINUOUS
 10
257.922394
 20
213.834503
 11
257.922394
 21
15.502500
  0
LINE
  8
0
  6
CONTINUOUS
 10
244.922379
 20
198.002502
 11
252.922379
 21
198.002502
  0
LINE
  8
0
  6
CONTINUOUS
 10
244.922379
 20
56.002499
 11
252.922379
 21
56.002499
  0
LINE
  8
0
  6
CONTINUOUS
 10
385.520996
 20
256.159851
 11
433.706787
 21
221.991821
  0
LINE
  8
0
  6
CONTINUOUS
 10
262.138184
 20
221.991821
 11
310.323792
 21
256.159851
  0
ARC
  8
0
  6
CONTINUOUS
 10
427.922394
 20
213.834457
 40
10.000000
 50
0.000000
 51
54.660099
  0
ARC
  8
0
  6
CONTINUOUS
 10
379.736786
 20
248.002502
 40
10.000000
 50
54.659950
 51
90.000000
  0
ARC
  8
0
  6
CONTINUOUS
 10
316.107971
 20
248.002502
 40
10.000000
 50
90.000000
 51
125.340302
  0
ARC
  8
0
  6
CONTINUOUS
 10
267.922394
 20
213.834534
 40
10.000000
 50
125.340500
 51
180.000000
  0
ARC
  8
0
  6
CONTINUOUS
 10
252.922379
 20
203.002502
 40
5.000000
 50
-90.000000
 51
0.000000
  0
ARC
  8
0
  6
CONTINUOUS
 10
252.922379
 20
51.002480
 40
5.000000
 50
0.000000
 51
90.000000
  0
LINE
  8
0
  6
CENTER
 10
407.922394
 20
41.257500
 11
407.922394
 21
7.287500
  0
LINE
  8
0
  6
CENTER
 10
287.922394
 20
42.442501
 11
287.922394
 21
7.682500
  0
LINE
  8
0
  6
DASHED
 10
400.422394
 20
35.502499
 11
400.422394
 21
15.502500
  0
LINE
  8
0
  6
DASHED
 10
415.422394
 20
35.502499
 11
415.422394
 21
15.502500
  0
LINE
  8
0
  6
DASHED
 10
295.422394
 20
35.502499
 11
295.422394
 21
15.502500
  0
LINE
  8
0
  6
DASHED
 10
280.422394
 20
35.502499
 11
280.422394
 21
15.502500
  0
LINE
  8
0
  6
CONTINUOUS
 10
423.922394
 20
32.817181
 11
423.922394
 21
15.502500
  0
LINE
  8
0
  6
CONTINUOUS
 10
271.922394
 20
32.817181
 11
271.922394
 21
15.502500
  0
LINE
  8
0
  6
CONTINUOUS
 10
381.679779
 20
40.502499
 11
314.164978
 21
40.502499
  0
LINE
  8
0
  6
CONTINUOUS
 10
312.922394
 20
39.365620
 11
312.922394
 21
36.502499
  0
LINE
  8
0
  6
CONTINUOUS
 10
382.922394
 20
39.365620
 11
382.922394
 21
36.502499
  0
LINE
  8
0
  6
CONTINUOUS
 10
383.800995
 20
39.623821
 11
386.457977
 21
36.966942
  0
LINE
  8
0
  6
CONTINUOUS
 10
312.043793
 20
39.623821
 11
309.386780
 21
36.966999
  0
ARC
  8
0
  6
CONTINUOUS
 10
305.851379
 20
40.502499
 40
5.000000
 50
270.000000
 51
315.000092
  0
ARC
  8
0
  6
CONTINUOUS
 10
389.993378
 20
40.502499
 40
5.000000
 50
225.000107
 51
270.000000
  0
ARC
  8
0
  6
CONTINUOUS
 10
314.164978
 20
37.502499
 40
3.000000
 50
90.000000
 51
135.000397
  0
ARC
  8
0
  6
CONTINUOUS
 10
381.679779
 20
37.502499
 40
3.000000
 50
45.000259
 51
90.000000
  0
ARC
  8
0
  6
CONTINUOUS
 10
311.922394
 20
36.502499
 40
1.000000
 50
-90.000000
 51
0.000000
  0
ARC
  8
0
  6
CONTINUOUS
 10
383.922394
 20
36.502499
 40
1.000000
 50
180.000000
 51
270.000000
  0
CIRCLE
  8
0
  6
CONTINUOUS
 10
347.922394
 20
180.502502
 40
46.000000
  0
ARC
  8
0
  6
CONTINUOUS
 10
347.922394
 20
180.502502
 40
52.000000
 50
12.522720
 51
167.477402
  0
ARC
  8
0
  6
CONTINUOUS
 10
347.922394
 20
180.502502
 40
48.000000
 50
-192.522598
 51
12.522720
  0
ARC
  8
0
  6
CONTINUOUS
 10
317.922394
 20
110.002502
 40
34.000000
 50
167.477402
 51
270.000000
  0
ARC
  8
0
  6
CONTINUOUS
 10
317.922394
 20
110.002502
 40
38.000000
 50
167.477402
 51
270.000000
  0
ARC
  8
0
  6
CONTINUOUS
 10
377.922394
 20
110.002502
 40
34.000000
 50
-90.000000
 51
12.522730
  0
ARC
  8
0
  6
CONTINUOUS
 10
377.922394
 20
110.002502
 40
38.000000
 50
-90.000000
 51
12.522720
  0
LINE
  8
0
  6
CONTINUOUS
 10
280.826385
 20
118.241867
 11
297.159393
 21
191.777405
  0
LINE
  8
0
  6
CONTINUOUS
 10
398.685394
 20
191.777496
 11
415.018372
 21
118.241928
  0
LINE
  8
0
  6
CONTINUOUS
 10
394.780396
 20
190.910187
 11
411.113586
 21
117.374619
  0
LINE
  8
0
  6
CONTINUOUS
 10
284.731171
 20
117.374565
 11
301.064392
 21
190.910126
  0
LINE
  8
0
  6
CONTINUOUS
 10
317.922394
 20
76.002502
 11
377.922394
 21
76.002502
  0
LINE
  8
0
  6
CONTINUOUS
 10
317.922394
 20
72.002502
 11
377.922394
 21
72.002502
  0
LINE
  8
0
  6
CONTINUOUS
 10
335.695374
 20
94.002502
 11
330.754974
 21
94.002502
  0
LINE
  8
0
  6
CONTINUOUS
 10
338.422394
 20
102.277901
 11
338.422394
 21
94.002502
  0
LINE
  8
0
  6
CONTINUOUS
 10
343.172394
 20
105.283737
 11
343.172394
 21
108.252502
  0
LINE
  8
0
  6
CONTINUOUS
 10
352.672394
 20
105.283737
 11
352.672394
 21
108.252502
  0
LINE
  8
0
  6
CONTINUOUS
 10
346.994568
 20
106.508362
 11
346.994568
 21
95.561096
  0
LINE
  8
0
  6
CONTINUOUS
 10
348.775970
 20
106.508362
 11
348.775970
 21
95.561096
  0
LINE
  8
0
  6
CONTINUOUS
 10
358.127594
 20
106.508362
 11
358.127594
 21
95.486877
  0
LINE
  8
0
  6
CONTINUOUS
 10
359.760376
 20
100.663643
 11
359.760376
 21
95.486877
  0
LINE
  8
0
  6
CONTINUOUS
 10
336.168396
 20
106.359917
 11
331.590790
 21
106.359917
  0
LINE
  8
0
  6
CONTINUOUS
 10
331.590790
 20
106.359917
 11
330.518188
 21
105.029922
  0
LINE
  8
0
  6
CONTINUOUS
 10
330.647186
 20
108.252502
 11
328.922394
 21
106.044037
  0
LINE
  8
0
  6
CONTINUOUS
 10
330.518188
 20
96.820343
 11
331.607971
 21
95.672417
  0
LINE
  8
0
  6
CONTINUOUS
 10
328.922394
 20
95.851624
 11
330.754974
 21
94.002502
  0
LINE
  8
0
  6
CONTINUOUS
 10
328.922394
 20
106.044037
 11
328.922394
 21
95.851624
  0
LINE
  8
0
  6
CONTINUOUS
 10
330.518188
 20
105.029922
 11
330.518188
 21
96.820343
  0
LINE
  8
0
  6
CONTINUOUS
 10
337.049377
 20
105.508362
 11
336.150391
 21
106.359917
  0
LINE
  8
0
  6
CONTINUOUS
 10
337.034973
 20
108.252502
 11
338.422394
 21
106.712921
  0
LINE
  8
0
  6
CONTINUOUS
 10
337.049377
 20
105.283737
 11
338.422394
 21
105.283737
  0
LINE
  8
0
  6
CONTINUOUS
 10
330.647186
 20
108.252502
 11
337.034973
 21
108.252502
  0
LINE
  8
0
  6
CONTINUOUS
 10
334.562988
 20
102.277901
 11
338.422394
 21
102.277901
  0
LINE
  8
0
  6
CONTINUOUS
 10
337.049377
 20
100.719299
 11
334.562988
 21
100.719299
  0
LINE
  8
0
  6
CONTINUOUS
 10
334.080597
 20
95.672417
 11
331.607971
 21
95.672417
  0
LINE
  8
0
  6
CONTINUOUS
 10
337.049377
 20
99.234917
 11
337.049377
 21
100.422417
  0
ARC
  8
0
  6
CONTINUOUS
 10
334.080597
 20
98.641159
 40
2.968750
 50
-89.999786
 51
0.000109
  0
LINE
  8
0
  6
CONTINUOUS
 10
337.049377
 20
95.138420
 11
337.049377
 21
94.002502
  0
LINE
  8
0
  6
CONTINUOUS
 10
338.422394
 20
106.712921
 11
338.422394
 21
105.283737
  0
LINE
  8
0
  6
CONTINUOUS
 10
337.049377
 20
100.719299
 11
337.049377
 21
98.641159
  0
LINE
  8
0
  6
CONTINUOUS
 10
334.562988
 20
102.277901
 11
334.562988
 21
100.719299
  0
LINE
  8
0
  6
CONTINUOUS
 10
337.049377
 20
94.002502
 11
338.422394
 21
94.002502
  0
LINE
  8
0
  6
CONTINUOUS
 10
337.049377
 20
95.138420
 11
335.695374
 21
94.002502
  0
LINE
  8
0
  6
CONTINUOUS
 10
348.775970
 20
95.561096
 11
349.369568
 21
95.561096
  0
LINE
  8
0
  6
CONTINUOUS
 10
346.289581
 20
95.561096
 11
346.289581
 21
94.002502
  0
LINE
  8
0
  6
CONTINUOUS
 10
349.369568
 20
95.561096
 11
349.369568
 21
94.002502
  0
LINE
  8
0
  6
CONTINUOUS
 10
351.681396
 20
105.283737
 11
352.672394
 21
105.283737
  0
LINE
  8
0
  6
CONTINUOUS
 10
343.172394
 20
105.283737
 11
344.226990
 21
105.283737
  0
LINE
  8
0
  6
CONTINUOUS
 10
343.172394
 20
108.252502
 11
352.672394
 21
108.252502
  0
LINE
  8
0
  6
CONTINUOUS
 10
346.289581
 20
94.002502
 11
349.369568
 21
94.002502
  0
LINE
  8
0
  6
CONTINUOUS
 10
346.289581
 20
95.561096
 11
346.994568
 21
95.561096
  0
ARC
  8
0
  6
CONTINUOUS
 10
363.118591
 20
104.448776
 40
3.803712
 50
-73.981873
 51
90.003510
  0
ARC
  8
0
  6
CONTINUOUS
 10
363.118591
 20
104.448776
 40
2.320524
 50
-82.585274
 51
62.411850
  0
LINE
  8
0
  6
CONTINUOUS
 10
357.422394
 20
108.252502
 11
363.118591
 21
108.252502
  0
LINE
  8
0
  6
CONTINUOUS
 10
363.418182
 20
102.147659
 11
359.760376
 21
102.147659
  0
LINE
  8
0
  6
CONTINUOUS
 10
357.422394
 20
108.252502
 11
357.422394
 21
106.508362
  0
LINE
  8
0
  6
CONTINUOUS
 10
359.760376
 20
106.508362
 11
359.760376
 21
102.147659
  0
LINE
  8
0
  6
CONTINUOUS
 10
364.168182
 20
100.792763
 11
366.522583
 21
95.486877
  0
LINE
  8
0
  6
CONTINUOUS
 10
362.800995
 20
100.663643
 11
365.028778
 21
95.486877
  0
LINE
  8
0
  6
CONTINUOUS
 10
357.422394
 20
95.486877
 11
358.127594
 21
95.486877
  0
LINE
  8
0
  6
CONTINUOUS
 10
359.760376
 20
95.486877
 11
360.409790
 21
95.486877
  0
LINE
  8
0
  6
CONTINUOUS
 10
360.409790
 20
94.002502
 11
357.422394
 21
94.002502
  0
LINE
  8
0
  6
CONTINUOUS
 10
364.732971
 20
95.486877
 11
365.028778
 21
95.486877
  0
LINE
  8
0
  6
CONTINUOUS
 10
366.522583
 20
95.486877
 11
366.922394
 21
95.486877
  0
LINE
  8
0
  6
CONTINUOUS
 10
364.732971
 20
94.002502
 11
366.922394
 21
94.002502
  0
LINE
  8
0
  6
CONTINUOUS
 10
366.922394
 20
95.486877
 11
366.922394
 21
94.002502
  0
LINE
  8
0
  6
CONTINUOUS
 10
364.732971
 20
95.486877
 11
364.732971
 21
94.002502
  0
LINE
  8
0
  6
CONTINUOUS
 10
360.409790
 20
95.486877
 11
360.409790
 21
94.002502
  0
LINE
  8
0
  6
CONTINUOUS
 10
357.422394
 20
95.486877
 11
357.422394
 21
94.002502
  0
LINE
  8
0
  6
CONTINUOUS
 10
344.737183
 20
106.508362
 11
344.226990
 21
105.283737
  0
LINE
  8
0
  6
CONTINUOUS
 10
351.251190
 20
106.508362
 11
351.681396
 21
105.283737
  0
LINE
  8
0
  6
CONTINUOUS
 10
348.775970
 20
106.508362
 11
351.251190
 21
106.508362
  0
LINE
  8
0
  6
CONTINUOUS
 10
346.994568
 20
106.508362
 11
344.737183
 21
106.508362
  0
LINE
  8
0
  6
CONTINUOUS
 10
359.760376
 20
100.663643
 11
362.800995
 21
100.663643
  0
LINE
  8
0
  6
CONTINUOUS
 10
357.422394
 20
106.508362
 11
358.127594
 21
106.508362
  0
LINE
  8
0
  6
CONTINUOUS
 10
359.760376
 20
106.508362
 11
364.193390
 21
106.505478
  0
LINE
  8
0
  6
CONTINUOUS
 10
337.049377
 20
105.508362
 11
337.049377
 21
105.283737
  0
ARC
  8
0
  6
CONTINUOUS
 10
467.603973
 20
127.002502
 40
215.181595
 50
167.017899
 51
192.982101
  0
LINE
  8
0
  6
CONTINUOUS
 10
58.422382
 20
165.002502
 11
188.422379
 21
165.002502
  0
LINE
  8
0
  6
CONTINUOUS
 10
58.422382
 20
59.002499
 11
188.422379
 21
59.002499
  0
LINE
  8
0
  6
CONTINUOUS
 10
58.422382
 20
154.625839
 11
177.084137
 21
154.625839
  0
LINE
  8
0
  6
CONTINUOUS
 10
58.422382
 20
69.379143
 11
177.084137
 21
69.379143
  0
LINE
  8
0
  6
CONTINUOUS
 10
178.422379
 20
163.002502
 11
178.422379
 21
61.002480
  0
ARC
  8
0
  6
CONTINUOUS
 10
180.422379
 20
163.002518
 40
2.000000
 50
90.000000
 51
180.000000
  0
ARC
  8
0
  6
CONTINUOUS
 10
180.422379
 20
61.002499
 40
2.000000
 50
180.000000
 51
270.000000
  0
LINE
  8
0
  6
CENTER
 10
688.161621
 20
-1.007500
 11
688.161621
 21
271.147491
  0
LINE
  8
0
  6
CENTER
 10
587.359192
 20
127.002502
 11
784.069214
 21
127.002502
  0
LINE
  8
0
  6
CENTER
 10
532.349976
 20
180.502502
 11
779.329224
 21
180.502502
  0
LINE
  8
0
  6
CENTER
 10
618.161621
 20
47.182499
 11
618.161621
 21
8.472500
  0
LINE
  8
0
  6
CENTER
 10
758.161621
 20
44.417500
 11
758.161621
 21
7.682500
  0
LINE
  8
0
  6
DASHED
 10
750.661621
 20
35.502499
 11
750.661621
 21
15.502500
  0
LINE
  8
0
  6
DASHED
 10
765.661621
 20
35.502499
 11
765.661621
 21
15.502500
  0
LINE
  8
0
  6
DASHED
 10
625.661621
 20
35.502499
 11
625.661621
 21
15.502500
  0
LINE
  8
0
  6
DASHED
 10
610.661621
 20
35.502499
 11
610.661621
 21
15.502500
  0
LINE
  8
0
  6
CONTINUOUS
 10
598.161621
 20
15.502500
 11
653.161621
 21
15.502500
  0
LINE
  8
0
  6
CONTINUOUS
 10
723.161621
 20
15.502500
 11
778.161621
 21
15.502500
  0
LINE
  8
0
  6
CONTINUOUS
 10
745.161621
 20
35.502499
 11
775.161621
 21
35.502499
  0
LINE
  8
0
  6
CONTINUOUS
 10
601.161621
 20
35.502499
 11
631.161621
 21
35.502499
  0
LINE
  8
0
  6
CONTINUOUS
 10
598.161621
 20
32.871380
 11
598.161621
 21
15.502520
  0
LINE
  8
0
  6
CONTINUOUS
 10
778.161621
 20
32.871380
 11
778.161621
 21
15.502500
  0
LINE
  8
0
  6
CONTINUOUS
 10
740.161621
 20
237.782593
 11
740.161621
 21
253.164261
  0
LINE
  8
0
  6
CONTINUOUS
 10
636.161621
 20
253.163879
 11
636.161621
 21
15.502500
  0
LINE
  8
0
  6
CONTINUOUS
 10
654.661621
 20
17.002501
 11
721.661621
 21
17.002501
  0
LINE
  8
0
  6
CONTINUOUS
 10
640.606201
 20
219.002502
 11
736.393372
 21
219.002502
  0
LINE
  8
0
  6
CONTINUOUS
 10
736.231384
 20
257.163635
 11
688.161621
 21
258.002533
  0
LINE
  8
0
  6
CONTINUOUS
 10
640.091797
 20
257.163269
 11
688.161621
 21
258.002533
  0
LINE
  8
0
  6
CONTINUOUS
 10
615.161621
 20
139.782608
 11
615.161621
 21
221.222382
  0
LINE
  8
0
  6
CONTINUOUS
 10
761.161621
 20
139.782608
 11
761.161621
 21
221.222382
  0
LINE
  8
0
  6
CONTINUOUS
 10
622.161621
 20
81.282600
 11
622.161621
 21
184.642776
  0
LINE
  8
0
  6
CONTINUOUS
 10
754.161621
 20
81.282623
 11
754.161621
 21
184.642776
  0
ARC
  8
0
  6
CONTINUOUS
 10
640.161621
 20
253.163895
 40
4.000000
 50
91.000580
 51
180.000000
  0
ARC
  8
0
  6
CONTINUOUS
 10
736.161621
 20
253.164246
 40
4.000000
 50
0.000000
 51
89.000359
  0
LINE
  8
0
  6
CONTINUOUS
 10
620.238586
 20
227.953064
 11
631.084595
 21
231.051941
  0
LINE
  8
0
  6
CONTINUOUS
 10
745.238586
 20
231.051941
 11
756.084595
 21
227.953064
  0
LINE
  8
0
  6
CONTINUOUS
 10
627.238586
 20
74.551941
 11
631.084595
 21
73.453056
  0
LINE
  8
0
  6
CONTINUOUS
 10
749.084595
 20
74.551941
 11
745.238586
 21
73.453056
  0
LINE
  8
0
  6
CONTINUOUS
 10
775.552979
 20
35.845741
 11
742.770203
 21
40.159260
  0
LINE
  8
0
  6
CONTINUOUS
 10
600.770203
 20
35.845741
 11
633.552979
 21
40.159279
  0
ARC
  8
0
  6
CONTINUOUS
 10
622.161621
 20
221.222427
 40
7.000000
 50
105.945801
 51
180.000000
  0
ARC
  8
0
  6
CONTINUOUS
 10
622.161621
 20
139.782654
 40
7.000000
 50
180.000000
 51
240.000198
  0
ARC
  8
0
  6
CONTINUOUS
 10
754.161621
 20
221.222366
 40
7.000000
 50
0.000000
 51
74.054764
  0
ARC
  8
0
  6
CONTINUOUS
 10
754.161621
 20
139.782593
 40
7.000000
 50
-59.999882
 51
0.000000
  0
ARC
  8
0
  6
CONTINUOUS
 10
629.161621
 20
81.282661
 40
7.000000
 50
180.000000
 51
254.054901
  0
ARC
  8
0
  6
CONTINUOUS
 10
747.161621
 20
81.282600
 40
7.000000
 50
-74.054497
 51
0.000000
  0
LINE
  8
0
  6
CONTINUOUS
 10
740.161621
 20
40.502499
 11
740.161621
 21
237.782593
  0
ARC
  8
0
  6
CONTINUOUS
 10
747.161621
 20
237.782654
 40
7.000000
 50
180.000000
 51
254.054901
  0
ARC
  8
0
  6
CONTINUOUS
 10
747.161621
 20
66.722443
 40
7.000000
 50
105.945801
 51
180.000000
  0
ARC
  8
0
  6
CONTINUOUS
 10
761.161621
 20
127.658241
 40
7.000000
 50
120.000099
 51
180.000000
  0
ARC
  8
0
  6
CONTINUOUS
 10
743.161621
 20
43.133640
 40
3.000000
 50
180.000000
 51
262.504395
  0
ARC
  8
0
  6
CONTINUOUS
 10
775.161621
 20
32.502499
 40
3.000000
 50
0.000000
 51
90.000000
  0
ARC
  8
0
  6
CONTINUOUS
 10
775.161621
 20
32.871361
 40
3.000000
 50
0.000000
 51
82.504204
  0
LINE
  8
0
  6
CONTINUOUS
 10
740.161621
 20
40.502499
 11
740.161621
 21
15.502500
  0
ARC
  8
0
  6
CONTINUOUS
 10
745.161621
 20
40.502522
 40
5.000000
 50
180.000000
 51
270.000000
  0
ARC
  8
0
  6
CONTINUOUS
 10
633.161621
 20
43.133640
 40
3.000000
 50
-82.503883
 51
0.000000
  0
ARC
  8
0
  6
CONTINUOUS
 10
631.161621
 20
40.502499
 40
5.000000
 50
-90.000000
 51
0.000000
  0
ARC
  8
0
  6
CONTINUOUS
 10
601.161621
 20
32.502522
 40
3.000000
 50
90.000000
 51
180.000000
  0
ARC
  8
0
  6
CONTINUOUS
 10
601.161621
 20
32.871399
 40
3.000000
 50
97.496292
 51
180.000000
  0
LINE
  8
0
  6
CONTINUOUS
 10
653.161621
 20
15.502500
 11
654.661621
 21
17.002501
  0
LINE
  8
0
  6
CONTINUOUS
 10
723.161621
 20
15.502500
 11
721.661621
 21
17.002501
  0
ARC
  8
0
  6
CONTINUOUS
 10
629.161621
 20
66.722359
 40
7.000000
 50
0.000000
 51
74.054688
  0
ARC
  8
0
  6
CONTINUOUS
 10
615.161621
 20
127.658279
 40
7.000000
 50
0.000000
 51
60.000092
  0
ARC
  8
0
  6
CONTINUOUS
 10
629.161621
 20
237.782593
 40
7.000000
 50
-74.054443
 51
0.000000
  0
ARC
  8
0
  6
CONTINUOUS
 10
688.161621
 20
127.002502
 40
71.000000
 50
-21.630920
 51
6.068256
  0
ARC
  8
0
  6
CONTINUOUS
 10
688.161621
 20
127.002502
 40
71.000000
 50
173.931793
 51
201.630905
  0
LINE
  8
0
  6
CONTINUOUS
 10
741.161621
 20
70.327980
 11
741.161621
 21
64.002502
  0
LINE
  8
0
  6
CONTINUOUS
 10
635.161621
 20
64.002502
 11
635.161621
 21
70.191498
  0
ARC
  8
0
  6
CONTINUOUS
 10
736.161621
 20
64.002502
 40
5.000000
 50
-36.869869
 51
0.000000
  0
ARC
  8
0
  6
CONTINUOUS
 10
640.161621
 20
64.002502
 40
5.000000
 50
180.000000
 51
216.865204
  0
LINE
  8
0
  6
CONTINUOUS
 10
362.922394
 20
174.502563
 11
362.922394
 21
186.502563
  0
LINE
  8
0
  6
CONTINUOUS
 10
370.922394
 20
174.502579
 11
370.922394
 21
186.502579
  0
LINE
  8
0
  6
CONTINUOUS
 10
370.922394
 20
174.502579
 11
362.922394
 21
174.502563
  0
LINE
  8
0
  6
CONTINUOUS
 10
370.922394
 20
186.502579
 11
362.922394
 21
186.502563
  0
ARC
  8
0
  6
CONTINUOUS
 10
347.922394
 20
180.502502
 40
20.000000
 50
17.457600
 51
342.542389
  0
LINE
  8
0
  6
CONTINUOUS
 10
548.161621
 20
160.502502
 11
548.161621
 21
200.502502
  0
LINE
  8
0
  6
CONTINUOUS
 10
613.161621
 20
200.502502
 11
548.161621
 21
200.502502
  0
LINE
  8
0
  6
CONTINUOUS
 10
613.161621
 20
160.502502
 11
548.161621
 21
160.502502
  0
LINE
  8
0
  6
CONTINUOUS
 10
613.161621
 20
203.002502
 11
613.161621
 21
158.002502
  0
LINE
  8
0
  6
CONTINUOUS
 10
615.161621
 20
203.002502
 11
613.161621
 21
203.002502
  0
LINE
  8
0
  6
CONTINUOUS
 10
615.161621
 20
158.002502
 11
613.161621
 21
158.002502
  0
ARC
  8
0
  6
CONTINUOUS
 10
602.161621
 20
180.502502
 40
6.000000
 50
-90.000000
 51
90.000000
  0
LINE
  8
0
  6
CONTINUOUS
 10
602.161621
 20
186.502502
 11
548.161621
 21
186.502502
  0
LINE
  8
0
  6
CONTINUOUS
 10
602.161621
 20
174.502502
 11
548.161621
 21
174.502502
  0
LINE
  8
0
  6
CONTINUOUS
 10
235.922379
 20
81.758499
 11
235.922379
 21
196.002502
  0
LINE
  8
0
  6
CENTER
 10
-15.375000
 20
112.002502
 11
291.412384
 21
112.002502
  0
LINE
  8
0
  6
CONTINUOUS
 10
237.922379
 20
198.002502
 11
244.922379
 21
198.002502
  0
LINE
  8
0
  6
CONTINUOUS
 10
237.922379
 20
56.002522
 11
244.922379
 21
56.002522
  0
LINE
  8
0
  6
CONTINUOUS
 10
216.922379
 20
59.002499
 11
188.422379
 21
59.002499
  0
LINE
  8
0
  6
CONTINUOUS
 10
188.422379
 20
165.002502
 11
232.922363
 21
165.002502
  0
LINE
  8
0
  6
CONTINUOUS
 10
234.422379
 20
176.136475
 11
215.834122
 21
165.404419
  0
ARC
  8
0
  6
CONTINUOUS
 10
237.922409
 20
196.002502
 40
2.000000
 50
90.000000
 51
180.000000
  0
ARC
  8
0
  6
CONTINUOUS
 10
237.922379
 20
58.002499
 40
2.000000
 50
194.477707
 51
270.000000
  0
LINE
  8
0
  6
CONTINUOUS
 10
216.922379
 20
61.002499
 11
216.922379
 21
77.758499
  0
LINE
  8
0
  6
CONTINUOUS
 10
233.922379
 20
79.758499
 11
218.922379
 21
79.758499
  0
ARC
  8
0
  6
CONTINUOUS
 10
218.922379
 20
77.758522
 40
2.000000
 50
90.000000
 51
180.000000
  0
ARC
  8
0
  6
CONTINUOUS
 10
234.049408
 20
57.002499
 40
2.000000
 50
14.477280
 51
90.000000
  0
ARC
  8
0
  6
CONTINUOUS
 10
233.922379
 20
81.758499
 40
2.000000
 50
-90.000000
 51
0.000000
  0
LINE
  8
0
  6
CONTINUOUS
 10
216.922379
 20
59.002499
 11
234.049408
 21
59.002499
  0
ARC
  8
0
  6
CONTINUOUS
 10
214.922379
 20
61.002499
 40
2.000000
 50
-90.000000
 51
0.000000
  0
ARC
  8
0
  6
CONTINUOUS
 10
232.922379
 20
168.002502
 40
3.000000
 50
-90.000000
 51
0.000000
  0
ARC
  8
0
  6
CONTINUOUS
 10
232.922379
 20
178.734543
 40
3.000000
 50
-59.999660
 51
0.000000
  0
ARC
  8
0
  6
CONTINUOUS
 10
214.334106
 20
168.002502
 40
3.000000
 50
270.000000
 51
300.000305
  0
LINE
  8
0
  6
CONTINUOUS
 10
188.422379
 20
165.002502
 11
188.422379
 21
59.002499
  0
LINE
  8
0
  6
CONTINUOUS
 10
416.791504
 20
595.186707
 11
347.923035
 21
595.186707
  0
LINE
  8
0
  6
CONTINUOUS
 10
416.790894
 20
415.186676
 11
370.922394
 21
415.186768
  0
LINE
  8
0
  6
CENTER
 10
347.922394
 20
350.797852
 11
347.922943
 21
621.032471
  0
LINE
  8
0
  6
CENTER
 10
422.776184
 20
575.187500
 11
394.408142
 21
575.187500
  0
LINE
  8
0
  6
CONTINUOUS
 10
437.922699
 20
505.186737
 11
437.014709
 21
453.186707
  0
LINE
  8
0
  6
CONTINUOUS
 10
426.245483
 20
421.929260
 11
437.014709
 21
453.186707
  0
ARC
  8
0
  6
CONTINUOUS
 10
416.791107
 20
425.186737
 40
10.000000
 50
-90.000000
 51
-19.010900
  0
ARC
  8
0
  6
CONTINUOUS
 10
407.922699
 20
575.187500
 40
7.500000
 50
-46.074883
 51
212.226791
  0
LINE
  8
0
  6
CONTINUOUS
 10
437.922699
 20
505.186737
 11
437.014893
 21
557.186707
  0
LINE
  8
0
  6
CONTINUOUS
 10
426.245911
 20
588.444092
 11
437.014893
 21
557.186707
  0
ARC
  8
0
  6
CONTINUOUS
 10
416.791504
 20
585.186707
 40
10.000000
 50
19.010900
 51
90.000000
  0
LINE
  8
0
  6
CONTINUOUS
 10
257.922699
 20
505.186920
 11
258.830505
 21
453.186981
  0
LINE
  8
0
  6
CONTINUOUS
 10
269.599487
 20
421.929535
 11
258.830505
 21
453.186981
  0
ARC
  8
0
  6
CONTINUOUS
 10
279.054108
 20
425.186981
 40
10.000000
 50
199.010895
 51
270.000000
  0
LINE
  8
0
  6
CONTINUOUS
 10
257.922699
 20
505.186920
 11
258.779236
 21
554.239502
  0
LINE
  8
0
  6
CONTINUOUS
 10
269.599884
 20
588.444275
 11
259.177521
 21
558.193542
  0
LINE
  8
0
  6
CONTINUOUS
 10
246.960495
 20
576.186890
 11
244.922897
 21
576.186890
  0
LINE
  8
0
  6
CONTINUOUS
 10
244.922897
 20
576.186890
 11
244.922501
 21
434.186981
  0
LINE
  8
0
  6
CONTINUOUS
 10
256.032501
 20
562.375061
 11
253.721893
 21
570.998718
  0
ARC
  8
0
  6
CONTINUOUS
 10
246.960495
 20
569.186890
 40
7.000000
 50
14.999900
 51
90.000000
  0
ARC
  8
0
  6
CONTINUOUS
 10
262.794098
 20
564.186890
 40
7.000000
 50
-165.000305
 51
-90.000000
  0
LINE
  8
0
  6
CONTINUOUS
 10
246.960098
 20
434.186981
 11
244.922501
 21
434.186981
  0
LINE
  8
0
  6
CONTINUOUS
 10
256.032288
 20
447.998810
 11
253.721695
 21
439.375214
  0
ARC
  8
0
  6
CONTINUOUS
 10
246.960098
 20
441.187042
 40
7.000000
 50
-90.000000
 51
-14.999900
  0
ARC
  8
0
  6
CONTINUOUS
 10
262.793884
 20
446.186981
 40
7.000000
 50
121.109207
 51
165.000336
  0
ARC
  8
0
  6
CONTINUOUS
 10
279.054108
 20
585.187317
 40
10.000000
 50
90.000000
 51
160.989105
  0
ARC
  8
0
  6
CONTINUOUS
 10
287.922485
 20
575.188232
 40
7.500000
 50
-32.232941
 51
238.076355
  0
LINE
  8
0
  6
CENTER
 10
407.922394
 20
563.385925
 11
407.922882
 21
587.262329
  0
LINE
  8
0
  6
CENTER
 10
300.933105
 20
575.187622
 11
275.355347
 21
575.187622
  0
LINE
  8
0
  6
CENTER
 10
287.922699
 20
563.385925
 11
287.922882
 21
587.262512
  0
LINE
  8
0
  6
CONTINUOUS
 10
434.066803
 20
557.187134
 11
261.778778
 21
557.187134
  0
LINE
  8
0
  6
CONTINUOUS
 10
305.141937
 20
578.187134
 11
390.702850
 21
578.187134
  0
ARC
  8
0
  6
CONTINUOUS
 10
434.066803
 20
554.187134
 40
3.000000
 50
1.000152
 51
90.000000
  0
ARC
  8
0
  6
CONTINUOUS
 10
261.778778
 20
554.187134
 40
3.000000
 50
90.000000
 51
178.999634
  0
LINE
  8
0
  6
CONTINUOUS
 10
434.066803
 20
453.187134
 11
261.778778
 21
453.187134
  0
ARC
  8
0
  6
CONTINUOUS
 10
434.066803
 20
456.187134
 40
3.000000
 50
270.000000
 51
358.999847
  0
ARC
  8
0
  6
CONTINUOUS
 10
261.778778
 20
456.187134
 40
3.000000
 50
181.000366
 51
270.000000
  0
LINE
  8
0
  6
CONTINUOUS
 10
382.922607
 20
458.187134
 11
382.922607
 21
552.187134
  0
LINE
  8
0
  6
CONTINUOUS
 10
312.922607
 20
458.187134
 11
312.922607
 21
552.187134
  0
LINE
  8
0
  6
CONTINUOUS
 10
289.202606
 20
571.187134
 11
295.922394
 21
571.187134
  0
LINE
  8
0
  6
CONTINUOUS
 10
408.922485
 20
571.187134
 11
399.922394
 21
571.187134
  0
ARC
  8
0
  6
CONTINUOUS
 10
408.922485
 20
564.187134
 40
7.000000
 50
0.000000
 51
90.000000
  0
ARC
  8
0
  6
CONTINUOUS
 10
422.922485
 20
564.187134
 40
7.000000
 50
180.000000
 51
270.000000
  0
LINE
  8
0
  6
CENTER
 10
422.776184
 20
435.187622
 11
394.408142
 21
435.187622
  0
ARC
  8
0
  6
CONTINUOUS
 10
407.922699
 20
435.187622
 40
7.500000
 50
-212.226791
 51
46.074883
  0
ARC
  8
0
  6
CONTINUOUS
 10
287.922485
 20
435.186920
 40
7.500000
 50
-226.078156
 51
32.232941
  0
LINE
  8
0
  6
CENTER
 10
407.922394
 20
446.989197
 11
407.922882
 21
423.112793
  0
LINE
  8
0
  6
CENTER
 10
300.933105
 20
435.187500
 11
275.355347
 21
435.187500
  0
LINE
  8
0
  6
CENTER
 10
287.922699
 20
446.989197
 11
287.922882
 21
423.112610
  0
LINE
  8
0
  6
CONTINUOUS
 10
305.141937
 20
432.187134
 11
390.702850
 21
432.187134
  0
LINE
  8
0
  6
CONTINUOUS
 10
286.922485
 20
439.187134
 11
295.922394
 21
439.187073
  0
ARC
  8
0
  6
CONTINUOUS
 10
286.922485
 20
446.187134
 40
7.000000
 50
180.000000
 51
270.000000
  0
ARC
  8
0
  6
CONTINUOUS
 10
272.922485
 20
446.187134
 40
7.000000
 50
0.000000
 51
90.000000
  0
LINE
  8
0
  6
CONTINUOUS
 10
408.922485
 20
439.187134
 11
399.922394
 21
439.187073
  0
ARC
  8
0
  6
CONTINUOUS
 10
408.922485
 20
446.187134
 40
7.000000
 50
-90.000000
 51
0.000000
  0
ARC
  8
0
  6
CONTINUOUS
 10
422.922485
 20
446.187134
 40
7.000000
 50
90.000000
 51
180.000000
  0
LINE
  8
0
  6
CONTINUOUS
 10
282.471924
 20
566.110168
 11
281.373047
 21
562.264099
  0
ARC
  8
0
  6
CONTINUOUS
 10
289.202606
 20
564.187134
 40
7.000000
 50
90.000000
 51
164.054611
  0
ARC
  8
0
  6
CONTINUOUS
 10
274.642395
 20
564.187134
 40
7.000000
 50
-90.000000
 51
-15.945396
  0
LINE
  8
0
  6
CONTINUOUS
 10
327.922699
 20
365.186920
 11
370.922394
 21
365.186920
  0
LINE
  8
0
  6
CONTINUOUS
 10
367.922699
 20
430.186920
 11
367.922699
 21
425.187378
  0
LINE
  8
0
  6
CONTINUOUS
 10
327.922699
 20
430.186920
 11
327.922699
 21
365.186920
  0
LINE
  8
0
  6
CONTINUOUS
 10
370.422699
 20
430.186920
 11
325.422699
 21
430.186920
  0
LINE
  8
0
  6
CONTINUOUS
 10
370.422699
 20
432.186920
 11
370.422699
 21
430.186920
  0
LINE
  8
0
  6
CONTINUOUS
 10
325.422699
 20
432.186920
 11
325.422699
 21
430.186920
  0
LINE
  8
0
  6
CONTINUOUS
 10
347.923035
 20
595.186829
 11
279.054504
 21
595.186890
  0
LINE
  8
0
  6
CONTINUOUS
 10
327.922699
 20
415.186829
 11
279.054108
 21
415.186920
  0
LINE
  8
0
  6
CONTINUOUS
 10
370.922394
 20
365.187378
 11
370.922394
 21
425.187378
  0
LINE
  8
0
  6
CONTINUOUS
 10
367.001373
 20
425.187378
 11
370.922394
 21
425.187378
  0
LINE
  8
0
  6
CONTINUOUS
 10
299.827118
 20
575.742676
 11
295.922394
 21
571.187134
  0
ARC
  8
0
  6
CONTINUOUS
 10
305.141937
 20
571.187134
 40
7.000000
 50
90.000000
 51
139.398712
  0
LINE
  8
0
  6
CONTINUOUS
 10
396.017639
 20
575.742676
 11
399.922394
 21
571.187134
  0
ARC
  8
0
  6
CONTINUOUS
 10
390.702850
 20
571.187134
 40
7.000000
 50
40.601295
 51
90.000000
  0
LINE
  8
0
  6
CONTINUOUS
 10
396.017639
 20
434.631531
 11
399.922394
 21
439.187073
  0
ARC
  8
0
  6
CONTINUOUS
 10
390.702850
 20
439.187073
 40
7.000000
 50
-90.000000
 51
-40.601295
  0
LINE
  8
0
  6
CONTINUOUS
 10
299.827118
 20
434.631531
 11
295.922394
 21
439.187073
  0
ARC
  8
0
  6
CONTINUOUS
 10
305.141937
 20
439.187073
 40
7.000000
 50
-139.398712
 51
-90.000000
  0
LINE
  8
0
  6
CONTINUOUS
 10
367.001373
 20
425.187378
 11
367.001373
 21
365.186920
  0
LINE
  8
0
  6
CENTER
 10
461.123627
 20
505.186920
 11
-15.882500
 21
505.186920
  0
LINE
  8
0
  6
CONTINUOUS
 10
237.922897
 20
576.186951
 11
244.922897
 21
576.186951
  0
LINE
  8
0
  6
CONTINUOUS
 10
235.922897
 20
436.186920
 11
235.922897
 21
574.186951
  0
LINE
  8
0
  6
CONTINUOUS
 10
237.922897
 20
434.186920
 11
244.922501
 21
434.186920
  0
LINE
  8
0
  6
CONTINUOUS
 10
188.422897
 20
558.186951
 11
235.922897
 21
558.186951
  0
LINE
  8
0
  6
CONTINUOUS
 10
188.422897
 20
452.186920
 11
235.922897
 21
452.186920
  0
LINE
  8
0
  6
CONTINUOUS
 10
188.422897
 20
558.186951
 11
188.422897
 21
452.186920
  0
ARC
  8
0
  6
CONTINUOUS
 10
237.922897
 20
574.186951
 40
2.000000
 50
90.000000
 51
180.000000
  0
ARC
  8
0
  6
CONTINUOUS
 10
237.922897
 20
436.186920
 40
2.000000
 50
180.000000
 51
270.000000
  0
ARC
  8
0
  6
CONTINUOUS
 10
235.137970
 20
505.186920
 40
20.000000
 50
141.561295
 51
180.000000
  0
LINE
  8
0
  6
CONTINUOUS
 10
235.922897
 20
538.346924
 11
219.472488
 21
517.620483
  0
ARC
  8
0
  6
CONTINUOUS
 10
235.137970
 20
505.186920
 40
20.000000
 50
-180.000000
 51
-141.561295
  0
LINE
  8
0
  6
CONTINUOUS
 10
235.922897
 20
472.026917
 11
219.472488
 21
492.753387
  0
LINE
  8
0
  6
CONTINUOUS
 10
58.422382
 20
558.186951
 11
188.422379
 21
558.186951
  0
LINE
  8
0
  6
CONTINUOUS
 10
58.422382
 20
452.186920
 11
188.422379
 21
452.186920
  0
LINE
  8
0
  6
CONTINUOUS
 10
58.422382
 20
536.686890
 11
178.422379
 21
536.686890
  0
LINE
  8
0
  6
CONTINUOUS
 10
58.422382
 20
473.686920
 11
178.422379
 21
473.686920
  0
LINE
  8
0
  6
CONTINUOUS
 10
178.422379
 20
556.186951
 11
178.422379
 21
536.686890
  0
ARC
  8
0
  6
CONTINUOUS
 10
180.422379
 20
556.186951
 40
2.000000
 50
90.000000
 51
180.000000
  0
ARC
  8
0
  6
CONTINUOUS
 10
180.422379
 20
454.186920
 40
2.000000
 50
180.000000
 51
270.000000
  0
LINE
  8
0
  6
CONTINUOUS
 10
49.922340
 20
558.186890
 11
58.422382
 21
558.186890
  0
LINE
  8
0
  6
CONTINUOUS
 10
49.922340
 20
452.186951
 11
58.422382
 21
452.186951
  0
LINE
  8
0
  6
CONTINUOUS
 10
58.422382
 20
536.686951
 11
49.922340
 21
536.686951
  0
LINE
  8
0
  6
CONTINUOUS
 10
58.422382
 20
473.686920
 11
49.922340
 21
473.686920
  0
LINE
  8
0
  6
CONTINUOUS
 10
58.422382
 20
452.186951
 11
58.422382
 21
498.320892
  0
LINE
  8
0
  6
CONTINUOUS
 10
51.922382
 20
499.186920
 11
51.922382
 21
511.186920
  0
LINE
  8
0
  6
CONTINUOUS
 10
58.922382
 20
499.186920
 11
58.922382
 21
511.186920
  0
LINE
  8
0
  6
CONTINUOUS
 10
52.922382
 20
512.186951
 11
57.922382
 21
512.186951
  0
LINE
  8
0
  6
CONTINUOUS
 10
57.922382
 20
498.186920
 11
52.922382
 21
498.186920
  0
ARC
  8
0
  6
CONTINUOUS
 10
57.922382
 20
511.186920
 40
1.000000
 50
0.000000
 51
90.000000
  0
ARC
  8
0
  6
CONTINUOUS
 10
52.922382
 20
511.186920
 40
1.000000
 50
90.000000
 51
180.000000
  0
ARC
  8
0
  6
CONTINUOUS
 10
52.922382
 20
499.186920
 40
1.000000
 50
180.000000
 51
270.000000
  0
ARC
  8
0
  6
CONTINUOUS
 10
57.922382
 20
499.186920
 40
1.000000
 50
-90.000000
 51
0.000000
  0
LINE
  8
0
  6
CONTINUOUS
 10
56.422382
 20
501.686920
 11
56.422382
 21
508.686920
  0
LINE
  8
0
  6
CONTINUOUS
 10
54.422382
 20
501.686920
 11
54.422382
 21
508.686920
  0
ARC
  8
0
  6
CONTINUOUS
 10
55.422382
 20
508.686920
 40
1.000000
 50
90.000000
 51
180.000000
  0
ARC
  8
0
  6
CONTINUOUS
 10
55.422382
 20
508.686920
 40
1.000000
 50
0.000000
 51
90.000000
  0
ARC
  8
0
  6
CONTINUOUS
 10
55.422382
 20
501.686920
 40
1.000000
 50
180.000000
 51
270.000000
  0
ARC
  8
0
  6
CONTINUOUS
 10
55.422382
 20
501.686920
 40
1.000000
 50
-90.000000
 51
0.000000
  0
LINE
  8
0
  6
CONTINUOUS
 10
58.422382
 20
512.052979
 11
58.422382
 21
558.186890
  0
LINE
  8
0
  6
CONTINUOUS
 10
49.922340
 20
560.186951
 11
49.922340
 21
450.186920
  0
LINE
  8
0
  6
CONTINUOUS
 10
10.922340
 20
560.186951
 11
49.922340
 21
560.186951
  0
LINE
  8
0
  6
CONTINUOUS
 10
10.922340
 20
450.186920
 11
49.922340
 21
450.186920
  0
LINE
  8
0
  6
CONTINUOUS
 10
0.922340
 20
460.186920
 11
0.922340
 21
550.186951
  0
LINE
  8
0
  6
CONTINUOUS
 10
5.922340
 20
535.686951
 11
49.922340
 21
535.686951
  0
LINE
  8
0
  6
CONTINUOUS
 10
5.922340
 20
474.686920
 11
49.922340
 21
474.686920
  0
ARC
  8
0
  6
CONTINUOUS
 10
10.922430
 20
550.186951
 40
10.000000
 50
90.000000
 51
180.000000
  0
ARC
  8
0
  6
CONTINUOUS
 10
10.922340
 20
460.186920
 40
10.000000
 50
180.000000
 51
270.000000
  0
LINE
  8
0
  6
CONTINUOUS
 10
49.922382
 20
167.002502
 11
49.922382
 21
57.002499
  0
LINE
  8
0
  6
CONTINUOUS
 10
49.922382
 20
165.002502
 11
58.422382
 21
165.002502
  0
LINE
  8
0
  6
CONTINUOUS
 10
49.922382
 20
59.002499
 11
58.422382
 21
59.002499
  0
LINE
  8
0
  6
CONTINUOUS
 10
58.922382
 20
166.502502
 11
58.922382
 21
165.002502
  0
LINE
  8
0
  6
CONTINUOUS
 10
51.922382
 20
166.502502
 11
51.922382
 21
165.002502
  0
LINE
  8
0
  6
CONTINUOUS
 10
51.922382
 20
166.502502
 11
58.922382
 21
166.502502
  0
LINE
  8
0
  6
CONTINUOUS
 10
56.322372
 20
179.502502
 11
56.322372
 21
166.502502
  0
LINE
  8
0
  6
CONTINUOUS
 10
54.522373
 20
180.127502
 11
54.522373
 21
166.502502
  0
LINE
  8
0
  6
CONTINUOUS
 10
52.722370
 20
178.065002
 11
52.722370
 21
166.502502
  0
LINE
  8
0
  6
CONTINUOUS
 10
58.122383
 20
178.877502
 11
58.122383
 21
166.502502
  0
LINE
  8
0
  6
CONTINUOUS
 10
54.522373
 20
180.127502
 11
56.322372
 21
179.502502
  0
LINE
  8
0
  6
CONTINUOUS
 10
52.722370
 20
178.065002
 11
54.522373
 21
178.690002
  0
LINE
  8
0
  6
CONTINUOUS
 10
58.122383
 20
178.877502
 11
56.323383
 21
178.429794
  0
LINE
  8
0
  6
CONTINUOUS
 10
49.922382
 20
154.565094
 11
58.422382
 21
154.565094
  0
LINE
  8
0
  6
CONTINUOUS
 10
49.922382
 20
69.318367
 11
58.422382
 21
69.318367
  0
LINE
  8
0
  6
CONTINUOUS
 10
10.922382
 20
167.002502
 11
49.922382
 21
167.002502
  0
LINE
  8
0
  6
CONTINUOUS
 10
10.922382
 20
57.002499
 11
49.922382
 21
57.002499
  0
LINE
  8
0
  6
CONTINUOUS
 10
0.922382
 20
67.002502
 11
0.922382
 21
157.002502
  0
LINE
  8
0
  6
CONTINUOUS
 10
5.922382
 20
142.502502
 11
49.922382
 21
142.502502
  0
LINE
  8
0
  6
CONTINUOUS
 10
5.922382
 20
81.502502
 11
49.922382
 21
81.502502
  0
ARC
  8
0
  6
CONTINUOUS
 10
10.922472
 20
157.002502
 40
10.000000
 50
90.000000
 51
180.000000
  0
ARC
  8
0
  6
CONTINUOUS
 10
10.922382
 20
67.002502
 40
10.000000
 50
180.000000
 51
270.000000
  0
LINE
  8
0
  6
CONTINUOUS
 10
58.422382
 20
59.002499
 11
58.422382
 21
165.002502
  0
ARC
  8
0
  6
CONTINUOUS
 10
49.922382
 20
148.685196
 40
4.500000
 50
0.000000
 51
90.000000
  0
ARC
  8
0
  6
CONTINUOUS
 10
49.922382
 20
148.685196
 40
3.000000
 50
0.000000
 51
90.000000
  0
ARC
  8
0
  6
CONTINUOUS
 10
49.922382
 20
148.685196
 40
1.500000
 50
0.000000
 51
90.000000
  0
LINE
  8
0
  6
CONTINUOUS
 10
51.422382
 20
148.685196
 11
51.422382
 21
143.669601
  0
LINE
  8
0
  6
CONTINUOUS
 10
52.922382
 20
148.685196
 11
52.922382
 21
144.185196
  0
LINE
  8
0
  6
CONTINUOUS
 10
54.422382
 20
148.685196
 11
54.422382
 21
144.185196
  0
LINE
  8
0
  6
CONTINUOUS
 10
51.422382
 20
143.685196
 11
52.922382
 21
144.185196
  0
LINE
  8
0
  6
CONTINUOUS
 10
52.922382
 20
144.685196
 11
54.422382
 21
144.185196
  0
ARC
  8
0
  6
CONTINUOUS
 10
49.922340
 20
463.417084
 40
4.500000
 50
0.000000
 51
90.000000
  0
ARC
  8
0
  6
CONTINUOUS
 10
49.922340
 20
463.417084
 40
3.000000
 50
0.000000
 51
90.000000
  0
ARC
  8
0
  6
CONTINUOUS
 10
49.922340
 20
463.417084
 40
1.500000
 50
0.000000
 51
90.000000
  0
LINE
  8
0
  6
CONTINUOUS
 10
51.422340
 20
463.417084
 11
51.422340
 21
458.401489
  0
LINE
  8
0
  6
CONTINUOUS
 10
52.922340
 20
463.417084
 11
52.922340
 21
458.917084
  0
LINE
  8
0
  6
CONTINUOUS
 10
54.422340
 20
463.417084
 11
54.422340
 21
458.917084
  0
LINE
  8
0
  6
CONTINUOUS
 10
51.422340
 20
458.417084
 11
52.922340
 21
458.917084
  0
LINE
  8
0
  6
CONTINUOUS
 10
52.922340
 20
459.417084
 11
54.422340
 21
458.917084
  0
LINE
  8
0
  6
CONTINUOUS
 10
178.422379
 20
473.686920
 11
178.422379
 21
454.186920
  0
TEXT
  8
0
 10
-15.000000
 20
-1.000000
 40
4.000000
 41
1.000000
  1
HLMN-40R-1200~1800-S90
 50
0.000000
  0
ENDSEC
  0
EOF
