  0
SECTION
  2
HEADER
  9
$ACADVER
  1
AC1014
  9
$ACADMAINTVER
 70
     9
  9
$DWGCODEPAGE
  3
ANSI_932
  9
$INSBASE
 10
0.0
 20
0.0
 30
0.0
  9
$EXTMIN
 10
69.75764181827583
 20
70.46860969832255
 30
0.0
  9
$EXTMAX
 10
923.3664325212464
 20
708.8942957951694
 30
0.0
  9
$LIMMIN
 10
0.0
 20
0.0
  9
$LIMMAX
 10
297.0
 20
210.0
  9
$ORTHOMODE
 70
     1
  9
$REGENMODE
 70
     1
  9
$FILLMODE
 70
     1
  9
$QTEXTMODE
 70
     0
  9
$MIRRTEXT
 70
     0
  9
$DRAGMODE
 70
     2
  9
$LTSCALE
 40
4.0
  9
$OSMODE
 70
    37
  9
$ATTMODE
 70
     1
  9
$TEXTSIZE
 40
2.0
  9
$TRACEWID
 40
1.0
  9
$TEXTSTYLE
  7
STANDARD
  9
$CLAYER
  8
0
  9
$CELTYPE
  6
BYLAYER
  9
$CECOLOR
 62
   256
  9
$CELTSCALE
 40
1.0
  9
$DELOBJ
 70
     1
  9
$DISPSILH
 70
     0
  9
$DIMSCALE
 40
4.0
  9
$DIMASZ
 40
1.8
  9
$DIMEXO
 40
0.625
  9
$DIMDLI
 40
3.75
  9
$DIMRND
 40
0.0
  9
$DIMDLE
 40
0.0
  9
$DIMEXE
 40
0.8
  9
$DIMTP
 40
0.0
  9
$DIMTM
 40
0.0
  9
$DIMTXT
 40
1.8
  9
$DIMCEN
 40
2.5
  9
$DIMTSZ
 40
0.0
  9
$DIMTOL
 70
     0
  9
$DIMLIM
 70
     0
  9
$DIMTIH
 70
     0
  9
$DIMTOH
 70
     0
  9
$DIMSE1
 70
     0
  9
$DIMSE2
 70
     0
  9
$DIMTAD
 70
     1
  9
$DIMZIN
 70
     8
  9
$DIMBLK
  1

  9
$DIMASO
 70
     1
  9
$DIMSHO
 70
     1
  9
$DIMPOST
  1

  9
$DIMAPOST
  1

  9
$DIMALT
 70
     0
  9
$DIMALTD
 70
     4
  9
$DIMALTF
 40
0.0394
  9
$DIMLFAC
 40
1.0
  9
$DIMTOFL
 70
     1
  9
$DIMTVP
 40
0.0
  9
$DIMTIX
 70
     0
  9
$DIMSOXD
 70
     0
  9
$DIMSAH
 70
     0
  9
$DIMBLK1
  1

  9
$DIMBLK2
  1

  9
$DIMSTYLE
  2
STANDARD
  9
$DIMCLRD
 70
     0
  9
$DIMCLRE
 70
     0
  9
$DIMCLRT
 70
     0
  9
$DIMTFAC
 40
1.0
  9
$DIMGAP
 40
0.75
  9
$DIMJUST
 70
     0
  9
$DIMSD1
 70
     0
  9
$DIMSD2
 70
     0
  9
$DIMTOLJ
 70
     1
  9
$DIMTZIN
 70
     0
  9
$DIMALTZ
 70
     0
  9
$DIMALTTZ
 70
     0
  9
$DIMFIT
 70
     3
  9
$DIMUPT
 70
     0
  9
$DIMUNIT
 70
     8
  9
$DIMDEC
 70
     2
  9
$DIMTDEC
 70
     2
  9
$DIMALTU
 70
     8
  9
$DIMALTTD
 70
     4
  9
$DIMTXSTY
  7
STANDARD
  9
$DIMAUNIT
 70
     0
  9
$LUNITS
 70
     2
  9
$LUPREC
 70
     3
  9
$SKETCHINC
 40
1.0
  9
$FILLETRAD
 40
10.0
  9
$AUNITS
 70
     0
  9
$AUPREC
 70
     2
  9
$MENU
  1
.
  9
$ELEVATION
 40
0.0
  9
$PELEVATION
 40
0.0
  9
$THICKNESS
 40
0.0
  9
$LIMCHECK
 70
     0
  9
$BLIPMODE
 70
     0
  9
$CHAMFERA
 40
0.0
  9
$CHAMFERB
 40
0.0
  9
$CHAMFERC
 40
20.0
  9
$CHAMFERD
 40
0.0
  9
$SKPOLY
 70
     0
  9
$TDCREATE
 40
2453753.549565057
  9
$TDUPDATE
 40
2453832.476646585
  9
$TDINDWG
 40
0.1592480556
  9
$TDUSRTIMER
 40
0.1592480556
  9
$USRTIMER
 70
     1
  9
$ANGBASE
 50
0.0
  9
$ANGDIR
 70
     0
  9
$PDMODE
 70
     0
  9
$PDSIZE
 40
-10.0
  9
$PLINEWID
 40
0.0
  9
$COORDS
 70
     0
  9
$SPLFRAME
 70
     0
  9
$SPLINETYPE
 70
     6
  9
$SPLINESEGS
 70
     8
  9
$ATTDIA
 70
     0
  9
$ATTREQ
 70
     1
  9
$HANDLING
 70
-16383
  9
$HANDSEED
  5
1B5E
  9
$SURFTAB1
 70
     6
  9
$SURFTAB2
 70
     6
  9
$SURFTYPE
 70
     6
  9
$SURFU
 70
     6
  9
$SURFV
 70
     6
  9
$UCSNAME
  2

  9
$UCSORG
 10
0.0
 20
0.0
 30
0.0
  9
$UCSXDIR
 10
1.0
 20
0.0
 30
0.0
  9
$UCSYDIR
 10
0.0
 20
1.0
 30
0.0
  9
$PUCSNAME
  2

  9
$PUCSORG
 10
0.0
 20
0.0
 30
0.0
  9
$PUCSXDIR
 10
1.0
 20
0.0
 30
0.0
  9
$PUCSYDIR
 10
0.0
 20
1.0
 30
0.0
  9
$USERI1
 70
     0
  9
$USERI2
 70
     0
  9
$USERI3
 70
     0
  9
$USERI4
 70
     0
  9
$USERI5
 70
     0
  9
$USERR1
 40
0.0
  9
$USERR2
 40
0.0
  9
$USERR3
 40
0.0
  9
$USERR4
 40
0.0
  9
$USERR5
 40
0.0
  9
$WORLDVIEW
 70
     1
  9
$SHADEDGE
 70
     3
  9
$SHADEDIF
 70
    70
  9
$TILEMODE
 70
     1
  9
$MAXACTVP
 70
    48
  9
$PINSBASE
 10
0.0
 20
0.0
 30
0.0
  9
$PLIMCHECK
 70
     0
  9
$PEXTMIN
 10
0.0
 20
0.0
 30
0.0
  9
$PEXTMAX
 10
0.0
 20
0.0
 30
0.0
  9
$PLIMMIN
 10
0.0
 20
0.0
  9
$PLIMMAX
 10
12.0
 20
9.0
  9
$UNITMODE
 70
     0
  9
$VISRETAIN
 70
     1
  9
$PLINEGEN
 70
     0
  9
$PSLTSCALE
 70
     1
  9
$TREEDEPTH
 70
  3020
  9
$PICKSTYLE
 70
     1
  9
$CMLSTYLE
  2
STANDARD
  9
$CMLJUST
 70
     0
  9
$CMLSCALE
 40
1.0
  9
$PROXYGRAPHICS
 70
     1
  9
$MEASUREMENT
 70
     0
  0
ENDSEC
  0
SECTION
  2
CLASSES
  0
CLASS
  1
DICTIONARYVAR
  2
AcDbDictionaryVar
  3
AutoCAD 2000
 90
        0
280
     0
281
     0
  0
CLASS
  1
ACDBDICTIONARYWDFLT
  2
AcDbDictionaryWithDefault
  3
AutoCAD 2000
 90
        0
280
     0
281
     0
  0
CLASS
  1
ACDBPLACEHOLDER
  2
AcDbPlaceHolder
  3
AutoCAD 2000
 90
        0
280
     0
281
     0
  0
CLASS
  1
LAYOUT
  2
AcDbLayout
  3
AutoCAD 2000
 90
        0
280
     0
281
     0
  0
CLASS
  1
LONG_TRANSACTION
  2
AcDbLongTransaction
  3
AutoCAD 2000
 90
        0
280
     0
281
     0
  0
CLASS
  1
LWPOLYLINE
  2
AcDbPolyline
  3
AutoCAD 2000
 90
        0
280
     0
281
     1
  0
CLASS
  1
HATCH
  2
AcDbHatch
  3
AutoCAD 2000
 90
        0
280
     0
281
     1
  0
CLASS
  1
XRECORD
  2
AcDbXrecord
  3
AutoCAD 2000
 90
        0
280
     0
281
     0
  0
ENDSEC
  0
SECTION
  2
TABLES
  0
TABLE
  2
VPORT
  5
6E
330
0
100
AcDbSymbolTable
 70
     2
  0
VPORT
  5
1B38
330
6E
100
AcDbSymbolTableRecord
100
AcDbViewportTableRecord
  2
*ACTIVE
 70
     0
 10
0.0
 20
0.0
 11
1.0
 21
1.0
 12
481.9368080146063
 22
366.6431688266652
 13
0.0
 23
0.0
 14
10.0
 24
10.0
 15
10.0
 25
10.0
 16
0.0
 26
0.0
 36
1.0
 17
0.0
 27
0.0
 37
0.0
 40
690.0186799513999
 41
1.566970091027308
 42
50.0
 43
0.0
 44
0.0
 50
0.0
 51
0.0
 71
     0
 72
   100
 73
     1
 74
     3
 75
     0
 76
     0
 77
     0
 78
     0
  0
ENDTAB
  0
TABLE
  2
LTYPE
  5
69
330
0
100
AcDbSymbolTable
 70
     3
  0
LTYPE
  5
6A
330
69
100
AcDbSymbolTableRecord
100
AcDbLinetypeTableRecord
  2
BYBLOCK
 70
     0
  3

 72
    65
 73
     0
 40
0.0
  0
LTYPE
  5
6B
330
69
100
AcDbSymbolTableRecord
100
AcDbLinetypeTableRecord
  2
BYLAYER
 70
     0
  3

 72
    65
 73
     0
 40
0.0
  0
LTYPE
  5
8
330
69
100
AcDbSymbolTableRecord
100
AcDbLinetypeTableRecord
  2
CONTINUOUS
 70
     0
  3
Solid line
 72
    65
 73
     0
 40
0.0
  0
LTYPE
  5
27C
330
69
100
AcDbSymbolTableRecord
100
AcDbLinetypeTableRecord
  2
SEKKEI_A2_
 70
     0
  3
center(A2)  ____ _ ____ _ ____ _ ____ _ ____ _ 
 72
    65
 73
     4
 40
14.28749999999999
 49
9.525
 74
     0
 49
-1.587499999999999
 74
     0
 49
1.587499999999999
 74
     0
 49
-1.587499999999999
 74
     0
  0
LTYPE
  5
2B4
330
69
100
AcDbSymbolTableRecord
100
AcDbLinetypeTableRecord
  2
HIDDEN2
 70
     0
  3
Hidden (.5x) _ _ _ _ _ _ _ _ _ _ _ _ _ _ _ _ _
 72
    65
 73
     2
 40
4.762499999999999
 49
3.174999999999999
 74
     0
 49
-1.587499999999999
 74
     0
  0
ENDTAB
  0
TABLE
  2
LAYER
  5
66
330
0
100
AcDbSymbolTable
 70
     9
  0
LAYER
  5
5E
330
66
100
AcDbSymbolTableRecord
100
AcDbLayerTableRecord
  2
0
 70
     0
 62
     7
  6
CONTINUOUS
  0
LAYER
  5
3E
330
66
100
AcDbSymbolTableRecord
100
AcDbLayerTableRecord
  2
CENTER
 70
     0
 62
     3
  6
SEKKEI_A2_
  0
LAYER
  5
2B5
330
66
100
AcDbSymbolTableRecord
100
AcDbLayerTableRecord
  2
HIDS
 70
     0
 62
     1
  6
HIDDEN2
  0
LAYER
  5
2BA
330
66
100
AcDbSymbolTableRecord
100
AcDbLayerTableRecord
  2
HOJO
 70
     0
 62
     4
  6
CONTINUOUS
  0
LAYER
  5
3FA
330
66
100
AcDbSymbolTableRecord
100
AcDbLayerTableRecord
  2
TITLE
 70
     0
 62
     4
  6
CONTINUOUS
  0
ENDTAB
  0
TABLE
  2
STYLE
  5
67
330
0
100
AcDbSymbolTable
 70
     1
  0
STYLE
  5
16
330
67
100
AcDbSymbolTableRecord
100
AcDbTextStyleTableRecord
  2
STANDARD
 70
     0
 40
0.0
 41
1.0
 50
0.0
 71
     0
 42
2.0
  3
simplex.shx
  4
extfont.shx
  0
ENDTAB
  0
TABLE
  2
VIEW
  5
6C
330
0
100
AcDbSymbolTable
 70
     0
  0
ENDTAB
  0
TABLE
  2
UCS
  5
6D
330
0
100
AcDbSymbolTable
 70
     0
  0
ENDTAB
  0
TABLE
  2
APPID
  5
70
330
0
100
AcDbSymbolTable
 70
     1
  0
APPID
  5
71
330
70
100
AcDbSymbolTableRecord
100
AcDbRegAppTableRecord
  2
ACAD
 70
     0
  0
ENDTAB
  0
TABLE
  2
DIMSTYLE
  5
72
330
0
100
AcDbSymbolTable
 70
     1
  0
DIMSTYLE
105
73
330
72
100
AcDbSymbolTableRecord
100
AcDbDimStyleTableRecord
  2
STANDARD
 70
     0
  3

  4

  5

  6

  7

 40
4.0
 41
1.8
 42
0.625
 43
3.75
 44
0.8
 45
0.0
 46
0.0
 47
0.0
 48
0.0
140
1.8
141
2.5
142
0.0
143
0.0394
144
1.0
145
0.0
146
1.0
147
0.75
 71
     0
 72
     0
 73
     0
 74
     0
 75
     0
 76
     0
 77
     1
 78
     8
170
     0
171
     4
172
     1
173
     0
174
     0
175
     0
176
     0
177
     0
178
     0
270
     8
271
     2
272
     2
273
     8
274
     4
340
16
275
     0
280
     0
281
     0
282
     0
283
     1
284
     0
285
     0
286
     0
287
     3
288
     0
  0
ENDTAB
  0
TABLE
  2
BLOCK_RECORD
  5
1
330
0
100
AcDbSymbolTable
 70
    51
  0
BLOCK_RECORD
  5
2
102
{ACAD_XDICTIONARY
360
1B5A
102
}
330
1
100
AcDbSymbolTableRecord
100
AcDbBlockTableRecord
  2
*MODEL_SPACE
  0
BLOCK_RECORD
  5
1B33
102
{ACAD_XDICTIONARY
360
1B5C
102
}
330
1
100
AcDbSymbolTableRecord
100
AcDbBlockTableRecord
  2
*PAPER_SPACE
  0
ENDTAB
  0
ENDSEC
  0
SECTION
  2
BLOCKS
  0
BLOCK
  5
5D
330
2
100
AcDbEntity
  8
0
100
AcDbBlockBegin
  2
*MODEL_SPACE
 70
     0
 10
0.0
 20
0.0
 30
0.0
  3
*MODEL_SPACE
  1

  0
ENDBLK
  5
5F
330
2
100
AcDbEntity
  8
0
100
AcDbBlockEnd
  0
BLOCK
  5
1B35
330
1B33
100
AcDbEntity
 67
     1
  8
0
100
AcDbBlockBegin
  2
*PAPER_SPACE
 70
     0
 10
0.0
 20
0.0
 30
0.0
  3
*PAPER_SPACE
  1

  0
ENDBLK
  5
1B36
330
1B33
100
AcDbEntity
 67
     1
  8
0
100
AcDbBlockEnd
  0
ENDSEC
  0
SECTION
  2
ENTITIES
  0
LINE
  5
67D
330
2
100
AcDbEntity
  8
CENTER
100
AcDbLine
 10
536.7579976234951
 20
603.8943867950725
 30
0.0
 11
69.75764181827583
 21
603.8943867950725
 31
0.0
  0
LINE
  5
67E
330
2
100
AcDbEntity
  8
0
100
AcDbLine
 10
388.9772388182758
 20
530.8946007950724
 30
0.0
 11
474.5381518182758
 21
530.8946007950724
 31
0.0
  0
LINE
  5
67F
330
2
100
AcDbEntity
  8
0
100
AcDbLine
 10
517.9021048182759
 20
551.8946007950724
 30
0.0
 11
345.6140798182758
 21
551.8946007950724
 31
0.0
  0
LINE
  5
680
330
2
100
AcDbEntity
  8
0
100
AcDbLine
 10
388.9772388182758
 20
676.8946007950724
 30
0.0
 11
474.5381518182758
 21
676.8946007950724
 31
0.0
  0
LINE
  5
681
330
2
100
AcDbEntity
  8
0
100
AcDbLine
 10
517.9021048182759
 20
655.8946007950724
 30
0.0
 11
345.6140798182758
 21
655.8946007950724
 31
0.0
  0
LINE
  5
682
330
2
100
AcDbEntity
  8
0
100
AcDbLine
 10
500.6261958182758
 20
513.8941427950724
 30
0.0
 11
454.7576958182758
 21
513.8942347950724
 31
0.0
  0
LINE
  5
683
330
2
100
AcDbEntity
  8
0
100
AcDbLine
 10
500.6268058182759
 20
693.8941737950724
 30
0.0
 11
362.7789578925273
 21
693.8941737950724
 31
0.0
  0
ARC
  5
684
330
2
100
AcDbEntity
  8
0
100
AcDbCircle
 10
461.7576958182758
 20
179.9686116983225
 30
0.0
 40
38.0
100
AcDbArc
 50
270.0
 51
12.52272000000005
  0
ARC
  5
685
330
2
100
AcDbEntity
  8
0
100
AcDbCircle
 10
461.7576958182758
 20
179.9686116983225
 30
0.0
 40
34.0
100
AcDbArc
 50
270.0
 51
12.52273000000003
  0
ARC
  5
686
330
2
100
AcDbEntity
  8
0
100
AcDbCircle
 10
431.7576958182757
 20
250.4686116983225
 30
0.0
 40
48.0
100
AcDbArc
 50
167.4774020000002
 51
12.52272000000005
  0
ARC
  5
687
330
2
100
AcDbEntity
  8
0
100
AcDbCircle
 10
431.7576958182757
 20
250.4686116983225
 30
0.0
 40
52.0
100
AcDbArc
 50
12.52272000000005
 51
167.4774020000002
  0
CIRCLE
  5
688
330
2
100
AcDbEntity
  8
0
100
AcDbCircle
 10
431.7576958182757
 20
250.4686116983225
 30
0.0
 40
46.0
  0
LINE
  5
689
330
2
100
AcDbEntity
  8
0
100
AcDbLine
 10
467.6362968182758
 20
109.5899306983225
 30
0.0
 11
470.2932788182758
 21
106.9330516983225
 31
0.0
  0
ARC
  5
68A
330
2
100
AcDbEntity
  8
0
100
AcDbCircle
 10
463.5720878182758
 20
317.9686116983225
 30
0.0
 40
10.0
100
AcDbArc
 50
54.65994999999999
 51
90.0
  0
LINE
  5
68B
330
2
100
AcDbEntity
  8
0
100
AcDbLine
 10
341.7576958182757
 20
105.4686086983225
 30
0.0
 11
521.7576958182759
 21
105.4686086983225
 31
0.0
  0
LINE
  5
68C
330
2
100
AcDbEntity
  8
0
100
AcDbLine
 10
341.7576958182757
 20
85.46860969832255
 30
0.0
 11
521.7576958182759
 21
85.46860969832255
 31
0.0
  0
LINE
  5
68D
330
2
100
AcDbEntity
  8
CENTER
100
AcDbLine
 10
363.4904215660938
 20
250.4686116983226
 30
0.0
 11
500.0249836610261
 21
250.4686116983226
 31
0.0
  0
LINE
  5
68E
330
2
100
AcDbEntity
  8
CENTER
100
AcDbLine
 10
69.75768381827584
 20
181.9686116983225
 30
0.0
 11
375.2476858182758
 21
181.9686116983225
 31
0.0
  0
LINE
  5
68F
330
2
100
AcDbEntity
  8
0
100
AcDbLine
 10
142.2576838182758
 20
139.3452526983225
 30
0.0
 11
260.9194388182759
 21
139.3452526983225
 31
0.0
  0
LINE
  5
690
330
2
100
AcDbEntity
  8
0
100
AcDbLine
 10
142.2576838182758
 20
224.5919486983225
 30
0.0
 11
260.9194388182759
 21
224.5919486983225
 31
0.0
  0
LINE
  5
691
330
2
100
AcDbEntity
  8
0
100
AcDbLine
 10
142.2576838182758
 20
128.9686086983225
 30
0.0
 11
272.2576808182758
 21
128.9686086983225
 31
0.0
  0
LINE
  5
692
330
2
100
AcDbEntity
  8
0
100
AcDbLine
 10
142.2576838182758
 20
234.9686116983225
 30
0.0
 11
272.2576808182758
 21
234.9686116983225
 31
0.0
  0
LINE
  5
693
330
2
100
AcDbEntity
  8
0
100
AcDbLine
 10
142.2576838182758
 20
128.9686086983225
 30
0.0
 11
142.2576838182758
 21
234.9686116983225
 31
0.0
  0
LINE
  5
694
330
2
100
AcDbEntity
  8
0
100
AcDbLine
 10
84.75768381827583
 20
136.9686116983225
 30
0.0
 11
84.75768381827583
 21
226.9686116983225
 31
0.0
  0
LINE
  5
695
330
2
100
AcDbEntity
  8
0
100
AcDbLine
 10
133.7576838182758
 20
236.9686116983225
 30
0.0
 11
133.7576838182758
 21
126.9686086983225
 31
0.0
  0
ARC
  5
697
330
2
100
AcDbEntity
  8
0
100
AcDbCircle
 10
94.75768381827583
 20
136.9686116983225
 30
0.0
 40
10.0
100
AcDbArc
 50
180.0
 51
270.0
  0
LINE
  5
698
330
2
100
AcDbEntity
  8
0
100
AcDbLine
 10
89.75768381827583
 20
151.4686116983225
 30
0.0
 11
133.7576838182758
 21
151.4686116983225
 31
0.0
  0
LINE
  5
699
330
2
100
AcDbEntity
  8
0
100
AcDbLine
 10
94.75768381827583
 20
126.9686086983225
 30
0.0
 11
133.7576838182758
 21
126.9686086983225
 31
0.0
  0
LINE
  5
69A
330
2
100
AcDbEntity
  8
0
100
AcDbLine
 10
133.7576838182758
 20
128.9686086983225
 30
0.0
 11
142.2576838182758
 21
128.9686086983225
 31
0.0
  0
LINE
  5
69B
330
2
100
AcDbEntity
  8
0
100
AcDbLine
 10
133.7576838182758
 20
139.2844766983225
 30
0.0
 11
142.2576838182758
 21
139.2844766983225
 31
0.0
  0
ARC
  5
69C
330
2
100
AcDbEntity
  8
0
100
AcDbCircle
 10
94.75777381827583
 20
226.9686116983225
 30
0.0
 40
10.0
100
AcDbArc
 50
90.0
 51
180.0
  0
LINE
  5
69D
330
2
100
AcDbEntity
  8
0
100
AcDbLine
 10
89.75768381827583
 20
212.4686116983225
 30
0.0
 11
133.7576838182758
 21
212.4686116983225
 31
0.0
  0
LINE
  5
69E
330
2
100
AcDbEntity
  8
0
100
AcDbLine
 10
133.7576838182758
 20
224.5312036983225
 30
0.0
 11
142.2576838182758
 21
224.5312036983225
 31
0.0
  0
ARC
  5
69F
330
2
100
AcDbEntity
  8
0
100
AcDbCircle
 10
133.7576838182758
 20
218.6513056983225
 30
0.0
 40
3.0
100
AcDbArc
 50
0.0
 51
90.0
  0
ARC
  5
6A0
330
2
100
AcDbEntity
  8
0
100
AcDbCircle
 10
133.7576838182758
 20
218.6513056983225
 30
0.0
 40
4.5
100
AcDbArc
 50
0.0
 51
90.0
  0
LINE
  5
6A1
330
2
100
AcDbEntity
  8
HOJO
100
AcDbLine
 10
136.7576838182758
 20
214.6513056983225
 30
0.0
 11
138.2576838182758
 21
214.1513056983225
 31
0.0
  0
LINE
  5
6A2
330
2
100
AcDbEntity
  8
HOJO
100
AcDbLine
 10
135.2576838182758
 20
213.6513056983225
 30
0.0
 11
136.7576838182758
 21
214.1513056983225
 31
0.0
  0
LINE
  5
6A3
330
2
100
AcDbEntity
  8
0
100
AcDbLine
 10
138.2576838182758
 20
218.6513056983225
 30
0.0
 11
138.2576838182758
 21
214.1513056983225
 31
0.0
  0
LINE
  5
6A4
330
2
100
AcDbEntity
  8
0
100
AcDbLine
 10
136.7576838182758
 20
218.6513056983225
 30
0.0
 11
136.7576838182758
 21
214.1513056983225
 31
0.0
  0
LINE
  5
6A5
330
2
100
AcDbEntity
  8
0
100
AcDbLine
 10
135.2576838182758
 20
218.6513056983225
 30
0.0
 11
135.2576838182758
 21
213.6357106983225
 31
0.0
  0
ARC
  5
6A6
330
2
100
AcDbEntity
  8
0
100
AcDbCircle
 10
133.7576838182758
 20
218.6513056983225
 30
0.0
 40
1.5
100
AcDbArc
 50
0.0
 51
90.0
  0
LINE
  5
6A7
330
2
100
AcDbEntity
  8
0
100
AcDbLine
 10
94.75768381827583
 20
236.9686116983225
 30
0.0
 11
133.7576838182758
 21
236.9686116983225
 31
0.0
  0
LINE
  5
6AA
330
2
100
AcDbEntity
  8
0
100
AcDbLine
 10
133.7576838182758
 20
234.9686116983225
 30
0.0
 11
142.2576838182758
 21
234.9686116983225
 31
0.0
  0
LINE
  5
6B3
330
2
100
AcDbEntity
  8
0
100
AcDbLine
 10
272.2576808182758
 20
234.9686116983225
 30
0.0
 11
272.2576808182758
 21
128.9686086983225
 31
0.0
  0
LINE
  5
6B4
330
2
100
AcDbEntity
  8
0
100
AcDbLine
 10
319.7576808182758
 20
151.7246086983225
 30
0.0
 11
319.7576808182758
 21
265.9686116983225
 31
0.0
  0
LINE
  5
6B5
330
2
100
AcDbEntity
  8
0
100
AcDbLine
 10
262.2576808182758
 20
232.9686116983225
 30
0.0
 11
262.2576808182758
 21
130.9685896983225
 31
0.0
  0
ARC
  5
6B6
330
2
100
AcDbEntity
  8
0
100
AcDbCircle
 10
551.4392748182758
 20
196.9686116983225
 30
0.0
 40
215.181595
100
AcDbArc
 50
167.0178990000001
 51
192.9821009999998
  0
ARC
  5
6B7
330
2
100
AcDbEntity
  8
0
100
AcDbCircle
 10
401.7576958182758
 20
179.9686116983225
 30
0.0
 40
38.0
100
AcDbArc
 50
167.4774020000002
 51
270.0
  0
ARC
  5
6B8
330
2
100
AcDbEntity
  8
0
100
AcDbCircle
 10
401.7576958182758
 20
179.9686116983225
 30
0.0
 40
34.0
100
AcDbArc
 50
167.4774020000002
 51
270.0
  0
LINE
  5
6B9
330
2
100
AcDbEntity
  8
0
100
AcDbLine
 10
341.7576958182757
 20
283.8006126983225
 30
0.0
 11
341.7576958182757
 21
85.46860969832255
 31
0.0
  0
LINE
  5
6BA
330
2
100
AcDbEntity
  8
CENTER
100
AcDbLine
 10
431.7576958182757
 20
342.9686116983225
 30
0.0
 11
431.7576958182759
 21
70.46860969832255
 31
0.0
  0
LINE
  5
6BB
330
2
100
AcDbEntity
  8
0
100
AcDbLine
 10
328.7576808182758
 20
125.9686086983225
 30
0.0
 11
328.7576808182758
 21
267.9686116983225
 31
0.0
  0
LINE
  5
6BC
330
2
100
AcDbEntity
  8
0
100
AcDbLine
 10
300.7576808182758
 20
128.9686086983225
 30
0.0
 11
272.2576808182758
 21
128.9686086983225
 31
0.0
  0
ARC
  5
6BD
330
2
100
AcDbEntity
  8
0
100
AcDbCircle
 10
264.2576808182758
 20
130.9686086983225
 30
0.0
 40
2.0
100
AcDbArc
 50
180.0
 51
270.0
  0
LINE
  5
6BE
330
2
100
AcDbEntity
  8
0
100
AcDbLine
 10
300.7576808182758
 20
130.9686086983225
 30
0.0
 11
300.7576808182758
 21
147.7246086983225
 31
0.0
  0
LINE
  5
6BF
330
2
100
AcDbEntity
  8
0
100
AcDbLine
 10
300.7576808182758
 20
128.9686086983225
 30
0.0
 11
317.8847098182758
 21
128.9686086983225
 31
0.0
  0
ARC
  5
6C0
330
2
100
AcDbEntity
  8
0
100
AcDbCircle
 10
298.7576808182758
 20
130.9686086983225
 30
0.0
 40
2.0
100
AcDbArc
 50
270.0
 51
0.0
  0
LINE
  5
6C1
330
2
100
AcDbEntity
  8
0
100
AcDbLine
 10
321.7576808182758
 20
125.9686316983225
 30
0.0
 11
328.7576808182758
 21
125.9686316983225
 31
0.0
  0
ARC
  5
6C2
330
2
100
AcDbEntity
  8
0
100
AcDbCircle
 10
317.8847098182758
 20
126.9686086983225
 30
0.0
 40
2.0
100
AcDbArc
 50
14.47728000000024
 51
90.0
  0
ARC
  5
6C3
330
2
100
AcDbEntity
  8
0
100
AcDbCircle
 10
321.7576808182758
 20
127.9686086983225
 30
0.0
 40
2.0
100
AcDbArc
 50
194.477707
 51
270.0
  0
ARC
  5
6C4
330
2
100
AcDbEntity
  8
0
100
AcDbCircle
 10
336.7576808182758
 20
120.9685896983225
 30
0.0
 40
5.0
100
AcDbArc
 50
0.0
 51
90.0
  0
LINE
  5
6C5
330
2
100
AcDbEntity
  8
0
100
AcDbLine
 10
328.7576808182758
 20
125.9686086983225
 30
0.0
 11
336.7576808182758
 21
125.9686086983225
 31
0.0
  0
LINE
  5
6C6
330
2
100
AcDbEntity
  8
0
100
AcDbLine
 10
317.7576808182758
 20
149.7246086983225
 30
0.0
 11
302.7576808182758
 21
149.7246086983225
 31
0.0
  0
ARC
  5
6C7
330
2
100
AcDbEntity
  8
0
100
AcDbCircle
 10
302.7576808182758
 20
147.7246316983225
 30
0.0
 40
2.0
100
AcDbArc
 50
90.0
 51
180.0
  0
ARC
  5
6C8
330
2
100
AcDbEntity
  8
0
100
AcDbCircle
 10
317.7576808182758
 20
151.7246086983225
 30
0.0
 40
2.0
100
AcDbArc
 50
270.0
 51
0.0
  0
LINE
  5
6C9
330
2
100
AcDbEntity
  8
0
100
AcDbLine
 10
355.7576958182758
 20
102.7832906983225
 30
0.0
 11
355.7576958182758
 21
85.46860969832255
 31
0.0
  0
LINE
  5
6CA
330
2
100
AcDbEntity
  8
HIDS
100
AcDbLine
 10
364.2576958182758
 20
105.4686086983225
 30
0.0
 11
364.2576958182758
 21
85.46860969832255
 31
0.0
  0
LINE
  5
6CB
330
2
100
AcDbEntity
  8
HIDS
100
AcDbLine
 10
379.2576958182757
 20
105.4686086983225
 30
0.0
 11
379.2576958182757
 21
85.46860969832255
 31
0.0
  0
LINE
  5
6CC
330
2
100
AcDbEntity
  8
CENTER
100
AcDbLine
 10
371.7576958182758
 20
112.4686086983225
 30
0.0
 11
371.7576958182759
 21
78.46860969832258
 31
0.0
  0
LINE
  5
6CD
330
2
100
AcDbEntity
  8
0
100
AcDbLine
 10
401.7576958182758
 20
141.9686116983225
 30
0.0
 11
461.7576958182758
 21
141.9686116983225
 31
0.0
  0
LINE
  5
6CE
330
2
100
AcDbEntity
  8
0
100
AcDbLine
 10
401.7576958182758
 20
145.9686116983225
 30
0.0
 11
461.7576958182758
 21
145.9686116983225
 31
0.0
  0
LINE
  5
6CF
330
2
100
AcDbEntity
  8
0
100
AcDbLine
 10
465.5150808182759
 20
110.4686086983225
 30
0.0
 11
398.0002798182758
 21
110.4686086983225
 31
0.0
  0
ARC
  5
6D0
330
2
100
AcDbEntity
  8
0
100
AcDbCircle
 10
389.6866808182758
 20
110.4686086983225
 30
0.0
 40
5.0
100
AcDbArc
 50
270.0
 51
315.0000919999998
  0
ARC
  5
6D1
330
2
100
AcDbEntity
  8
0
100
AcDbCircle
 10
398.0002798182758
 20
107.4686086983225
 30
0.0
 40
3.0
100
AcDbArc
 50
90.0
 51
135.0003970000001
  0
ARC
  5
6D2
330
2
100
AcDbEntity
  8
0
100
AcDbCircle
 10
395.7576958182757
 20
106.4686086983225
 30
0.0
 40
1.0
100
AcDbArc
 50
270.0
 51
0.0
  0
LINE
  5
6D3
330
2
100
AcDbEntity
  8
0
100
AcDbLine
 10
395.8790948182759
 20
109.5899306983225
 30
0.0
 11
393.2220818182759
 21
106.9331086983225
 31
0.0
  0
LINE
  5
6D4
330
2
100
AcDbEntity
  8
0
100
AcDbLine
 10
396.7576958182758
 20
109.3317296983225
 30
0.0
 11
396.7576958182758
 21
106.4686086983225
 31
0.0
  0
ARC
  5
6D5
330
2
100
AcDbEntity
  8
0
100
AcDbCircle
 10
467.7576958182758
 20
106.4686086983225
 30
0.0
 40
1.0
100
AcDbArc
 50
180.0
 51
270.0
  0
ARC
  5
6D6
330
2
100
AcDbEntity
  8
0
100
AcDbCircle
 10
465.5150808182759
 20
107.4686086983225
 30
0.0
 40
3.0
100
AcDbArc
 50
45.00025900000007
 51
90.0
  0
LINE
  5
6D7
330
2
100
AcDbEntity
  8
0
100
AcDbLine
 10
466.7576958182758
 20
109.3317296983225
 30
0.0
 11
466.7576958182758
 21
106.4686086983225
 31
0.0
  0
LINE
  5
6D8
330
2
100
AcDbEntity
  8
0
100
AcDbLine
 10
420.8846788182759
 20
163.9686116983225
 30
0.0
 11
422.2576958182758
 21
163.9686116983225
 31
0.0
  0
ARC
  5
6D9
330
2
100
AcDbEntity
  8
0
100
AcDbCircle
 10
417.9158988182758
 20
168.6072686983225
 30
0.0
 40
2.96875
100
AcDbArc
 50
270.0002139999998
 51
0.0001089999998967
  0
LINE
  5
6DA
330
2
100
AcDbEntity
  8
0
100
AcDbLine
 10
418.3982898182757
 20
172.2440106983225
 30
0.0
 11
422.2576958182758
 21
172.2440106983225
 31
0.0
  0
LINE
  5
6DB
330
2
100
AcDbEntity
  8
0
100
AcDbLine
 10
420.8846788182759
 20
175.2498466983225
 30
0.0
 11
422.2576958182758
 21
175.2498466983225
 31
0.0
  0
LINE
  5
6DC
330
2
100
AcDbEntity
  8
0
100
AcDbLine
 10
420.8702748182759
 20
178.2186116983225
 30
0.0
 11
422.2576958182758
 21
176.6790306983225
 31
0.0
  0
LINE
  5
6DD
330
2
100
AcDbEntity
  8
0
100
AcDbLine
 10
414.3534898182759
 20
174.9960316983225
 30
0.0
 11
414.3534898182759
 21
166.7864526983225
 31
0.0
  0
LINE
  5
6DE
330
2
100
AcDbEntity
  8
0
100
AcDbLine
 10
412.7576958182758
 20
176.0101466983225
 30
0.0
 11
412.7576958182758
 21
165.8177336983225
 31
0.0
  0
LINE
  5
6DF
330
2
100
AcDbEntity
  8
0
100
AcDbLine
 10
412.7576958182758
 20
165.8177336983225
 30
0.0
 11
414.5902758182757
 21
163.9686116983225
 31
0.0
  0
LINE
  5
6E0
330
2
100
AcDbEntity
  8
0
100
AcDbLine
 10
420.8846788182759
 20
165.1045296983225
 30
0.0
 11
419.5306758182758
 21
163.9686116983225
 31
0.0
  0
LINE
  5
6E1
330
2
100
AcDbEntity
  8
0
100
AcDbLine
 10
418.3982898182757
 20
172.2440106983225
 30
0.0
 11
418.3982898182757
 21
170.6854086983225
 31
0.0
  0
LINE
  5
6E2
330
2
100
AcDbEntity
  8
0
100
AcDbLine
 10
420.8846788182759
 20
170.6854086983225
 30
0.0
 11
420.8846788182759
 21
168.6072686983225
 31
0.0
  0
LINE
  5
6E3
330
2
100
AcDbEntity
  8
0
100
AcDbLine
 10
420.8846788182759
 20
165.1045296983225
 30
0.0
 11
420.8846788182759
 21
163.9686116983225
 31
0.0
  0
LINE
  5
6E4
330
2
100
AcDbEntity
  8
0
100
AcDbLine
 10
420.8846788182759
 20
169.2010266983225
 30
0.0
 11
420.8846788182759
 21
170.3885266983225
 31
0.0
  0
LINE
  5
6E5
330
2
100
AcDbEntity
  8
0
100
AcDbLine
 10
417.9158988182758
 20
165.6385266983225
 30
0.0
 11
415.4432728182759
 21
165.6385266983225
 31
0.0
  0
LINE
  5
6E6
330
2
100
AcDbEntity
  8
0
100
AcDbLine
 10
420.8846788182759
 20
170.6854086983225
 30
0.0
 11
418.3982898182757
 21
170.6854086983225
 31
0.0
  0
LINE
  5
6E7
330
2
100
AcDbEntity
  8
0
100
AcDbLine
 10
414.3534898182759
 20
166.7864526983225
 30
0.0
 11
415.4432728182759
 21
165.6385266983225
 31
0.0
  0
LINE
  5
6E8
330
2
100
AcDbEntity
  8
0
100
AcDbLine
 10
419.5306758182758
 20
163.9686116983225
 30
0.0
 11
414.5902758182757
 21
163.9686116983225
 31
0.0
  0
LINE
  5
6E9
330
2
100
AcDbEntity
  8
0
100
AcDbLine
 10
414.4824878182758
 20
178.2186116983225
 30
0.0
 11
412.7576958182758
 21
176.0101466983225
 31
0.0
  0
LINE
  5
6EA
330
2
100
AcDbEntity
  8
0
100
AcDbLine
 10
420.8846788182759
 20
175.4744716983225
 30
0.0
 11
420.8846788182759
 21
175.2498466983225
 31
0.0
  0
LINE
  5
6EB
330
2
100
AcDbEntity
  8
0
100
AcDbLine
 10
414.4824878182758
 20
178.2186116983225
 30
0.0
 11
420.8702748182759
 21
178.2186116983225
 31
0.0
  0
LINE
  5
6EC
330
2
100
AcDbEntity
  8
0
100
AcDbLine
 10
420.8846788182759
 20
175.4744716983225
 30
0.0
 11
419.9856928182758
 21
176.3260266983225
 31
0.0
  0
LINE
  5
6ED
330
2
100
AcDbEntity
  8
0
100
AcDbLine
 10
415.4260918182758
 20
176.3260266983225
 30
0.0
 11
414.3534898182759
 21
174.9960316983225
 31
0.0
  0
LINE
  5
6EE
330
2
100
AcDbEntity
  8
0
100
AcDbLine
 10
420.0036978182758
 20
176.3260266983225
 30
0.0
 11
415.4260918182758
 21
176.3260266983225
 31
0.0
  0
LINE
  5
6EF
330
2
100
AcDbEntity
  8
0
100
AcDbLine
 10
432.6112718182758
 20
176.4744716983225
 30
0.0
 11
432.6112718182758
 21
165.5272056983225
 31
0.0
  0
LINE
  5
6F0
330
2
100
AcDbEntity
  8
0
100
AcDbLine
 10
430.8298698182759
 20
176.4744716983225
 30
0.0
 11
430.8298698182759
 21
165.5272056983225
 31
0.0
  0
LINE
  5
6F1
330
2
100
AcDbEntity
  8
0
100
AcDbLine
 10
422.2576958182758
 20
172.2440106983225
 30
0.0
 11
422.2576958182758
 21
163.9686116983225
 31
0.0
  0
LINE
  5
6F2
330
2
100
AcDbEntity
  8
0
100
AcDbLine
 10
430.1248828182758
 20
165.5272056983225
 30
0.0
 11
430.8298698182759
 21
165.5272056983225
 31
0.0
  0
LINE
  5
6F3
330
2
100
AcDbEntity
  8
0
100
AcDbLine
 10
430.1248828182758
 20
163.9686116983225
 30
0.0
 11
433.2048698182759
 21
163.9686116983225
 31
0.0
  0
LINE
  5
6F4
330
2
100
AcDbEntity
  8
0
100
AcDbLine
 10
433.2048698182759
 20
165.5272056983225
 30
0.0
 11
433.2048698182759
 21
163.9686116983225
 31
0.0
  0
LINE
  5
6F5
330
2
100
AcDbEntity
  8
0
100
AcDbLine
 10
430.1248828182758
 20
165.5272056983225
 30
0.0
 11
430.1248828182758
 21
163.9686116983225
 31
0.0
  0
LINE
  5
6F6
330
2
100
AcDbEntity
  8
0
100
AcDbLine
 10
432.6112718182758
 20
165.5272056983225
 30
0.0
 11
433.2048698182759
 21
165.5272056983225
 31
0.0
  0
LINE
  5
6F7
330
2
100
AcDbEntity
  8
0
100
AcDbLine
 10
430.8298698182759
 20
176.4744716983225
 30
0.0
 11
428.5724848182758
 21
176.4744716983225
 31
0.0
  0
LINE
  5
6F8
330
2
100
AcDbEntity
  8
0
100
AcDbLine
 10
427.0076958182758
 20
178.2186116983225
 30
0.0
 11
436.5076958182758
 21
178.2186116983225
 31
0.0
  0
LINE
  5
6F9
330
2
100
AcDbEntity
  8
0
100
AcDbLine
 10
428.5724848182758
 20
176.4744716983225
 30
0.0
 11
428.0622918182758
 21
175.2498466983225
 31
0.0
  0
LINE
  5
6FA
330
2
100
AcDbEntity
  8
0
100
AcDbLine
 10
427.0076958182758
 20
175.2498466983225
 30
0.0
 11
428.0622918182758
 21
175.2498466983225
 31
0.0
  0
LINE
  5
6FB
330
2
100
AcDbEntity
  8
0
100
AcDbLine
 10
422.2576958182758
 20
176.6790306983225
 30
0.0
 11
422.2576958182758
 21
175.2498466983225
 31
0.0
  0
LINE
  5
6FC
330
2
100
AcDbEntity
  8
0
100
AcDbLine
 10
427.0076958182758
 20
175.2498466983225
 30
0.0
 11
427.0076958182758
 21
178.2186116983225
 31
0.0
  0
LINE
  5
6FD
330
2
100
AcDbEntity
  8
0
100
AcDbLine
 10
432.6112718182758
 20
176.4744716983225
 30
0.0
 11
435.0864918182757
 21
176.4744716983225
 31
0.0
  0
LINE
  5
6FE
330
2
100
AcDbEntity
  8
0
100
AcDbLine
 10
435.0864918182757
 20
176.4744716983225
 30
0.0
 11
435.5166978182758
 21
175.2498466983225
 31
0.0
  0
LINE
  5
6FF
330
2
100
AcDbEntity
  8
0
100
AcDbLine
 10
435.5166978182758
 20
175.2498466983225
 30
0.0
 11
436.5076958182758
 21
175.2498466983225
 31
0.0
  0
LINE
  5
700
330
2
100
AcDbEntity
  8
0
100
AcDbLine
 10
436.5076958182758
 20
175.2498466983225
 30
0.0
 11
436.5076958182758
 21
178.2186116983225
 31
0.0
  0
LINE
  5
701
330
2
100
AcDbEntity
  8
0
100
AcDbLine
 10
443.5956778182758
 20
176.4744716983225
 30
0.0
 11
443.5956778182758
 21
172.1137686983225
 31
0.0
  0
ARC
  5
702
330
2
100
AcDbEntity
  8
0
100
AcDbCircle
 10
446.9538928182759
 20
174.4148856983225
 30
0.0
 40
2.320524
100
AcDbArc
 50
277.4147259999995
 51
62.41184999999949
  0
ARC
  5
703
330
2
100
AcDbEntity
  8
0
100
AcDbCircle
 10
446.9538928182759
 20
174.4148856983225
 30
0.0
 40
3.803712
100
AcDbArc
 50
286.0181269999995
 51
90.00350999999964
  0
LINE
  5
704
330
2
100
AcDbEntity
  8
0
100
AcDbLine
 10
441.9628958182759
 20
176.4744716983225
 30
0.0
 11
441.9628958182759
 21
165.4529866983225
 31
0.0
  0
LINE
  5
705
330
2
100
AcDbEntity
  8
0
100
AcDbLine
 10
443.5956778182758
 20
170.6297526983225
 30
0.0
 11
446.6362968182759
 21
170.6297526983225
 31
0.0
  0
LINE
  5
706
330
2
100
AcDbEntity
  8
0
100
AcDbLine
 10
447.2534838182759
 20
172.1137686983225
 30
0.0
 11
443.5956778182758
 21
172.1137686983225
 31
0.0
  0
LINE
  5
707
330
2
100
AcDbEntity
  8
0
100
AcDbLine
 10
441.2576958182758
 20
165.4529866983225
 30
0.0
 11
441.2576958182758
 21
163.9686116983225
 31
0.0
  0
LINE
  5
708
330
2
100
AcDbEntity
  8
0
100
AcDbLine
 10
444.2450918182758
 20
165.4529866983225
 30
0.0
 11
444.2450918182758
 21
163.9686116983225
 31
0.0
  0
LINE
  5
709
330
2
100
AcDbEntity
  8
0
100
AcDbLine
 10
444.2450918182758
 20
163.9686116983225
 30
0.0
 11
441.2576958182758
 21
163.9686116983225
 31
0.0
  0
LINE
  5
70A
330
2
100
AcDbEntity
  8
0
100
AcDbLine
 10
443.5956778182758
 20
165.4529866983225
 30
0.0
 11
444.2450918182758
 21
165.4529866983225
 31
0.0
  0
LINE
  5
70B
330
2
100
AcDbEntity
  8
0
100
AcDbLine
 10
441.2576958182758
 20
165.4529866983225
 30
0.0
 11
441.9628958182759
 21
165.4529866983225
 31
0.0
  0
LINE
  5
70C
330
2
100
AcDbEntity
  8
0
100
AcDbLine
 10
443.5956778182758
 20
170.6297526983225
 30
0.0
 11
443.5956778182758
 21
165.4529866983225
 31
0.0
  0
LINE
  5
70D
330
2
100
AcDbEntity
  8
0
100
AcDbLine
 10
448.5682728182759
 20
165.4529866983225
 30
0.0
 11
448.5682728182759
 21
163.9686116983225
 31
0.0
  0
LINE
  5
70E
330
2
100
AcDbEntity
  8
0
100
AcDbLine
 10
450.7576958182758
 20
165.4529866983225
 30
0.0
 11
450.7576958182758
 21
163.9686116983225
 31
0.0
  0
LINE
  5
70F
330
2
100
AcDbEntity
  8
0
100
AcDbLine
 10
448.5682728182759
 20
163.9686116983225
 30
0.0
 11
450.7576958182758
 21
163.9686116983225
 31
0.0
  0
LINE
  5
710
330
2
100
AcDbEntity
  8
0
100
AcDbLine
 10
450.3578848182757
 20
165.4529866983225
 30
0.0
 11
450.7576958182758
 21
165.4529866983225
 31
0.0
  0
LINE
  5
711
330
2
100
AcDbEntity
  8
0
100
AcDbLine
 10
448.5682728182759
 20
165.4529866983225
 30
0.0
 11
448.8640798182758
 21
165.4529866983225
 31
0.0
  0
LINE
  5
712
330
2
100
AcDbEntity
  8
0
100
AcDbLine
 10
446.6362968182759
 20
170.6297526983225
 30
0.0
 11
448.8640798182758
 21
165.4529866983225
 31
0.0
  0
LINE
  5
713
330
2
100
AcDbEntity
  8
0
100
AcDbLine
 10
448.0034838182758
 20
170.7588726983225
 30
0.0
 11
450.3578848182757
 21
165.4529866983225
 31
0.0
  0
LINE
  5
714
330
2
100
AcDbEntity
  8
0
100
AcDbLine
 10
443.5956778182758
 20
176.4744716983225
 30
0.0
 11
448.0286918182757
 21
176.4715876983225
 31
0.0
  0
LINE
  5
715
330
2
100
AcDbEntity
  8
0
100
AcDbLine
 10
441.2576958182758
 20
178.2186116983225
 30
0.0
 11
446.9538928182759
 21
178.2186116983225
 31
0.0
  0
LINE
  5
716
330
2
100
AcDbEntity
  8
0
100
AcDbLine
 10
441.2576958182758
 20
176.4744716983225
 30
0.0
 11
441.9628958182759
 21
176.4744716983225
 31
0.0
  0
LINE
  5
717
330
2
100
AcDbEntity
  8
0
100
AcDbLine
 10
441.2576958182758
 20
178.2186116983225
 30
0.0
 11
441.2576958182758
 21
176.4744716983225
 31
0.0
  0
ARC
  5
718
330
2
100
AcDbEntity
  8
0
100
AcDbCircle
 10
351.7576958182758
 20
283.8006436983225
 30
0.0
 40
10.0
100
AcDbArc
 50
125.3404999999999
 51
180.0
  0
LINE
  5
71A
330
2
100
AcDbEntity
  8
0
100
AcDbLine
 10
272.2576808182758
 20
234.9686116983225
 30
0.0
 11
316.7576648182758
 21
234.9686116983225
 31
0.0
  0
ARC
  5
71B
330
2
100
AcDbEntity
  8
0
100
AcDbCircle
 10
264.2576808182758
 20
232.9686276983224
 30
0.0
 40
2.0
100
AcDbArc
 50
90.0
 51
180.0
  0
LINE
  5
71C
330
2
100
AcDbEntity
  8
0
100
AcDbLine
 10
318.2576808182758
 20
246.1025846983225
 30
0.0
 11
299.6694238182758
 21
235.3705286983225
 31
0.0
  0
ARC
  5
71D
330
2
100
AcDbEntity
  8
0
100
AcDbCircle
 10
298.1694078182759
 20
237.9686116983225
 30
0.0
 40
3.0
100
AcDbArc
 50
270.0
 51
300.0003049999997
  0
ARC
  5
71E
330
2
100
AcDbEntity
  8
0
100
AcDbCircle
 10
316.7576808182758
 20
248.7006526983225
 30
0.0
 40
3.0
100
AcDbArc
 50
300.0003400000001
 51
0.0
  0
ARC
  5
71F
330
2
100
AcDbEntity
  8
0
100
AcDbCircle
 10
316.7576808182758
 20
237.9686116983225
 30
0.0
 40
3.0
100
AcDbArc
 50
270.0
 51
0.0
  0
LINE
  5
720
330
2
100
AcDbEntity
  8
0
100
AcDbLine
 10
321.7576808182758
 20
267.9686116983225
 30
0.0
 11
328.7576808182758
 21
267.9686116983225
 31
0.0
  0
ARC
  5
721
330
2
100
AcDbEntity
  8
0
100
AcDbCircle
 10
321.7577108182759
 20
265.9686116983225
 30
0.0
 40
2.0
100
AcDbArc
 50
90.0
 51
180.0
  0
ARC
  5
722
330
2
100
AcDbEntity
  8
0
100
AcDbCircle
 10
336.7576808182758
 20
272.9686116983225
 30
0.0
 40
5.0
100
AcDbArc
 50
270.0
 51
0.0
  0
LINE
  5
723
330
2
100
AcDbEntity
  8
0
100
AcDbLine
 10
328.7576808182758
 20
267.9686116983225
 30
0.0
 11
336.7576808182758
 21
267.9686116983225
 31
0.0
  0
LINE
  5
724
330
2
100
AcDbEntity
  8
0
100
AcDbLine
 10
368.5664728182759
 20
187.3406746983225
 30
0.0
 11
384.8996938182758
 21
260.8762356983225
 31
0.0
  0
LINE
  5
725
330
2
100
AcDbEntity
  8
0
100
AcDbLine
 10
364.6616868182759
 20
188.2079766983225
 30
0.0
 11
380.9946948182759
 21
261.7435146983225
 31
0.0
  0
ARC
  5
726
330
2
100
AcDbEntity
  8
0
100
AcDbCircle
 10
431.7576958182757
 20
250.4686116983225
 30
0.0
 40
20.0
100
AcDbArc
 50
17.45760000000002
 51
342.5423890000003
  0
LINE
  5
727
330
2
100
AcDbEntity
  8
0
100
AcDbLine
 10
454.7576958182758
 20
256.4686886983225
 30
0.0
 11
446.7576958182758
 21
256.4686726983225
 31
0.0
  0
LINE
  5
728
330
2
100
AcDbEntity
  8
0
100
AcDbLine
 10
454.7576958182758
 20
244.4686886983225
 30
0.0
 11
446.7576958182758
 21
244.4686726983225
 31
0.0
  0
LINE
  5
729
330
2
100
AcDbEntity
  8
0
100
AcDbLine
 10
446.7576958182758
 20
244.4686726983225
 30
0.0
 11
446.7576958182758
 21
256.4686726983225
 31
0.0
  0
LINE
  5
72A
330
2
100
AcDbEntity
  8
0
100
AcDbLine
 10
454.7576958182758
 20
244.4686886983225
 30
0.0
 11
454.7576958182758
 21
256.4686886983225
 31
0.0
  0
LINE
  5
72B
330
2
100
AcDbEntity
  8
0
100
AcDbLine
 10
399.9432728182759
 20
327.9686116983225
 30
0.0
 11
463.5720878182758
 21
327.9686116983225
 31
0.0
  0
LINE
  5
72C
330
2
100
AcDbEntity
  8
0
100
AcDbLine
 10
345.9734858182757
 20
291.9579306983225
 30
0.0
 11
394.1590938182757
 21
326.1259606983225
 31
0.0
  0
ARC
  5
72D
330
2
100
AcDbEntity
  8
0
100
AcDbCircle
 10
399.9432728182759
 20
317.9686116983225
 30
0.0
 40
10.0
100
AcDbArc
 50
90.0
 51
125.3403019999997
  0
LINE
  5
72E
330
2
100
AcDbEntity
  8
0
100
AcDbLine
 10
142.2576838182758
 20
572.3943867950724
 30
0.0
 11
262.2576808182758
 21
572.3943867950724
 31
0.0
  0
LINE
  5
72F
330
2
100
AcDbEntity
  8
0
100
AcDbLine
 10
142.2576838182758
 20
635.3943567950725
 30
0.0
 11
262.2576808182758
 21
635.3943567950725
 31
0.0
  0
LINE
  5
730
330
2
100
AcDbEntity
  8
0
100
AcDbLine
 10
142.2576838182758
 20
550.8943867950724
 30
0.0
 11
272.2576808182758
 21
550.8943867950724
 31
0.0
  0
LINE
  5
731
330
2
100
AcDbEntity
  8
0
100
AcDbLine
 10
142.2576838182758
 20
656.8944177950725
 30
0.0
 11
272.2576808182758
 21
656.8944177950725
 31
0.0
  0
LINE
  5
732
330
2
100
AcDbEntity
  8
0
100
AcDbLine
 10
84.75764181827585
 20
558.8943867950725
 30
0.0
 11
84.75764181827585
 21
648.8944177950725
 31
0.0
  0
LINE
  5
733
330
2
100
AcDbEntity
  8
0
100
AcDbLine
 10
133.7576418182758
 20
658.8944177950724
 30
0.0
 11
133.7576418182758
 21
627.3944517950724
 31
0.0
  0
ARC
  5
738
330
2
100
AcDbEntity
  8
0
100
AcDbCircle
 10
94.75764181827585
 20
558.8943867950725
 30
0.0
 40
10.0
100
AcDbArc
 50
180.0
 51
270.0
  0
LINE
  5
739
330
2
100
AcDbEntity
  8
0
100
AcDbLine
 10
89.75764181827585
 20
573.3943867950724
 30
0.0
 11
133.7576418182758
 21
573.3943867950724
 31
0.0
  0
LINE
  5
73A
330
2
100
AcDbEntity
  8
0
100
AcDbLine
 10
142.2576838182758
 20
550.8944177950723
 30
0.0
 11
142.2576838182758
 21
578.8943867950726
 31
0.0
  0
LINE
  5
73B
330
2
100
AcDbEntity
  8
0
100
AcDbLine
 10
94.75764181827585
 20
548.8943867950724
 30
0.0
 11
133.7576418182758
 21
548.8943867950724
 31
0.0
  0
LINE
  5
73C
330
2
100
AcDbEntity
  8
0
100
AcDbLine
 10
133.7576418182758
 20
550.8944177950723
 30
0.0
 11
142.2576838182758
 21
550.8944177950723
 31
0.0
  0
LINE
  5
73D
330
2
100
AcDbEntity
  8
0
100
AcDbLine
 10
142.2576838182758
 20
572.3943867950724
 30
0.0
 11
133.7576418182758
 21
572.3943867950724
 31
0.0
  0
ARC
  5
73E
330
2
100
AcDbEntity
  8
0
100
AcDbCircle
 10
133.7576418182758
 20
562.1245507950724
 30
0.0
 40
4.5
100
AcDbArc
 50
0.0
 51
90.0
  0
LINE
  5
73F
330
2
100
AcDbEntity
  8
HOJO
100
AcDbLine
 10
136.7576418182758
 20
558.1245507950724
 30
0.0
 11
138.2576418182758
 21
557.6245507950724
 31
0.0
  0
LINE
  5
740
330
2
100
AcDbEntity
  8
HOJO
100
AcDbLine
 10
135.2576418182758
 20
557.1245507950724
 30
0.0
 11
136.7576418182758
 21
557.6245507950724
 31
0.0
  0
LINE
  5
741
330
2
100
AcDbEntity
  8
0
100
AcDbLine
 10
138.2576418182758
 20
562.1245507950724
 30
0.0
 11
138.2576418182758
 21
557.6245507950724
 31
0.0
  0
LINE
  5
742
330
2
100
AcDbEntity
  8
0
100
AcDbLine
 10
136.7576418182758
 20
562.1245507950724
 30
0.0
 11
136.7576418182758
 21
557.6245507950724
 31
0.0
  0
LINE
  5
743
330
2
100
AcDbEntity
  8
0
100
AcDbLine
 10
135.2576418182758
 20
562.1245507950724
 30
0.0
 11
135.2576418182758
 21
557.1089557950724
 31
0.0
  0
ARC
  5
744
330
2
100
AcDbEntity
  8
0
100
AcDbCircle
 10
133.7576418182758
 20
562.1245507950724
 30
0.0
 40
1.5
100
AcDbArc
 50
0.0
 51
90.0
  0
ARC
  5
745
330
2
100
AcDbEntity
  8
0
100
AcDbCircle
 10
133.7576418182758
 20
562.1245507950724
 30
0.0
 40
3.0
100
AcDbArc
 50
0.0
 51
90.0
  0
ARC
  5
74B
330
2
100
AcDbEntity
  8
0
100
AcDbCircle
 10
94.75773181827586
 20
648.8944177950725
 30
0.0
 40
10.0
100
AcDbArc
 50
90.0
 51
180.0
  0
LINE
  5
74C
330
2
100
AcDbEntity
  8
0
100
AcDbLine
 10
89.75764181827585
 20
634.3944177950724
 30
0.0
 11
133.7576418182758
 21
634.3944177950724
 31
0.0
  0
LINE
  5
74D
330
2
100
AcDbEntity
  8
0
100
AcDbLine
 10
142.2576838182758
 20
628.8943867950725
 30
0.0
 11
142.2576838182758
 21
656.8943567950725
 31
0.0
  0
LINE
  5
753
330
2
100
AcDbEntity
  8
0
100
AcDbLine
 10
142.2576838182758
 20
635.3944177950725
 30
0.0
 11
133.7576418182758
 21
635.3944177950725
 31
0.0
  0
LINE
  5
754
330
2
100
AcDbEntity
  8
0
100
AcDbLine
 10
94.75764181827585
 20
658.8944177950724
 30
0.0
 11
133.7576418182758
 21
658.8944177950724
 31
0.0
  0
LINE
  5
755
330
2
100
AcDbEntity
  8
0
100
AcDbLine
 10
133.7576418182758
 20
656.8943567950725
 30
0.0
 11
142.2576838182758
 21
656.8943567950725
 31
0.0
  0
ARC
  5
756
330
2
100
AcDbEntity
  8
0
100
AcDbCircle
 10
318.9732718182758
 20
603.8943867950725
 30
0.0
 40
20.0
100
AcDbArc
 50
180.0
 51
218.4387050000001
  0
LINE
  5
757
330
2
100
AcDbEntity
  8
0
100
AcDbLine
 10
272.2581988182759
 20
656.8944177950725
 30
0.0
 11
272.2581988182759
 21
550.8943867950724
 31
0.0
  0
LINE
  5
758
330
2
100
AcDbEntity
  8
0
100
AcDbLine
 10
319.7581988182759
 20
534.8943867950724
 30
0.0
 11
319.7581988182759
 21
672.8944177950725
 31
0.0
  0
LINE
  5
759
330
2
100
AcDbEntity
  8
0
100
AcDbLine
 10
396.7579088182758
 20
556.8946007950724
 30
0.0
 11
396.7579088182758
 21
650.8946007950724
 31
0.0
  0
LINE
  5
75A
330
2
100
AcDbEntity
  8
0
100
AcDbLine
 10
466.7579088182758
 20
556.8946007950724
 30
0.0
 11
466.7579088182758
 21
650.8946007950724
 31
0.0
  0
LINE
  5
75B
330
2
100
AcDbEntity
  8
0
100
AcDbLine
 10
328.7581988182759
 20
674.8943567950725
 30
0.0
 11
328.7578028182758
 21
532.8944477950724
 31
0.0
  0
LINE
  5
75C
330
2
100
AcDbEntity
  8
0
100
AcDbLine
 10
341.7580008182758
 20
603.8943867950725
 30
0.0
 11
342.6658068182758
 21
551.8944477950724
 31
0.0
  0
LINE
  5
75D
330
2
100
AcDbEntity
  8
CENTER
100
AcDbLine
 10
431.7576945771259
 20
448.8943867951034
 30
0.0
 11
431.7582227846169
 21
708.8942957951694
 31
0.0
  0
ARC
  5
75E
330
2
100
AcDbEntity
  8
0
100
AcDbCircle
 10
345.6140798182758
 20
554.8946007950724
 30
0.0
 40
3.0
100
AcDbArc
 50
181.0003660000003
 51
270.0
  0
ARC
  5
75F
330
2
100
AcDbEntity
  8
0
100
AcDbCircle
 10
346.6291858182758
 20
544.8944477950724
 30
0.0
 40
7.0
100
AcDbArc
 50
121.1092069999995
 51
165.0003359999999
  0
LINE
  5
760
330
2
100
AcDbEntity
  8
0
100
AcDbLine
 10
353.4347888182758
 20
520.6370017950724
 30
0.0
 11
342.6658068182758
 21
551.8944477950724
 31
0.0
  0
LINE
  5
761
330
2
100
AcDbEntity
  8
0
100
AcDbLine
 10
272.2581988182759
 20
550.8943867950724
 30
0.0
 11
319.7581988182759
 21
550.8943867950724
 31
0.0
  0
LINE
  5
762
330
2
100
AcDbEntity
  8
0
100
AcDbLine
 10
262.2576808182758
 20
572.3943867950724
 30
0.0
 11
262.2576808182758
 21
552.8943867950724
 31
0.0
  0
ARC
  5
763
330
2
100
AcDbEntity
  8
0
100
AcDbCircle
 10
264.2576808182758
 20
552.8943867950724
 30
0.0
 40
2.0
100
AcDbArc
 50
180.0
 51
270.0
  0
LINE
  5
764
330
2
100
AcDbEntity
  8
0
100
AcDbLine
 10
321.7581988182759
 20
532.8943867950725
 30
0.0
 11
328.7578028182758
 21
532.8943867950725
 31
0.0
  0
ARC
  5
765
330
2
100
AcDbEntity
  8
0
100
AcDbCircle
 10
321.7581988182759
 20
534.8943867950724
 30
0.0
 40
2.0
100
AcDbArc
 50
180.0
 51
270.0
  0
LINE
  5
766
330
2
100
AcDbEntity
  8
0
100
AcDbLine
 10
339.8675898182758
 20
546.7062767950724
 30
0.0
 11
337.5569968182758
 21
538.0826807950723
 31
0.0
  0
ARC
  5
767
330
2
100
AcDbEntity
  8
0
100
AcDbCircle
 10
330.7953998182759
 20
539.8945087950724
 30
0.0
 40
7.0
100
AcDbArc
 50
270.0
 51
345.0001000000002
  0
LINE
  5
768
330
2
100
AcDbEntity
  8
0
100
AcDbLine
 10
330.7953998182759
 20
532.8944477950724
 30
0.0
 11
328.7578028182758
 21
532.8944477950724
 31
0.0
  0
LINE
  5
769
330
2
100
AcDbEntity
  8
0
100
AcDbLine
 10
319.7581988182759
 20
570.7343837950723
 30
0.0
 11
303.3077898182758
 21
591.4608537950725
 31
0.0
  0
LINE
  5
76A
330
2
100
AcDbEntity
  8
0
100
AcDbLine
 10
450.8366748182758
 20
523.8948447950725
 30
0.0
 11
450.8366748182758
 21
463.8943867950724
 31
0.0
  0
LINE
  5
76B
330
2
100
AcDbEntity
  8
0
100
AcDbLine
 10
454.7576958182758
 20
463.8948447950724
 30
0.0
 11
454.7576958182758
 21
523.8948447950725
 31
0.0
  0
LINE
  5
76C
330
2
100
AcDbEntity
  8
0
100
AcDbLine
 10
411.7580008182758
 20
528.8943867950725
 30
0.0
 11
411.7580008182758
 21
463.8943867950724
 31
0.0
  0
LINE
  5
76D
330
2
100
AcDbEntity
  8
0
100
AcDbLine
 10
411.7580008182758
 20
463.8943867950724
 30
0.0
 11
454.7576958182758
 21
463.8943867950724
 31
0.0
  0
LINE
  5
76E
330
2
100
AcDbEntity
  8
0
100
AcDbLine
 10
411.7580008182758
 20
513.8942957950724
 30
0.0
 11
362.8894098182758
 21
513.8943867950724
 31
0.0
  0
LINE
  5
76F
330
2
100
AcDbEntity
  8
0
100
AcDbLine
 10
370.7577868182758
 20
537.8946007950723
 30
0.0
 11
379.7576958182758
 21
537.8945397950724
 31
0.0
  0
ARC
  5
771
330
2
100
AcDbEntity
  8
0
100
AcDbCircle
 10
371.7577868182758
 20
533.8943867950725
 30
0.0
 40
7.5
100
AcDbArc
 50
133.921844
 51
32.23294099999961
  0
ARC
  5
773
330
2
100
AcDbEntity
  8
0
100
AcDbCircle
 10
362.8894098182758
 20
523.8944477950724
 30
0.0
 40
10.0
100
AcDbArc
 50
199.0108949999999
 51
270.0
  0
ARC
  5
774
330
2
100
AcDbEntity
  8
0
100
AcDbCircle
 10
356.7577868182758
 20
544.8946007950723
 30
0.0
 40
7.0
100
AcDbArc
 50
0.0
 51
90.0
  0
ARC
  5
775
330
2
100
AcDbEntity
  8
0
100
AcDbCircle
 10
370.7577868182758
 20
544.8946007950723
 30
0.0
 40
7.0
100
AcDbArc
 50
180.0
 51
270.0
  0
LINE
  5
776
330
2
100
AcDbEntity
  8
0
100
AcDbLine
 10
383.6624198182759
 20
533.3389977950723
 30
0.0
 11
379.7576958182758
 21
537.8945397950724
 31
0.0
  0
ARC
  5
777
330
2
100
AcDbEntity
  8
0
100
AcDbCircle
 10
388.9772388182758
 20
537.8945397950724
 30
0.0
 40
7.0
100
AcDbArc
 50
220.6012879999999
 51
270.0
  0
LINE
  5
778
330
2
100
AcDbEntity
  8
0
100
AcDbLine
 10
454.2580008182759
 20
528.8943867950725
 30
0.0
 11
409.2580008182759
 21
528.8943867950725
 31
0.0
  0
LINE
  5
779
330
2
100
AcDbEntity
  8
0
100
AcDbLine
 10
409.2580008182759
 20
530.8943867950724
 30
0.0
 11
409.2580008182759
 21
528.8943867950725
 31
0.0
  0
LINE
  5
77A
330
2
100
AcDbEntity
  8
0
100
AcDbLine
 10
454.2580008182759
 20
530.8943867950724
 30
0.0
 11
454.2580008182759
 21
528.8943867950725
 31
0.0
  0
LINE
  5
77B
330
2
100
AcDbEntity
  8
0
100
AcDbLine
 10
450.8366748182758
 20
523.8948447950725
 30
0.0
 11
454.7576958182758
 21
523.8948447950725
 31
0.0
  0
LINE
  5
77C
330
2
100
AcDbEntity
  8
0
100
AcDbLine
 10
451.7580008182759
 20
528.8943867950725
 30
0.0
 11
451.7580008182759
 21
523.8948447950725
 31
0.0
  0
ARC
  5
77D
330
2
100
AcDbEntity
  8
0
100
AcDbCircle
 10
345.6140798182758
 20
652.8946007950723
 30
0.0
 40
3.0
100
AcDbArc
 50
90.0
 51
178.9996339999996
  0
ARC
  5
77E
330
2
100
AcDbEntity
  8
0
100
AcDbCircle
 10
346.6293998182758
 20
662.8943567950726
 30
0.0
 40
7.0
100
AcDbArc
 50
194.9996949999998
 51
270.0
  0
LINE
  5
77F
330
2
100
AcDbEntity
  8
0
100
AcDbLine
 10
272.2581988182759
 20
656.8944177950725
 30
0.0
 11
319.7581988182759
 21
656.8944177950725
 31
0.0
  0
LINE
  5
780
330
2
100
AcDbEntity
  8
0
100
AcDbLine
 10
262.2576808182758
 20
654.8944177950724
 30
0.0
 11
262.2576808182758
 21
635.3943567950725
 31
0.0
  0
ARC
  5
781
330
2
100
AcDbEntity
  8
0
100
AcDbCircle
 10
264.2576808182758
 20
654.8944177950724
 30
0.0
 40
2.0
100
AcDbArc
 50
90.0
 51
180.0
  0
LINE
  5
782
330
2
100
AcDbEntity
  8
0
100
AcDbLine
 10
341.7580008182758
 20
603.8943867950725
 30
0.0
 11
342.6145378182758
 21
652.9469687950722
 31
0.0
  0
LINE
  5
783
330
2
100
AcDbEntity
  8
0
100
AcDbLine
 10
319.7581988182759
 20
637.0543907950725
 30
0.0
 11
303.3077898182758
 21
616.3279497950725
 31
0.0
  0
ARC
  5
784
330
2
100
AcDbEntity
  8
0
100
AcDbCircle
 10
318.9732718182758
 20
603.8943867950725
 30
0.0
 40
20.0
100
AcDbArc
 50
141.5612949999999
 51
180.0
  0
ARC
  5
785
330
2
100
AcDbEntity
  8
0
100
AcDbCircle
 10
330.7957968182758
 20
667.8943567950725
 30
0.0
 40
7.0
100
AcDbArc
 50
14.99989999999975
 51
90.0
  0
LINE
  5
786
330
2
100
AcDbEntity
  8
0
100
AcDbLine
 10
321.7581988182759
 20
674.8944177950725
 30
0.0
 11
328.7581988182759
 21
674.8944177950725
 31
0.0
  0
ARC
  5
787
330
2
100
AcDbEntity
  8
0
100
AcDbCircle
 10
321.7581988182759
 20
672.8944177950725
 30
0.0
 40
2.0
100
AcDbArc
 50
90.0
 51
180.0
  0
LINE
  5
788
330
2
100
AcDbEntity
  8
0
100
AcDbLine
 10
339.8678028182758
 20
661.0825277950725
 30
0.0
 11
337.5571948182758
 21
669.7061847950724
 31
0.0
  0
LINE
  5
789
330
2
100
AcDbEntity
  8
0
100
AcDbLine
 10
330.7957968182758
 20
674.8943567950725
 30
0.0
 11
328.7581988182759
 21
674.8943567950725
 31
0.0
  0
LINE
  5
78B
330
2
100
AcDbEntity
  8
0
100
AcDbLine
 10
373.0379078182758
 20
669.8946007950723
 30
0.0
 11
379.7576958182758
 21
669.8946007950723
 31
0.0
  0
ARC
  5
78D
330
2
100
AcDbEntity
  8
0
100
AcDbCircle
 10
371.7577868182758
 20
673.8956987950725
 30
0.0
 40
7.5
100
AcDbArc
 50
327.7670590000003
 51
238.0763550000004
  0
LINE
  5
78F
330
2
100
AcDbEntity
  8
0
100
AcDbLine
 10
353.4351858182758
 20
687.1517417950724
 30
0.0
 11
343.0128228182758
 21
656.9010087950723
 31
0.0
  0
ARC
  5
790
330
2
100
AcDbEntity
  8
0
100
AcDbCircle
 10
358.4776968182759
 20
662.8946007950723
 30
0.0
 40
7.0
100
AcDbArc
 50
270.0
 51
344.0546040000002
  0
LINE
  5
791
330
2
100
AcDbEntity
  8
0
100
AcDbLine
 10
366.3072258182758
 20
664.8176347950723
 30
0.0
 11
365.2083488182759
 21
660.9715657950723
 31
0.0
  0
ARC
  5
792
330
2
100
AcDbEntity
  8
0
100
AcDbCircle
 10
373.0379078182758
 20
662.8946007950723
 30
0.0
 40
7.0
100
AcDbArc
 50
90.0
 51
164.0546110000001
  0
ARC
  5
793
330
2
100
AcDbEntity
  8
0
100
AcDbCircle
 10
362.8894098182758
 20
683.8947837950724
 30
0.0
 40
10.0
100
AcDbArc
 50
90.0
 51
160.989105
  0
ARC
  5
794
330
2
100
AcDbEntity
  8
0
100
AcDbCircle
 10
388.9772388182758
 20
669.8946007950723
 30
0.0
 40
7.0
100
AcDbArc
 50
90.0
 51
139.398712
  0
LINE
  5
795
330
2
100
AcDbEntity
  8
0
100
AcDbLine
 10
383.6624198182759
 20
674.4501427950724
 30
0.0
 11
379.7576958182758
 21
669.8946007950723
 31
0.0
  0
ARC
  5
796
330
2
100
AcDbEntity
  8
0
100
AcDbCircle
 10
773.7451121776866
 20
307.7487026983225
 30
0.0
 40
7.0
100
AcDbArc
 50
285.945557
 51
0.0
  0
ARC
  5
797
330
2
100
AcDbEntity
  8
0
100
AcDbCircle
 10
773.7451121776866
 20
136.6884686983225
 30
0.0
 40
7.0
100
AcDbArc
 50
0.0
 51
74.05468800000033
  0
ARC
  5
798
330
2
100
AcDbEntity
  8
0
100
AcDbCircle
 10
775.7451121776867
 20
110.4686086983225
 30
0.0
 40
5.0
100
AcDbArc
 50
270.0
 51
0.0
  0
ARC
  5
799
330
2
100
AcDbEntity
  8
0
100
AcDbCircle
 10
777.7451121776866
 20
113.0997496983225
 30
0.0
 40
3.0
100
AcDbArc
 50
277.4961169999997
 51
0.0
  0
LINE
  5
79A
330
2
100
AcDbEntity
  8
0
100
AcDbLine
 10
742.7451121776867
 20
85.46860969832255
 30
0.0
 11
797.7451121776867
 21
85.46860969832255
 31
0.0
  0
LINE
  5
79B
330
2
100
AcDbEntity
  8
CENTER
100
AcDbLine
 10
677.7451121776867
 20
250.4686116983225
 30
0.0
 11
920.7451121776866
 21
250.4686116983225
 31
0.0
  0
LINE
  5
79C
330
2
100
AcDbEntity
  8
CENTER
100
AcDbLine
 10
746.7451121776867
 20
196.9686116983225
 30
0.0
 11
918.7451121776867
 21
196.9686116983225
 31
0.0
  0
ARC
  5
79D
330
2
100
AcDbEntity
  8
0
100
AcDbCircle
 10
832.7451121776867
 20
196.9686116983225
 30
0.0
 40
71.0
100
AcDbArc
 50
173.9317930000003
 51
201.6309050000002
  0
LINE
  5
79E
330
2
100
AcDbEntity
  8
0
100
AcDbLine
 10
766.7451121776866
 20
151.2487096983225
 30
0.0
 11
766.7451121776866
 21
254.6088856983225
 31
0.0
  0
LINE
  5
79F
330
2
100
AcDbEntity
  8
0
100
AcDbLine
 10
521.7576958182759
 20
283.8006126983225
 30
0.0
 11
521.7576958182759
 21
85.46860969832255
 31
0.0
  0
LINE
  5
7A0
330
2
100
AcDbEntity
  8
0
100
AcDbLine
 10
507.7576958182759
 20
102.7832906983225
 30
0.0
 11
507.7576958182759
 21
85.46860969832255
 31
0.0
  0
LINE
  5
7A1
330
2
100
AcDbEntity
  8
HIDS
100
AcDbLine
 10
499.2576958182758
 20
105.4686086983225
 30
0.0
 11
499.2576958182758
 21
85.46860969832255
 31
0.0
  0
LINE
  5
7A2
330
2
100
AcDbEntity
  8
HIDS
100
AcDbLine
 10
484.2576958182758
 20
105.4686086983225
 30
0.0
 11
484.2576958182758
 21
85.46860969832255
 31
0.0
  0
LINE
  5
7A3
330
2
100
AcDbEntity
  8
CENTER
100
AcDbLine
 10
491.7576958182758
 20
112.4686086983225
 30
0.0
 11
491.7576958182758
 21
78.46860969832255
 31
0.0
  0
ARC
  5
7A4
330
2
100
AcDbEntity
  8
0
100
AcDbCircle
 10
473.8286798182758
 20
110.4686086983225
 30
0.0
 40
5.0
100
AcDbArc
 50
225.0001069999998
 51
270.0
  0
LINE
  5
7A5
330
2
100
AcDbEntity
  8
0
100
AcDbLine
 10
742.7451121776867
 20
102.8374896983225
 30
0.0
 11
742.7451121776867
 21
85.46862969832256
 31
0.0
  0
LINE
  5
7A6
330
2
100
AcDbEntity
  8
HIDS
100
AcDbLine
 10
755.2451121776867
 20
105.4686086983225
 30
0.0
 11
755.2451121776867
 21
85.46860969832255
 31
0.0
  0
LINE
  5
7A7
330
2
100
AcDbEntity
  8
HIDS
100
AcDbLine
 10
770.2451121776866
 20
105.4686086983225
 30
0.0
 11
770.2451121776866
 21
85.46860969832255
 31
0.0
  0
LINE
  5
7A8
330
2
100
AcDbEntity
  8
CENTER
100
AcDbLine
 10
762.7451121776864
 20
112.4686086983225
 30
0.0
 11
762.7451121776865
 21
78.46860969832255
 31
0.0
  0
LINE
  5
7A9
330
2
100
AcDbEntity
  8
0
100
AcDbLine
 10
745.3536941776867
 20
105.8118506983225
 30
0.0
 11
778.1364701776867
 21
110.1253886983225
 31
0.0
  0
LINE
  5
7AA
330
2
100
AcDbEntity
  8
0
100
AcDbLine
 10
745.7451121776866
 20
105.4686086983225
 30
0.0
 11
775.7451121776867
 21
105.4686086983225
 31
0.0
  0
ARC
  5
7AB
330
2
100
AcDbEntity
  8
0
100
AcDbCircle
 10
745.7451121776866
 20
102.8375086983225
 30
0.0
 40
3.0
100
AcDbArc
 50
97.49629199999963
 51
180.0
  0
ARC
  5
7AC
330
2
100
AcDbEntity
  8
0
100
AcDbCircle
 10
745.7451121776866
 20
102.4686316983225
 30
0.0
 40
3.0
100
AcDbArc
 50
90.0
 51
180.0
  0
ARC
  5
7AD
330
2
100
AcDbEntity
  8
0
100
AcDbCircle
 10
773.7451121776866
 20
151.2487706983225
 30
0.0
 40
7.0
100
AcDbArc
 50
180.0
 51
254.0549009999996
  0
LINE
  5
7AE
330
2
100
AcDbEntity
  8
0
100
AcDbLine
 10
771.8220771776867
 20
144.5180506983225
 30
0.0
 11
775.6680861776867
 21
143.4191656983225
 31
0.0
  0
LINE
  5
7AF
330
2
100
AcDbEntity
  8
0
100
AcDbLine
 10
478.6156978182758
 20
260.8762966983225
 30
0.0
 11
494.9488878182758
 21
187.3407286983225
 31
0.0
  0
LINE
  5
7B0
330
2
100
AcDbEntity
  8
0
100
AcDbLine
 10
482.5206958182758
 20
261.7436056983225
 30
0.0
 11
498.8536738182758
 21
188.2080376983225
 31
0.0
  0
LINE
  5
7B1
330
2
100
AcDbEntity
  8
0
100
AcDbLine
 10
469.3562978182758
 20
326.1259606983225
 30
0.0
 11
517.5420888182759
 21
291.9579306983225
 31
0.0
  0
ARC
  5
7B2
330
2
100
AcDbEntity
  8
0
100
AcDbCircle
 10
511.7576958182759
 20
283.8005666983225
 30
0.0
 40
10.0
100
AcDbArc
 50
0.0
 51
54.66009899999957
  0
LINE
  5
7B3
330
2
100
AcDbEntity
  8
0
100
AcDbLine
 10
759.7451121776867
 20
209.7487176983225
 30
0.0
 11
759.7451121776867
 21
291.1884916983225
 31
0.0
  0
LINE
  5
7B4
330
2
100
AcDbEntity
  8
0
100
AcDbLine
 10
746.7451121776867
 20
244.4686116983225
 30
0.0
 11
692.7451121776867
 21
244.4686116983225
 31
0.0
  0
LINE
  5
7B5
330
2
100
AcDbEntity
  8
0
100
AcDbLine
 10
746.7451121776867
 20
256.4686116983225
 30
0.0
 11
692.7451121776867
 21
256.4686116983225
 31
0.0
  0
LINE
  5
7B6
330
2
100
AcDbEntity
  8
0
100
AcDbLine
 10
757.7451121776866
 20
230.4686116983225
 30
0.0
 11
692.7451121776867
 21
230.4686116983225
 31
0.0
  0
LINE
  5
7B7
330
2
100
AcDbEntity
  8
0
100
AcDbLine
 10
757.7451121776866
 20
270.4686116983225
 30
0.0
 11
692.7451121776867
 21
270.4686116983225
 31
0.0
  0
LINE
  5
7B8
330
2
100
AcDbEntity
  8
0
100
AcDbLine
 10
692.7451121776867
 20
230.4686116983225
 30
0.0
 11
692.7451121776867
 21
270.4686116983225
 31
0.0
  0
LINE
  5
7B9
330
2
100
AcDbEntity
  8
0
100
AcDbLine
 10
757.7451121776866
 20
272.9686116983225
 30
0.0
 11
757.7451121776866
 21
227.9686116983225
 31
0.0
  0
ARC
  5
7BA
330
2
100
AcDbEntity
  8
0
100
AcDbCircle
 10
766.7451121776866
 20
209.7487636983225
 30
0.0
 40
7.0
100
AcDbArc
 50
180.0
 51
240.0001980000002
  0
ARC
  5
7BB
330
2
100
AcDbEntity
  8
0
100
AcDbCircle
 10
759.7451121776867
 20
197.6243886983225
 30
0.0
 40
7.0
100
AcDbArc
 50
0.0
 51
60.00009199999957
  0
LINE
  5
7BC
330
2
100
AcDbEntity
  8
0
100
AcDbLine
 10
759.7451121776867
 20
227.9686116983225
 30
0.0
 11
757.7451121776866
 21
227.9686116983225
 31
0.0
  0
ARC
  5
7BD
330
2
100
AcDbEntity
  8
0
100
AcDbCircle
 10
746.7451121776867
 20
250.4686116983225
 30
0.0
 40
6.0
100
AcDbArc
 50
270.0
 51
90.0
  0
LINE
  5
7BE
330
2
100
AcDbEntity
  8
0
100
AcDbLine
 10
759.7451121776867
 20
272.9686116983225
 30
0.0
 11
757.7451121776866
 21
272.9686116983225
 31
0.0
  0
ARC
  5
7BF
330
2
100
AcDbEntity
  8
0
100
AcDbCircle
 10
766.7451121776866
 20
291.1885366983225
 30
0.0
 40
7.0
100
AcDbArc
 50
105.9458009999998
 51
180.0
  0
LINE
  5
7C0
330
2
100
AcDbEntity
  8
0
100
AcDbLine
 10
764.8220771776867
 20
297.9191736983225
 30
0.0
 11
775.6680861776867
 21
301.0180506983225
 31
0.0
  0
ARC
  5
7C1
330
2
100
AcDbEntity
  8
0
100
AcDbCircle
 10
832.7451121776867
 20
196.9686116983225
 30
0.0
 40
71.0
100
AcDbArc
 50
338.36908
 51
6.068255999999881
  0
LINE
  5
7C3
330
2
100
AcDbEntity
  8
0
100
AcDbLine
 10
898.7451121776867
 20
151.2487326983225
 30
0.0
 11
898.7451121776867
 21
254.6088856983225
 31
0.0
  0
LINE
  5
7C4
330
2
100
AcDbEntity
  8
0
100
AcDbLine
 10
780.7451121776867
 20
323.1299886983225
 30
0.0
 11
780.7451121776867
 21
85.46860969832255
 31
0.0
  0
LINE
  5
7C5
330
2
100
AcDbEntity
  8
CENTER
100
AcDbLine
 10
832.7451121776867
 20
70.46860969832255
 30
0.0
 11
832.7451121776867
 21
342.9686426983225
 31
0.0
  0
LINE
  5
7C6
330
2
100
AcDbEntity
  8
0
100
AcDbLine
 10
920.1364701776867
 20
105.8118506983225
 30
0.0
 11
887.3536941776867
 21
110.1253696983225
 31
0.0
  0
LINE
  5
7C7
330
2
100
AcDbEntity
  8
0
100
AcDbLine
 10
889.7451121776866
 20
105.4686086983225
 30
0.0
 11
919.7451121776866
 21
105.4686086983225
 31
0.0
  0
LINE
  5
7C8
330
2
100
AcDbEntity
  8
0
100
AcDbLine
 10
867.7451121776867
 20
85.46860969832255
 30
0.0
 11
922.7451121776866
 21
85.46860969832255
 31
0.0
  0
LINE
  5
7CA
330
2
100
AcDbEntity
  8
HIDS
100
AcDbLine
 10
895.2451121776867
 20
105.4686086983225
 30
0.0
 11
895.2451121776867
 21
85.46860969832255
 31
0.0
  0
LINE
  5
7CB
330
2
100
AcDbEntity
  8
CENTER
100
AcDbLine
 10
902.7451121776865
 20
112.4686086983225
 30
0.0
 11
902.7451121776868
 21
78.46860969832255
 31
0.0
  0
LINE
  5
7CC
330
2
100
AcDbEntity
  8
0
100
AcDbLine
 10
799.2451121776866
 20
86.96861069832255
 30
0.0
 11
866.2451121776866
 21
86.96861069832255
 31
0.0
  0
LINE
  5
7CD
330
2
100
AcDbEntity
  8
0
100
AcDbLine
 10
797.7451121776867
 20
85.46860969832255
 30
0.0
 11
799.2451121776866
 21
86.96861069832255
 31
0.0
  0
LINE
  5
7CE
330
2
100
AcDbEntity
  8
0
100
AcDbLine
 10
867.7451121776867
 20
85.46860969832255
 30
0.0
 11
866.2451121776866
 21
86.96861069832255
 31
0.0
  0
LINE
  5
7CF
330
2
100
AcDbEntity
  8
0
100
AcDbLine
 10
779.7451121776867
 20
133.9686116983225
 30
0.0
 11
779.7451121776867
 21
140.1576076983225
 31
0.0
  0
ARC
  5
7D0
330
2
100
AcDbEntity
  8
0
100
AcDbCircle
 10
784.7451121776867
 20
133.9686116983225
 30
0.0
 40
5.0
100
AcDbArc
 50
180.0
 51
216.865204
  0
LINE
  5
7D1
330
2
100
AcDbEntity
  8
0
100
AcDbLine
 10
885.7451121776866
 20
140.2940896983225
 30
0.0
 11
885.7451121776866
 21
133.9686116983225
 31
0.0
  0
ARC
  5
7D2
330
2
100
AcDbEntity
  8
0
100
AcDbCircle
 10
891.7451121776867
 20
136.6885526983225
 30
0.0
 40
7.0
100
AcDbArc
 50
105.9458009999998
 51
180.0
  0
ARC
  5
7D3
330
2
100
AcDbEntity
  8
0
100
AcDbCircle
 10
887.7451121776866
 20
113.0997496983225
 30
0.0
 40
3.0
100
AcDbArc
 50
180.0
 51
262.5043950000001
  0
ARC
  5
7D4
330
2
100
AcDbEntity
  8
0
100
AcDbCircle
 10
889.7451121776866
 20
110.4686316983225
 30
0.0
 40
5.0
100
AcDbArc
 50
180.0
 51
270.0
  0
ARC
  5
7D5
330
2
100
AcDbEntity
  8
0
100
AcDbCircle
 10
880.7451121776866
 20
133.9686116983225
 30
0.0
 40
5.0
100
AcDbArc
 50
323.1301310000003
 51
0.0
  0
ARC
  5
7D6
330
2
100
AcDbEntity
  8
0
100
AcDbCircle
 10
891.7451121776867
 20
151.2487096983225
 30
0.0
 40
7.0
100
AcDbArc
 50
285.9455029999998
 51
0.0
  0
LINE
  5
7D7
330
2
100
AcDbEntity
  8
0
100
AcDbLine
 10
893.6680861776867
 20
144.5180506983225
 30
0.0
 11
889.8220771776868
 21
143.4191656983225
 31
0.0
  0
LINE
  5
7D8
330
2
100
AcDbEntity
  8
0
100
AcDbLine
 10
922.7451121776866
 20
102.8374896983225
 30
0.0
 11
922.7451121776866
 21
85.46860969832255
 31
0.0
  0
LINE
  5
7D9
330
2
100
AcDbEntity
  8
HIDS
100
AcDbLine
 10
910.2451121776866
 20
105.4686086983225
 30
0.0
 11
910.2451121776866
 21
85.46860969832255
 31
0.0
  0
ARC
  5
7DA
330
2
100
AcDbEntity
  8
0
100
AcDbCircle
 10
919.7451121776866
 20
102.8374706983225
 30
0.0
 40
3.0
100
AcDbArc
 50
0.0
 51
82.50420400000049
  0
ARC
  5
7DB
330
2
100
AcDbEntity
  8
0
100
AcDbCircle
 10
919.7451121776866
 20
102.4686086983225
 30
0.0
 40
3.0
100
AcDbArc
 50
0.0
 51
90.0
  0
ARC
  5
7DC
330
2
100
AcDbEntity
  8
0
100
AcDbCircle
 10
898.7451121776867
 20
209.7487026983225
 30
0.0
 40
7.0
100
AcDbArc
 50
300.0001179999995
 51
0.0
  0
ARC
  5
7DD
330
2
100
AcDbEntity
  8
0
100
AcDbCircle
 10
898.7451121776867
 20
291.1884756983226
 30
0.0
 40
7.0
100
AcDbArc
 50
0.0
 51
74.05476400000004
  0
ARC
  5
7DE
330
2
100
AcDbEntity
  8
0
100
AcDbCircle
 10
905.7451121776866
 20
197.6243506983225
 30
0.0
 40
7.0
100
AcDbArc
 50
120.000099
 51
180.0
  0
LINE
  5
7DF
330
2
100
AcDbEntity
  8
0
100
AcDbLine
 10
880.8148751776867
 20
327.1297446983225
 30
0.0
 11
832.7451121776867
 21
327.9686426983225
 31
0.0
  0
LINE
  5
7E0
330
2
100
AcDbEntity
  8
0
100
AcDbLine
 10
785.1896921776866
 20
288.9686116983225
 30
0.0
 11
880.9768631776867
 21
288.9686116983225
 31
0.0
  0
LINE
  5
7E1
330
2
100
AcDbEntity
  8
0
100
AcDbLine
 10
784.6752881776866
 20
327.1293786983225
 30
0.0
 11
832.7451121776867
 21
327.9686426983225
 31
0.0
  0
ARC
  5
7E2
330
2
100
AcDbEntity
  8
0
100
AcDbCircle
 10
784.7451121776867
 20
323.1300046983225
 30
0.0
 40
4.0
100
AcDbArc
 50
91.00058000000009
 51
180.0
  0
ARC
  5
7E3
330
2
100
AcDbEntity
  8
0
100
AcDbCircle
 10
891.7451121776867
 20
307.7487636983225
 30
0.0
 40
7.0
100
AcDbArc
 50
180.0
 51
254.0549009999996
  0
LINE
  5
7E4
330
2
100
AcDbEntity
  8
0
100
AcDbLine
 10
889.8220771776868
 20
301.0180506983225
 30
0.0
 11
900.6680861776867
 21
297.9191736983225
 31
0.0
  0
LINE
  5
7E5
330
2
100
AcDbEntity
  8
0
100
AcDbLine
 10
884.7451121776867
 20
85.46860969832255
 30
0.0
 11
884.7451121776867
 21
323.1303706983225
 31
0.0
  0
ARC
  5
7E6
330
2
100
AcDbEntity
  8
0
100
AcDbCircle
 10
880.7451121776866
 20
323.1303556983225
 30
0.0
 40
4.0
100
AcDbArc
 50
0.0
 51
89.00035899999958
  0
LINE
  5
7E7
330
2
100
AcDbEntity
  8
0
100
AcDbLine
 10
905.7451121776866
 20
209.7487176983225
 30
0.0
 11
905.7451121776866
 21
291.1884916983225
 31
0.0
  0
LINE
  5
7E9
330
2
100
AcDbEntity
  8
0
100
AcDbLine
 10
521.7580008182758
 20
603.8942037950723
 30
0.0
 11
520.8500108182759
 21
551.8941737950724
 31
0.0
  0
ARC
  5
7EA
330
2
100
AcDbEntity
  8
0
100
AcDbCircle
 10
517.9021048182759
 20
554.8946007950724
 30
0.0
 40
3.0
100
AcDbArc
 50
270.0
 51
358.9998470000001
  0
ARC
  5
7EB
330
2
100
AcDbEntity
  8
0
100
AcDbCircle
 10
506.7577868182758
 20
544.8946007950723
 30
0.0
 40
7.0
100
AcDbArc
 50
90.0
 51
180.0
  0
ARC
  5
7EC
330
2
100
AcDbEntity
  8
0
100
AcDbCircle
 10
492.7577868182758
 20
544.8946007950723
 30
0.0
 40
7.0
100
AcDbArc
 50
270.0
 51
0.0
  0
ARC
  5
7ED
330
2
100
AcDbEntity
  8
0
100
AcDbCircle
 10
491.7580008182758
 20
533.8950887950724
 30
0.0
 40
7.5
100
AcDbArc
 50
147.7732090000001
 51
46.07488299999994
  0
LINE
  5
7F0
330
2
100
AcDbEntity
  8
0
100
AcDbLine
 10
479.8529408182758
 20
533.3389977950723
 30
0.0
 11
483.7576958182758
 21
537.8945397950724
 31
0.0
  0
ARC
  5
7F1
330
2
100
AcDbEntity
  8
0
100
AcDbCircle
 10
474.5381518182758
 20
537.8945397950724
 30
0.0
 40
7.0
100
AcDbArc
 50
270.0
 51
319.3987049999997
  0
LINE
  5
7F2
330
2
100
AcDbEntity
  8
0
100
AcDbLine
 10
492.7577868182758
 20
537.8946007950723
 30
0.0
 11
483.7576958182758
 21
537.8945397950724
 31
0.0
  0
LINE
  5
7F3
330
2
100
AcDbEntity
  8
0
100
AcDbLine
 10
510.0807848182759
 20
520.6367267950724
 30
0.0
 11
520.8500108182759
 21
551.8941737950724
 31
0.0
  0
ARC
  5
7F4
330
2
100
AcDbEntity
  8
0
100
AcDbCircle
 10
500.6264088182758
 20
523.8942037950724
 30
0.0
 40
10.0
100
AcDbArc
 50
270.0
 51
340.9891
  0
LINE
  5
7F5
330
2
100
AcDbEntity
  8
0
100
AcDbLine
 10
521.7580008182758
 20
603.8942037950723
 30
0.0
 11
520.8501948182759
 21
655.8941737950724
 31
0.0
  0
ARC
  5
7F6
330
2
100
AcDbEntity
  8
0
100
AcDbCircle
 10
506.7577868182758
 20
662.8946007950723
 30
0.0
 40
7.0
100
AcDbArc
 50
180.0
 51
270.0
  0
ARC
  5
7F7
330
2
100
AcDbEntity
  8
0
100
AcDbCircle
 10
492.7577868182758
 20
662.8946007950723
 30
0.0
 40
7.0
100
AcDbArc
 50
0.0
 51
90.0
  0
ARC
  5
7F8
330
2
100
AcDbEntity
  8
0
100
AcDbCircle
 10
491.7580008182758
 20
673.8949667950723
 30
0.0
 40
7.5
100
AcDbArc
 50
313.925117
 51
212.2267909999998
  0
LINE
  5
7F9
330
2
100
AcDbEntity
  8
CENTER
100
AcDbLine
 10
506.6114858182759
 20
673.8949667950723
 30
0.0
 11
476.9043882333496
 21
673.8949667950723
 31
0.0
  0
ARC
  5
7FA
330
2
100
AcDbEntity
  8
0
100
AcDbCircle
 10
474.5381518182758
 20
669.8946007950723
 30
0.0
 40
7.0
100
AcDbArc
 50
40.60129500000027
 51
90.0
  0
LINE
  5
7FB
330
2
100
AcDbEntity
  8
CENTER
100
AcDbLine
 10
491.7576334402389
 20
659.0414180057116
 30
0.0
 11
491.7582406113866
 21
688.7485155844331
 31
0.0
  0
LINE
  5
7FC
330
2
100
AcDbEntity
  8
0
100
AcDbLine
 10
479.8529408182758
 20
674.4501427950724
 30
0.0
 11
483.7576958182758
 21
669.8946007950723
 31
0.0
  0
LINE
  5
7FD
330
2
100
AcDbEntity
  8
0
100
AcDbLine
 10
492.7577868182758
 20
669.8946007950723
 30
0.0
 11
483.7576958182758
 21
669.8946007950723
 31
0.0
  0
LINE
  5
7FE
330
2
100
AcDbEntity
  8
0
100
AcDbLine
 10
510.0812128182758
 20
687.1515587950723
 30
0.0
 11
520.8501948182759
 21
655.8941737950724
 31
0.0
  0
ARC
  5
7FF
330
2
100
AcDbEntity
  8
0
100
AcDbCircle
 10
517.9021048182759
 20
652.8946007950723
 30
0.0
 40
3.0
100
AcDbArc
 50
1.000151999999961
 51
90.0
  0
ARC
  5
800
330
2
100
AcDbEntity
  8
0
100
AcDbCircle
 10
500.6268058182759
 20
683.8941737950724
 30
0.0
 40
10.0
100
AcDbArc
 50
19.01089999999999
 51
90.0
  0
LINE
  5
99F
330
2
100
AcDbEntity
  8
CENTER
100
AcDbLine
 10
386.6112718182759
 20
673.8956987950725
 30
0.0
 11
356.9041742333496
 21
673.8956987950725
 31
0.0
  0
LINE
  5
9A0
330
2
100
AcDbEntity
  8
CENTER
100
AcDbLine
 10
371.7574194402389
 20
659.0421500057118
 30
0.0
 11
371.7580266113866
 21
688.7492475844332
 31
0.0
  0
LINE
  5
9A1
330
2
100
AcDbEntity
  8
CENTER
100
AcDbLine
 10
386.6112718182759
 20
533.8943867950725
 30
0.0
 11
356.9041742333496
 21
533.8943867950725
 31
0.0
  0
LINE
  5
9A2
330
2
100
AcDbEntity
  8
CENTER
100
AcDbLine
 10
371.7574194402389
 20
519.0408380057117
 30
0.0
 11
371.7580266113866
 21
548.7479355844332
 31
0.0
  0
LINE
  5
9A3
330
2
100
AcDbEntity
  8
CENTER
100
AcDbLine
 10
506.6114858182759
 20
533.8950887950724
 30
0.0
 11
476.9043882333496
 21
533.8950887950724
 31
0.0
  0
LINE
  5
9A4
330
2
100
AcDbEntity
  8
CENTER
100
AcDbLine
 10
491.7576334402389
 20
519.0415400057116
 30
0.0
 11
491.7582406113866
 21
548.7486375844331
 31
0.0
  0
TEXT
  5
9B2
330
2
100
AcDbEntity
  8
TITLE
100
AcDbText
 10
645.8083637992776
 20
622.9468950268461
 30
0.0
 40
10.0
  1
HLMN-40R-1200~1800-T90T
100
AcDbText
  0
TEXT
  5
9B3
330
2
100
AcDbEntity
  8
TITLE
100
AcDbText
 10
645.8083637992776
 20
590.946895026846
 30
0.0
 40
10.0
  1
HLMN-40R-1200~1800-S90T
100
AcDbText
  0
TEXT
  5
9B4
330
2
100
AcDbEntity
  8
TITLE
100
AcDbText
 10
645.8083637992776
 20
574.946895026846
 30
0.0
 40
10.0
  1
HLMN-40R-1200~1800-S90WT
100
AcDbText
  0
TEXT
  5
9B5
330
2
100
AcDbEntity
  8
TITLE
100
AcDbText
 10
645.8083637992776
 20
606.946895026846
 30
0.0
 40
10.0
  1
HLMN-40R-1200~1800-T90WT
100
AcDbText
  0
LINE
  5
C75
330
2
100
AcDbEntity
  8
CENTER
100
AcDbLine
 10
254.1594517030166
 20
196.9686116983225
 30
0.0
 11
352.1140419115427
 21
196.9686116983225
 31
0.0
  0
LINE
  5
188E
330
2
100
AcDbEntity
  8
0
100
AcDbLine
 10
133.7576418182758
 20
580.3943217950726
 30
0.0
 11
133.7576418182758
 21
548.8943867950724
 31
0.0
  0
LINE
  5
19CE
330
2
100
AcDbEntity
  8
0
100
AcDbLine
 10
183.257576818276
 20
626.8943867950724
 30
0.0
 11
183.2575768182757
 21
580.8943867950724
 31
0.0
  0
LINE
  5
19CF
330
2
100
AcDbEntity
  8
0
100
AcDbLine
 10
181.8577818182757
 20
581.2943807950724
 30
0.0
 11
181.8577818182757
 21
621.3943867950725
 31
0.0
  0
LINE
  5
19D0
330
2
100
AcDbEntity
  8
0
100
AcDbLine
 10
131.2576768182757
 20
597.3943867950724
 30
0.0
 11
131.2576768182757
 21
610.3943867950724
 31
0.0
  0
LINE
  5
19D1
330
2
100
AcDbEntity
  8
0
100
AcDbLine
 10
127.7576768182757
 20
605.8943867950724
 30
0.0
 11
127.7576768182757
 21
601.8943867950724
 31
0.0
  0
LINE
  5
19D2
330
2
100
AcDbEntity
  8
0
100
AcDbLine
 10
133.2576768182757
 20
626.8943867950724
 30
0.0
 11
133.2576768182757
 21
580.8943867950724
 31
0.0
  0
LINE
  5
19D3
330
2
100
AcDbEntity
  8
0
100
AcDbLine
 10
134.6576708182758
 20
626.4943777950725
 30
0.0
 11
134.6576778182757
 21
586.3943867950724
 31
0.0
  0
LINE
  5
19D4
330
2
100
AcDbEntity
  8
CENTER
100
AcDbLine
 10
158.2576838182758
 20
639.2836127391801
 30
0.0
 11
158.2576838182758
 21
568.1443867950725
 31
0.0
  0
LINE
  5
19DD
330
2
100
AcDbEntity
  8
0
100
AcDbLine
 10
138.0955926343012
 20
267.4686096983225
 30
0.0
 11
182.2576838182758
 21
267.4686096983225
 31
0.0
  0
LINE
  5
19DE
330
2
100
AcDbEntity
  8
0
100
AcDbLine
 10
140.7576772468469
 20
266.4686096983225
 30
0.0
 11
183.2576908182759
 21
266.4686096983225
 31
0.0
  0
LINE
  5
19DF
330
2
100
AcDbEntity
  8
CENTER
100
AcDbLine
 10
120.3139278182757
 20
257.9686096983225
 30
0.0
 11
192.2099867820138
 21
257.9686096983225
 31
0.0
  0
LINE
  5
19E0
330
2
100
AcDbEntity
  8
0
100
AcDbLine
 10
133.2576768182757
 20
238.4686116983225
 30
0.0
 11
183.2576838182758
 21
238.4686116983225
 31
0.0
  0
LINE
  5
19E2
330
2
100
AcDbEntity
  8
0
100
AcDbLine
 10
131.2576768182757
 20
248.4686116983225
 30
0.0
 11
183.2576838182758
 21
248.4686116983225
 31
0.0
  0
LINE
  5
19E3
330
2
100
AcDbEntity
  8
0
100
AcDbLine
 10
134.7576768182757
 20
236.4686116983225
 30
0.0
 11
181.2576838182758
 21
236.4686116983225
 31
0.0
  0
LINE
  5
19E4
330
2
100
AcDbEntity
  8
0
100
AcDbLine
 10
140.2576838182758
 20
264.9686096983224
 30
0.0
 11
140.1597476793881
 21
266.0880248881407
 31
0.0
  0
ARC
  5
19E5
330
2
100
AcDbEntity
  8
0
100
AcDbCircle
 10
132.2576918182758
 20
264.4686096983225
 30
0.0
 40
1.0
100
AcDbArc
 50
90.0
 51
180.0
  0
LINE
  5
19E6
330
2
100
AcDbEntity
  8
0
100
AcDbLine
 10
133.2576838182758
 20
264.9686096983224
 30
0.0
 11
133.3556199571637
 21
266.0880248881407
 31
0.0
  0
LINE
  5
19E7
330
2
100
AcDbEntity
  8
0
100
AcDbLine
 10
140.7576772468469
 20
264.9686096983224
 30
0.0
 11
140.7576772468469
 21
266.9686096983225
 31
0.0
  0
LINE
  5
19E8
330
2
100
AcDbEntity
  8
0
100
AcDbLine
 10
133.2576768182757
 20
266.4686096983225
 30
0.0
 11
133.2576768182757
 21
238.4686116983225
 31
0.0
  0
LINE
  5
19E9
330
2
100
AcDbEntity
  8
CENTER
100
AcDbLine
 10
158.2576838182758
 20
226.7749106983225
 30
0.0
 11
158.2576838182758
 21
277.8561096983225
 31
0.0
  0
LINE
  5
19EA
330
2
100
AcDbEntity
  8
0
100
AcDbLine
 10
127.7576918182758
 20
261.9686096983225
 30
0.0
 11
131.2576918182758
 21
263.4686096983225
 31
0.0
  0
LINE
  5
19EB
330
2
100
AcDbEntity
  8
0
100
AcDbLine
 10
127.7576768182757
 20
253.9686096983225
 30
0.0
 11
131.2576768182757
 21
252.4686096983225
 31
0.0
  0
LINE
  5
19EC
330
2
100
AcDbEntity
  8
0
100
AcDbLine
 10
127.7576918182758
 20
261.9686096983225
 30
0.0
 11
127.7576918182758
 21
253.9686096983225
 31
0.0
  0
LINE
  5
19ED
330
2
100
AcDbEntity
  8
0
100
AcDbLine
 10
133.2576768182757
 20
238.4686116983225
 30
0.0
 11
135.2576768182757
 21
236.4686116983225
 31
0.0
  0
LINE
  5
19EE
330
2
100
AcDbEntity
  8
0
100
AcDbLine
 10
134.7576768182757
 20
236.4686116983225
 30
0.0
 11
134.7576768182757
 21
234.9686116983225
 31
0.0
  0
LINE
  5
19EF
330
2
100
AcDbEntity
  8
0
100
AcDbLine
 10
132.2576768182757
 20
265.4686096983225
 30
0.0
 11
133.2576768182757
 21
265.4686096983225
 31
0.0
  0
LINE
  5
19F0
330
2
100
AcDbEntity
  8
0
100
AcDbLine
 10
140.7576772468469
 20
264.9686096983224
 30
0.0
 11
133.2576772468469
 21
264.9686096983224
 31
0.0
  0
LINE
  5
19F1
330
2
100
AcDbEntity
  8
0
100
AcDbLine
 10
131.2576918182758
 20
264.4686096983225
 30
0.0
 11
131.2576768182757
 21
248.4686116983225
 31
0.0
  0
LINE
  5
19F2
330
2
100
AcDbEntity
  8
0
100
AcDbLine
 10
141.2576772468469
 20
267.4686096983224
 30
0.0
 11
140.7576772468469
 21
266.9686096983224
 31
0.0
  0
ARC
  5
19F3
330
2
100
AcDbEntity
  8
0
100
AcDbCircle
 10
136.7576838182758
 20
258.5686096983224
 30
0.0
 40
9.0
100
AcDbArc
 50
74.11914999172198
 51
105.880850008278
  0
LINE
  5
19F4
330
2
100
AcDbEntity
  8
0
100
AcDbLine
 10
134.7279439951118
 20
267.1210512357
 30
0.0
 11
134.7076838182758
 21
267.3320279811616
 31
0.0
  0
LINE
  5
19F5
330
2
100
AcDbEntity
  8
0
100
AcDbLine
 10
134.2576768182757
 20
267.4686096983225
 30
0.0
 11
135.4197750022503
 21
267.4686096983225
 31
0.0
  0
LINE
  5
19F6
330
2
100
AcDbEntity
  8
0
100
AcDbLine
 10
138.78742364144
 20
267.1210512357
 30
0.0
 11
138.807683818276
 21
267.3320279811616
 31
0.0
  0
LINE
  5
19F7
330
2
100
AcDbEntity
  8
0
100
AcDbLine
 10
140.7576772468469
 20
266.9686096983224
 30
0.0
 11
139.7026612078962
 21
266.9686096983224
 31
0.0
  0
LINE
  5
19F8
330
2
100
AcDbEntity
  8
0
100
AcDbLine
 10
137.0451838187309
 20
266.0516096983224
 30
0.0
 11
136.4701838178209
 21
266.0516096983224
 31
0.0
  0
SPLINE
  5
19F9
330
2
100
AcDbEntity
  8
0
100
AcDbSpline
210
0.0
220
0.0
230
1.0
 70
     8
 71
     3
 72
    11
 73
     7
 74
     0
 42
0.0000000001
 43
0.0000000001
 40
0.0
 40
0.0
 40
0.0
 40
0.0
 40
0.4601364636755307
 40
1.04988694485363
 40
1.713742833862792
 40
2.320347933405154
 40
2.320347933405154
 40
2.320347933405154
 40
2.320347933405179
 10
137.0451838187309
 20
266.0516096983224
 30
0.0
 10
137.0676014758387
 20
266.2066331380023
 30
0.0
 10
137.1187515310721
 20
266.5603479559198
 30
0.0
 10
137.5546366926057
 20
266.9850756275215
 30
0.0
 10
138.159687407613
 20
267.2042628074874
 30
0.0
 10
138.584872031789
 20
267.1352715078767
 30
0.0
 10
138.78742364144
 20
267.1210512357
 30
0.0
  0
SPLINE
  5
19FA
330
2
100
AcDbEntity
  8
0
100
AcDbSpline
210
0.0
220
0.0
230
1.0
 70
     8
 71
     3
 72
    11
 73
     7
 74
     0
 42
0.0000000001
 43
0.0000000001
 40
0.0
 40
0.0
 40
0.0
 40
0.0
 40
0.4601364636755307
 40
1.04988694485363
 40
1.713742833862792
 40
2.320347933405154
 40
2.320347933405154
 40
2.320347933405154
 40
2.320347933405179
 10
136.4701838178209
 20
266.0516096983224
 30
0.0
 10
136.4477661607129
 20
266.2066331380023
 30
0.0
 10
136.3966161054797
 20
266.5603479559198
 30
0.0
 10
135.9607309439461
 20
266.9850756275215
 30
0.0
 10
135.3556802289388
 20
267.2042628074874
 30
0.0
 10
134.9304956047628
 20
267.1352715078767
 30
0.0
 10
134.7279439951118
 20
267.1210512357
 30
0.0
  0
ARC
  5
19FB
330
2
100
AcDbEntity
  8
0
100
AcDbCircle
 10
134.6506730646829
 20
265.9747224225688
 30
0.0
 40
1.3
100
AcDbArc
 50
105.880850008278
 51
174.9999999999999
  0
LINE
  5
19FC
330
2
100
AcDbEntity
  8
0
100
AcDbLine
 10
134.2576772468469
 20
267.4686096983224
 30
0.0
 11
133.2576768182757
 21
266.4686096983225
 31
0.0
  0
LINE
  5
19FD
330
2
100
AcDbEntity
  8
0
100
AcDbLine
 10
133.2576768182757
 20
266.4686096983225
 30
0.0
 11
134.2576768182757
 21
267.4686096983225
 31
0.0
  0
ARC
  5
19FE
330
2
100
AcDbEntity
  8
0
100
AcDbCircle
 10
138.8646945718687
 20
265.9747224225688
 30
0.0
 40
1.3
100
AcDbArc
 50
5.000000000000026
 51
74.11914999172198
  0
LINE
  5
1A00
330
2
100
AcDbEntity
  8
0
100
AcDbLine
 10
183.2576838182758
 20
266.4686096983225
 30
0.0
 11
183.2576838182758
 21
238.4686116983225
 31
0.0
  0
LINE
  5
1A02
330
2
100
AcDbEntity
  8
0
100
AcDbLine
 10
181.2576838182758
 20
236.4686116983225
 30
0.0
 11
183.2576838182758
 21
238.4686116983225
 31
0.0
  0
LINE
  5
1A03
330
2
100
AcDbEntity
  8
0
100
AcDbLine
 10
180.7576838182758
 20
236.4686116983225
 30
0.0
 11
180.7576838182758
 21
234.9686116983225
 31
0.0
  0
LINE
  5
1A06
330
2
100
AcDbEntity
  8
0
100
AcDbLine
 10
182.2576908182759
 20
267.4686096983225
 30
0.0
 11
183.2576908182759
 21
266.4686096983225
 31
0.0
  0
LINE
  5
1A08
330
2
100
AcDbEntity
  8
0
100
AcDbLine
 10
135.2576768182757
 20
578.8943867950725
 30
0.0
 11
181.2575768182757
 21
578.8943867950725
 31
0.0
  0
LINE
  5
1A09
330
2
100
AcDbEntity
  8
0
100
AcDbLine
 10
180.8577818182757
 20
580.2943807950724
 30
0.0
 11
140.7576768182757
 21
580.2943807950724
 31
0.0
  0
LINE
  5
1A0A
330
2
100
AcDbEntity
  8
0
100
AcDbLine
 10
131.2576768182757
 20
598.3943867950724
 30
0.0
 11
127.7576768182757
 21
601.8943867950724
 31
0.0
  0
ARC
  5
1A0B
330
2
100
AcDbEntity
  8
0
100
AcDbCircle
 10
138.7874068182759
 20
584.4240867950723
 30
0.0
 40
1.742199999999999
100
AcDbArc
 50
179.9986903345002
 51
270.0013096654932
  0
ARC
  5
1A0C
330
2
100
AcDbEntity
  8
0
100
AcDbCircle
 10
134.7280068182758
 20
584.4240867950723
 30
0.0
 40
1.742199999999999
100
AcDbArc
 50
269.9986903345002
 51
0.0013096654997424
  0
ARC
  5
1A0D
330
2
100
AcDbEntity
  8
0
100
AcDbCircle
 10
136.7577068182759
 20
582.3943867950724
 30
0.0
 40
4.0
100
AcDbArc
 50
0.0
 51
90.0
  0
CIRCLE
  5
1A0E
330
2
100
AcDbEntity
  8
0
100
AcDbCircle
 10
136.7577068182759
 20
582.3943867950724
 30
0.0
 40
3.500000000000028
  0
LINE
  5
1A0F
330
2
100
AcDbEntity
  8
0
100
AcDbLine
 10
140.7576768182757
 20
582.3943867950724
 30
0.0
 11
140.7576768182757
 21
578.8945857950725
 31
0.0
  0
ARC
  5
1A10
330
2
100
AcDbEntity
  8
0
100
AcDbCircle
 10
138.7874068182759
 20
580.3646867950724
 30
0.0
 40
1.742199999999999
100
AcDbArc
 50
89.99869033450025
 51
180.0013096654997
  0
ARC
  5
1A11
330
2
100
AcDbEntity
  8
0
100
AcDbCircle
 10
136.7577068182759
 20
582.3943867950724
 30
0.0
 40
2.049999999999998
100
AcDbArc
 50
270.0
 51
278.061960083982
  0
ARC
  5
1A12
330
2
100
AcDbEntity
  8
0
100
AcDbCircle
 10
136.7577068182759
 20
582.3943867950724
 30
0.0
 40
2.049999999999998
100
AcDbArc
 50
180.0
 51
188.0619600839816
  0
ARC
  5
1A13
330
2
100
AcDbEntity
  8
0
100
AcDbCircle
 10
136.7577068182759
 20
582.3943867950724
 30
0.0
 40
2.049999999999998
100
AcDbArc
 50
171.9380399160183
 51
180.0
  0
ARC
  5
1A14
330
2
100
AcDbEntity
  8
0
100
AcDbCircle
 10
136.7577068182759
 20
582.3943867950724
 30
0.0
 40
2.049999999999998
100
AcDbArc
 50
261.9380399160178
 51
270.0
  0
ARC
  5
1A15
330
2
100
AcDbEntity
  8
0
100
AcDbCircle
 10
134.7280068182758
 20
580.3646867950724
 30
0.0
 40
1.742199999999999
100
AcDbArc
 50
359.9986903345002
 51
90.00130966549322
  0
ARC
  5
1A16
330
2
100
AcDbEntity
  8
0
100
AcDbCircle
 10
136.7577068182759
 20
582.3943867950724
 30
0.0
 40
2.049999999999998
100
AcDbArc
 50
351.9380399160183
 51
0.0
  0
ARC
  5
1A17
330
2
100
AcDbEntity
  8
0
100
AcDbCircle
 10
136.7577068182759
 20
582.3943867950724
 30
0.0
 40
2.049999999999998
100
AcDbArc
 50
0.0
 51
8.061960083981649
  0
LINE
  5
1A18
330
2
100
AcDbEntity
  8
0
100
AcDbLine
 10
133.2576768182757
 20
580.8943867950724
 30
0.0
 11
135.2576768182757
 21
578.8943867950725
 31
0.0
  0
LINE
  5
1A19
330
2
100
AcDbEntity
  8
0
100
AcDbLine
 10
133.2576768182757
 20
580.8943867950724
 30
0.0
 11
135.2576768182757
 21
578.8943867950725
 31
0.0
  0
ARC
  5
1A1A
330
2
100
AcDbEntity
  8
0
100
AcDbCircle
 10
132.2576768182757
 20
597.3943867950724
 30
0.0
 40
1.0
100
AcDbArc
 50
180.0
 51
270.0
  0
LINE
  5
1A1B
330
2
100
AcDbEntity
  8
0
100
AcDbLine
 10
132.2576768182757
 20
596.3943867950725
 30
0.0
 11
133.2576768182757
 21
596.3943867950725
 31
0.0
  0
ARC
  5
1A1C
330
2
100
AcDbEntity
  8
0
100
AcDbCircle
 10
136.7577068182759
 20
582.3943867950724
 30
0.0
 40
2.049999999999998
100
AcDbArc
 50
81.93803991601789
 51
90.0
  0
LINE
  5
1A1D
330
2
100
AcDbEntity
  8
0
100
AcDbLine
 10
136.7577068182759
 20
586.3943867950724
 30
0.0
 11
133.2577068182758
 21
586.3943867950724
 31
0.0
  0
ARC
  5
1A1E
330
2
100
AcDbEntity
  8
0
100
AcDbCircle
 10
136.7577068182759
 20
582.3943867950724
 30
0.0
 40
2.049999999999998
100
AcDbArc
 50
90.0
 51
98.06196008398211
  0
LINE
  5
1A1F
330
2
100
AcDbEntity
  8
0
100
AcDbLine
 10
180.8577818182757
 20
580.2943807950724
 30
0.0
 11
181.8577818182757
 21
581.2943807950724
 31
0.0
  0
LINE
  5
1A20
330
2
100
AcDbEntity
  8
0
100
AcDbLine
 10
183.2577758182758
 20
580.8943867950724
 30
0.0
 11
181.2575768182757
 21
578.8943867950725
 31
0.0
  0
LINE
  5
1A21
330
2
100
AcDbEntity
  8
0
100
AcDbLine
 10
183.2575768182757
 20
580.8943867950724
 30
0.0
 11
181.2575768182757
 21
578.8943867950725
 31
0.0
  0
LINE
  5
1A22
330
2
100
AcDbEntity
  8
0
100
AcDbLine
 10
183.2575768182757
 20
580.8943867950724
 30
0.0
 11
181.2575768182757
 21
578.8943867950725
 31
0.0
  0
LINE
  5
1A4F
330
2
100
AcDbEntity
  8
0
100
AcDbLine
 10
135.6576778182757
 20
627.4943777950725
 30
0.0
 11
175.757576818276
 21
627.4943777950724
 31
0.0
  0
LINE
  5
1A50
330
2
100
AcDbEntity
  8
0
100
AcDbLine
 10
135.2576768182757
 20
628.8943867950725
 30
0.0
 11
181.2575768182759
 21
628.8943867950725
 31
0.0
  0
LINE
  5
1A52
330
2
100
AcDbEntity
  8
0
100
AcDbLine
 10
127.7576768182757
 20
605.8943867950724
 30
0.0
 11
131.2576768182757
 21
609.3943867950724
 31
0.0
  0
LINE
  5
1A53
330
2
100
AcDbEntity
  8
0
100
AcDbLine
 10
132.2576768182757
 20
611.3943867950724
 30
0.0
 11
133.2576768182757
 21
611.3943867950724
 31
0.0
  0
ARC
  5
1A54
330
2
100
AcDbEntity
  8
0
100
AcDbCircle
 10
132.2576918182758
 20
610.3943867950724
 30
0.0
 40
1.0
100
AcDbArc
 50
90.0
 51
180.0
  0
LINE
  5
1A55
330
2
100
AcDbEntity
  8
0
100
AcDbLine
 10
133.2576768182757
 20
626.8943867950724
 30
0.0
 11
135.2576768182757
 21
628.8943867950725
 31
0.0
  0
LINE
  5
1A56
330
2
100
AcDbEntity
  8
0
100
AcDbLine
 10
134.6576708182758
 20
626.4943777950725
 30
0.0
 11
135.6576778182757
 21
627.4943777950725
 31
0.0
  0
CIRCLE
  5
1A57
330
2
100
AcDbEntity
  8
0
100
AcDbCircle
 10
179.7577758182758
 20
625.3943867950725
 30
0.0
 40
3.500000000000028
  0
ARC
  5
1A58
330
2
100
AcDbEntity
  8
0
100
AcDbCircle
 10
179.7577758182758
 20
625.3943867950725
 30
0.0
 40
4.0
100
AcDbArc
 50
180.0
 51
270.0
  0
LINE
  5
1A59
330
2
100
AcDbEntity
  8
0
100
AcDbLine
 10
179.757576818276
 20
621.3943867950725
 30
0.0
 11
183.257576818276
 21
621.3943867950725
 31
0.0
  0
LINE
  5
1A5A
330
2
100
AcDbEntity
  8
0
100
AcDbLine
 10
181.2575768182759
 20
628.8943867950725
 30
0.0
 11
183.257576818276
 21
626.8943867950724
 31
0.0
  0
LINE
  5
1A5B
330
2
100
AcDbEntity
  8
0
100
AcDbLine
 10
183.257576818276
 20
626.8943867950724
 30
0.0
 11
181.2575768182759
 21
628.8943867950725
 31
0.0
  0
LINE
  5
1A5C
330
2
100
AcDbEntity
  8
0
100
AcDbLine
 10
175.757576818276
 20
625.3943867950725
 30
0.0
 11
175.757576818276
 21
628.8943867950725
 31
0.0
  0
ARC
  5
1A5D
330
2
100
AcDbEntity
  8
0
100
AcDbCircle
 10
179.7577758182758
 20
625.3943867950725
 30
0.0
 40
2.049999999999998
100
AcDbArc
 50
171.9380399160183
 51
180.0
  0
ARC
  5
1A5E
330
2
100
AcDbEntity
  8
0
100
AcDbCircle
 10
181.787475818276
 20
627.4240867950724
 30
0.0
 40
1.742199999999999
100
AcDbArc
 50
179.9986903345002
 51
270.0013096654932
  0
ARC
  5
1A5F
330
2
100
AcDbEntity
  8
0
100
AcDbCircle
 10
179.7577758182758
 20
625.3943867950725
 30
0.0
 40
2.049999999999998
100
AcDbArc
 50
351.9380399160183
 51
0.0
  0
ARC
  5
1A60
330
2
100
AcDbEntity
  8
0
100
AcDbCircle
 10
179.7577758182758
 20
625.3943867950725
 30
0.0
 40
2.049999999999998
100
AcDbArc
 50
0.0
 51
8.061960083981649
  0
ARC
  5
1A61
330
2
100
AcDbEntity
  8
0
100
AcDbCircle
 10
179.7577758182758
 20
625.3943867950725
 30
0.0
 40
2.049999999999998
100
AcDbArc
 50
81.93803991601789
 51
90.0
  0
ARC
  5
1A62
330
2
100
AcDbEntity
  8
0
100
AcDbCircle
 10
179.7577758182758
 20
625.3943867950725
 30
0.0
 40
2.049999999999998
100
AcDbArc
 50
90.0
 51
98.06196008398211
  0
ARC
  5
1A63
330
2
100
AcDbEntity
  8
0
100
AcDbCircle
 10
177.728075818276
 20
627.4240867950724
 30
0.0
 40
1.742199999999999
100
AcDbArc
 50
269.9986903345002
 51
0.0013096654997424
  0
ARC
  5
1A64
330
2
100
AcDbEntity
  8
0
100
AcDbCircle
 10
179.7577758182758
 20
625.3943867950725
 30
0.0
 40
2.049999999999998
100
AcDbArc
 50
180.0
 51
188.0619600839816
  0
ARC
  5
1A65
330
2
100
AcDbEntity
  8
0
100
AcDbCircle
 10
179.7577758182758
 20
625.3943867950725
 30
0.0
 40
2.049999999999998
100
AcDbArc
 50
270.0
 51
278.061960083982
  0
ARC
  5
1A66
330
2
100
AcDbEntity
  8
0
100
AcDbCircle
 10
179.7577758182758
 20
625.3943867950725
 30
0.0
 40
2.049999999999998
100
AcDbArc
 50
261.9380399160178
 51
270.0
  0
ARC
  5
1A67
330
2
100
AcDbEntity
  8
0
100
AcDbCircle
 10
177.728075818276
 20
623.3646867950724
 30
0.0
 40
1.742199999999999
100
AcDbArc
 50
359.9986903345002
 51
90.00130966549322
  0
ARC
  5
1A68
330
2
100
AcDbEntity
  8
0
100
AcDbCircle
 10
181.787475818276
 20
623.3646867950724
 30
0.0
 40
1.742199999999999
100
AcDbArc
 50
89.99869033450025
 51
180.0013096654997
  0
ENDSEC
  0
SECTION
  2
OBJECTS
  0
DICTIONARY
  5
7
330
0
100
AcDbDictionary
  3
ACAD_GROUP
350
75
  3
ACAD_LAYOUT
350
61
  3
ACAD_MLINESTYLE
350
76
  3
ACAD_PLOTSETTINGS
350
77
  3
ACAD_PLOTSTYLENAME
350
6
  3
ACADDIM
350
480
  3
ACDBHEADERROUNDTRIPXREC
350
1B39
  3
ACDBVARIABLEDICTIONARY
350
102
  3
DWGPROPS
350
3D2
  0
DICTIONARY
  5
1B5A
330
2
100
AcDbDictionary
280
     1
  3
ACAD_LAYOUTSELFREF
360
1B5B
  0
DICTIONARY
  5
1B5C
330
1B33
100
AcDbDictionary
280
     1
  3
ACAD_LAYOUTSELFREF
360
1B5D
  0
DICTIONARY
  5
75
102
{ACAD_REACTORS
330
7
102
}
330
7
100
AcDbDictionary
  0
DICTIONARY
  5
61
102
{ACAD_REACTORS
330
7
102
}
330
7
100
AcDbDictionary
  0
DICTIONARY
  5
76
102
{ACAD_REACTORS
330
7
102
}
330
7
100
AcDbDictionary
  3
STANDARD
350
78
  0
DICTIONARY
  5
77
102
{ACAD_REACTORS
330
7
102
}
330
7
100
AcDbDictionary
  0
ACDBDICTIONARYWDFLT
  5
6
102
{ACAD_REACTORS
330
7
102
}
330
7
100
AcDbDictionary
281
     1
  3
Normal
350
5
100
AcDbDictionaryWithDefault
340
5
  0
XRECORD
  5
480
102
{ACAD_REACTORS
330
7
102
}
330
7
100
AcDbXrecord
 90
   990106
  3

 60
     0
 61
     0
 62
     1
 63
     3
 64
     1
 65
     0
 66
     0
 67
     3
 68
     1
 69
     0
 70
     0
 71
     0
 72
     0
 40
0.0
170
     2
340
0
  0
DICTIONARY
  5
1B39
102
{ACAD_REACTORS
330
7
102
}
330
7
100
AcDbDictionary
  3
CEPSNTYPE
350
1B43
  3
DIMSTYLEDATA
350
1B47
  3
FINGERPRINTGUID
350
1B44
  3
HYPERLINKBASE
350
1B3C
  3
INSUNITS
350
1B42
  3
LAYOUTDICT
350
1B3E
  3
LWETCUNION
350
1B41
  3
PLOTSETDICT
350
1B3F
  3
PLOTSTYLNAMDICT
350
1B40
  3
PSVPSCALE
350
1B46
  3
PUCSBASE
350
1B4A
  3
PUCSORGBACK
350
1B50
  3
PUCSORGBOTTOM
350
1B4C
  3
PUCSORGFRONT
350
1B4F
  3
PUCSORGLEFT
350
1B4D
  3
PUCSORGRIGHT
350
1B4E
  3
PUCSORGTOP
350
1B4B
  3
PUCSORTHOREF
350
1B48
  3
PUCSORTHOVIEW
350
1B49
  3
STYLESHEET
350
1B3D
  3
TSTACKALIGN
350
1B3A
  3
TSTACKSIZE
350
1B3B
  3
UCSBASE
350
1B53
  3
UCSORGBACK
350
1B59
  3
UCSORGBOTTOM
350
1B55
  3
UCSORGFRONT
350
1B58
  3
UCSORGLEFT
350
1B56
  3
UCSORGRIGHT
350
1B57
  3
UCSORGTOP
350
1B54
  3
UCSORTHOREF
350
1B51
  3
UCSORTHOVIEW
350
1B52
  3
VERSIONGUID
350
1B45
  0
DICTIONARY
  5
102
102
{ACAD_REACTORS
330
7
102
}
330
7
100
AcDbDictionary
  3
DIMASSOC
350
103
  0
XRECORD
  5
3D2
102
{ACAD_REACTORS
330
7
102
}
330
7
100
AcDbXrecord
  1
DWGPROPS COOKIE
  2

  3

  4

  6

  7

  8

  9

300
=
301
=
302
=
303
=
304
=
305
=
306
=
307
=
308
=
309
=
 40
0.5353330671296296
 41
2452052.431989363
 42
2453406.550756377
  1

 90
        0
  0
XRECORD
  5
1B5B
102
{ACAD_REACTORS
330
1B5A
102
}
330
1B5A
100
AcDbXrecord
340
2
  0
XRECORD
  5
1B5D
102
{ACAD_REACTORS
330
1B5C
102
}
330
1B5C
100
AcDbXrecord
340
1B33
  0
MLINESTYLE
  5
78
102
{ACAD_REACTORS
330
76
102
}
330
76
100
AcDbMlineStyle
  2
STANDARD
 70
     0
  3

 62
     0
 51
90.0
 52
90.0
 71
     2
 49
0.5
 62
   256
  6
BYLAYER
 49
-0.5
 62
   256
  6
BYLAYER
  0
ACDBPLACEHOLDER
  5
5
102
{ACAD_REACTORS
330
6
102
}
330
6
100
AcDbPlaceHolder
280
     0
  0
XRECORD
  5
1B43
102
{ACAD_REACTORS
330
1B39
102
}
330
1B39
100
AcDbXrecord
 90
        0
  0
XRECORD
  5
1B47
102
{ACAD_REACTORS
330
1B39
102
}
330
1B39
100
AcDbXrecord
1000
DSTYLE
1002
{
1070
   179
 70
     2
1070
   277
 70
     6
1002
}
  0
XRECORD
  5
1B44
102
{ACAD_REACTORS
330
1B39
102
}
330
1B39
100
AcDbXrecord
  1
{6385560B-F4B1-4644-A7C2-A3E32AC3D232}
  0
XRECORD
  5
1B3C
102
{ACAD_REACTORS
330
1B39
102
}
330
1B39
100
AcDbXrecord
  1

  0
XRECORD
  5
1B42
102
{ACAD_REACTORS
330
1B39
102
}
330
1B39
100
AcDbXrecord
 90
        0
  0
XRECORD
  5
1B3E
102
{ACAD_REACTORS
330
1B39
102
}
330
1B39
100
AcDbXrecord
340
61
  0
XRECORD
  5
1B41
102
{ACAD_REACTORS
330
1B39
102
}
330
1B39
100
AcDbXrecord
 90
    10781
  0
XRECORD
  5
1B3F
102
{ACAD_REACTORS
330
1B39
102
}
330
1B39
100
AcDbXrecord
340
77
  0
XRECORD
  5
1B40
102
{ACAD_REACTORS
330
1B39
102
}
330
1B39
100
AcDbXrecord
340
6
  0
XRECORD
  5
1B46
102
{ACAD_REACTORS
330
1B39
102
}
330
1B39
100
AcDbXrecord
 40
0.0
  0
XRECORD
  5
1B4A
102
{ACAD_REACTORS
330
1B39
102
}
330
1B39
100
AcDbXrecord
340
0
  0
XRECORD
  5
1B50
102
{ACAD_REACTORS
330
1B39
102
}
330
1B39
100
AcDbXrecord
 10
0.0
 20
0.0
 30
0.0
  0
XRECORD
  5
1B4C
102
{ACAD_REACTORS
330
1B39
102
}
330
1B39
100
AcDbXrecord
 10
0.0
 20
0.0
 30
0.0
  0
XRECORD
  5
1B4F
102
{ACAD_REACTORS
330
1B39
102
}
330
1B39
100
AcDbXrecord
 10
0.0
 20
0.0
 30
0.0
  0
XRECORD
  5
1B4D
102
{ACAD_REACTORS
330
1B39
102
}
330
1B39
100
AcDbXrecord
 10
0.0
 20
0.0
 30
0.0
  0
XRECORD
  5
1B4E
102
{ACAD_REACTORS
330
1B39
102
}
330
1B39
100
AcDbXrecord
 10
0.0
 20
0.0
 30
0.0
  0
XRECORD
  5
1B4B
102
{ACAD_REACTORS
330
1B39
102
}
330
1B39
100
AcDbXrecord
 10
0.0
 20
0.0
 30
0.0
  0
XRECORD
  5
1B48
102
{ACAD_REACTORS
330
1B39
102
}
330
1B39
100
AcDbXrecord
340
0
  0
XRECORD
  5
1B49
102
{ACAD_REACTORS
330
1B39
102
}
330
1B39
100
AcDbXrecord
 70
     0
  0
XRECORD
  5
1B3D
102
{ACAD_REACTORS
330
1B39
102
}
330
1B39
100
AcDbXrecord
  1
Sekkei.ctb
  0
XRECORD
  5
1B3A
102
{ACAD_REACTORS
330
1B39
102
}
330
1B39
100
AcDbXrecord
 90
        1
  0
XRECORD
  5
1B3B
102
{ACAD_REACTORS
330
1B39
102
}
330
1B39
100
AcDbXrecord
 90
       70
  0
XRECORD
  5
1B53
102
{ACAD_REACTORS
330
1B39
102
}
330
1B39
100
AcDbXrecord
340
0
  0
XRECORD
  5
1B59
102
{ACAD_REACTORS
330
1B39
102
}
330
1B39
100
AcDbXrecord
 10
0.0
 20
0.0
 30
0.0
  0
XRECORD
  5
1B55
102
{ACAD_REACTORS
330
1B39
102
}
330
1B39
100
AcDbXrecord
 10
0.0
 20
0.0
 30
0.0
  0
XRECORD
  5
1B58
102
{ACAD_REACTORS
330
1B39
102
}
330
1B39
100
AcDbXrecord
 10
0.0
 20
0.0
 30
0.0
  0
XRECORD
  5
1B56
102
{ACAD_REACTORS
330
1B39
102
}
330
1B39
100
AcDbXrecord
 10
0.0
 20
0.0
 30
0.0
  0
XRECORD
  5
1B57
102
{ACAD_REACTORS
330
1B39
102
}
330
1B39
100
AcDbXrecord
 10
0.0
 20
0.0
 30
0.0
  0
XRECORD
  5
1B54
102
{ACAD_REACTORS
330
1B39
102
}
330
1B39
100
AcDbXrecord
 10
0.0
 20
0.0
 30
0.0
  0
XRECORD
  5
1B51
102
{ACAD_REACTORS
330
1B39
102
}
330
1B39
100
AcDbXrecord
340
0
  0
XRECORD
  5
1B52
102
{ACAD_REACTORS
330
1B39
102
}
330
1B39
100
AcDbXrecord
 70
     0
  0
XRECORD
  5
1B45
102
{ACAD_REACTORS
330
1B39
102
}
330
1B39
100
AcDbXrecord
  1
{142F46FE-4A6D-44F7-8C4A-9499BBDC91F0}
  0
DICTIONARYVAR
  5
103
102
{ACAD_REACTORS
330
102
102
}
330
102
100
DictionaryVariables
280
     0
  1
1
  0
ENDSEC
  0
EOF
