  0
SECTION
  2
HEADER
  9
$CLAYER
  8
1
  9
$LTSCALE
 40
3.0
  0
ENDSEC
  0
SECTION
  2
TABLES
  0
TABLE
  2
LTYPE
 70
     4
  0
LTYPE
  2
CONTINUOUS
  3
solid line
 70
    64
 72
    65
 73
     0
 40
0.0
  0
LTYPE
  2
DASHED
  3
__ __ __ __ __ __ __ __ __ __ __ __ __ __ __
 70
    64
 72
    65
 73
     2
 40
0.75
 49
0.5
 49
-0.25
  0
LTYPE
  2
CENTER
  3
____ _ ____ _ ____ _ ____ _ ____ _ ____ _ ____
 70
    64
 72
    65
 73
     4
 40
2.0
 49
1.25
 49
-0.25
 49
0.25
 49
-0.25
  0
LTYPE
  2
PHANTOM
  3
_____ _ _ _____ _ _ _____ _ _ _____ _ _ ____
 70
    64
 72
    65
 73
     6
 40
2.5
 49
1.25
 49
-0.25
 49
0.25
 49
-0.25
 49
0.25
 49
-0.25
  0
ENDTAB
  0
TABLE
  2
LAYER
 70
     1
  0
LAYER
  2
0
 70
    64
 62
     7
  6
CONTINUOUS
  0
ENDTAB
  0
TABLE
  2
STYLE
 70
     1
  0
STYLE
  2
STANDARD
 70
     0
 40
0.000000
 41
1.000000
 50
0.000000
 71
     0
 42
3.000000
  3
txt
  4
BIGFONT
  0
ENDTAB
  0
ENDSEC
  0
SECTION
  2
BLOCKS
  0
ENDSEC
  0
SECTION
  2
ENTITIES
  0
LINE
  8
0
  6
CONTINUOUS
 10
249.017380
 20
62.005001
 11
249.017380
 21
204.005005
  0
LINE
  8
0
  6
CENTER
 10
151.627502
 20
133.005005
 11
295.507385
 21
133.005005
  0
LINE
  8
0
  6
CENTER
 10
352.017395
 20
276.359985
 11
352.017395
 21
7.365000
  0
LINE
  8
0
  6
CENTER
 10
277.325012
 20
186.505005
 11
427.029999
 21
186.505005
  0
LINE
  8
0
  6
CONTINUOUS
 10
262.017395
 20
21.504999
 11
442.017395
 21
21.504999
  0
LINE
  8
0
  6
CONTINUOUS
 10
262.017395
 20
41.505001
 11
442.017395
 21
41.505001
  0
LINE
  8
0
  6
CONTINUOUS
 10
320.202972
 20
264.005005
 11
383.831787
 21
264.005005
  0
LINE
  8
0
  6
CONTINUOUS
 10
442.017395
 20
219.837006
 11
442.017395
 21
21.504999
  0
LINE
  8
0
  6
CONTINUOUS
 10
262.017395
 20
219.837006
 11
262.017395
 21
21.504999
  0
LINE
  8
0
  6
CONTINUOUS
 10
249.017380
 20
204.005005
 11
257.017395
 21
204.005005
  0
LINE
  8
0
  6
CONTINUOUS
 10
249.017380
 20
62.005001
 11
257.017395
 21
62.005001
  0
LINE
  8
0
  6
CONTINUOUS
 10
389.615967
 20
262.162354
 11
437.801788
 21
227.994324
  0
LINE
  8
0
  6
CONTINUOUS
 10
266.233185
 20
227.994324
 11
314.418793
 21
262.162354
  0
ARC
  8
0
  6
CONTINUOUS
 10
432.017395
 20
219.836960
 40
10.000000
 50
0.000000
 51
54.660099
  0
ARC
  8
0
  6
CONTINUOUS
 10
383.831787
 20
254.005005
 40
10.000000
 50
54.659950
 51
90.000000
  0
ARC
  8
0
  6
CONTINUOUS
 10
320.202972
 20
254.005005
 40
10.000000
 50
90.000000
 51
125.340302
  0
ARC
  8
0
  6
CONTINUOUS
 10
272.017395
 20
219.837036
 40
10.000000
 50
125.340500
 51
180.000000
  0
ARC
  8
0
  6
CONTINUOUS
 10
257.017395
 20
209.005005
 40
5.000000
 50
-90.000000
 51
0.000000
  0
ARC
  8
0
  6
CONTINUOUS
 10
257.017395
 20
57.004978
 40
5.000000
 50
0.000000
 51
90.000000
  0
LINE
  8
0
  6
CENTER
 10
412.017395
 20
47.259998
 11
412.017395
 21
13.290000
  0
LINE
  8
0
  6
CENTER
 10
292.017395
 20
48.445000
 11
292.017395
 21
13.685000
  0
LINE
  8
0
  6
DASHED
 10
404.517395
 20
41.505001
 11
404.517395
 21
21.504999
  0
LINE
  8
0
  6
DASHED
 10
419.517395
 20
41.505001
 11
419.517395
 21
21.504999
  0
LINE
  8
0
  6
DASHED
 10
299.517395
 20
41.505001
 11
299.517395
 21
21.504999
  0
LINE
  8
0
  6
DASHED
 10
284.517395
 20
41.505001
 11
284.517395
 21
21.504999
  0
LINE
  8
0
  6
CONTINUOUS
 10
428.017395
 20
38.819679
 11
428.017395
 21
21.504999
  0
LINE
  8
0
  6
CONTINUOUS
 10
276.017395
 20
38.819679
 11
276.017395
 21
21.504999
  0
LINE
  8
0
  6
CONTINUOUS
 10
385.774780
 20
46.505001
 11
318.259979
 21
46.505001
  0
LINE
  8
0
  6
CONTINUOUS
 10
317.017395
 20
45.368118
 11
317.017395
 21
42.505001
  0
LINE
  8
0
  6
CONTINUOUS
 10
387.017395
 20
45.368118
 11
387.017395
 21
42.505001
  0
LINE
  8
0
  6
CONTINUOUS
 10
387.895996
 20
45.626320
 11
390.552979
 21
42.969440
  0
LINE
  8
0
  6
CONTINUOUS
 10
316.138794
 20
45.626320
 11
313.481781
 21
42.969501
  0
ARC
  8
0
  6
CONTINUOUS
 10
309.946381
 20
46.505001
 40
5.000000
 50
270.000000
 51
315.000092
  0
ARC
  8
0
  6
CONTINUOUS
 10
394.088379
 20
46.505001
 40
5.000000
 50
225.000107
 51
270.000000
  0
ARC
  8
0
  6
CONTINUOUS
 10
318.259979
 20
43.505001
 40
3.000000
 50
90.000000
 51
135.000397
  0
ARC
  8
0
  6
CONTINUOUS
 10
385.774780
 20
43.505001
 40
3.000000
 50
45.000259
 51
90.000000
  0
ARC
  8
0
  6
CONTINUOUS
 10
316.017395
 20
42.505001
 40
1.000000
 50
-90.000000
 51
0.000000
  0
ARC
  8
0
  6
CONTINUOUS
 10
388.017395
 20
42.505001
 40
1.000000
 50
180.000000
 51
270.000000
  0
CIRCLE
  8
0
  6
CONTINUOUS
 10
352.017395
 20
186.505005
 40
46.000000
  0
ARC
  8
0
  6
CONTINUOUS
 10
352.017395
 20
186.505005
 40
52.000000
 50
12.522720
 51
167.477402
  0
ARC
  8
0
  6
CONTINUOUS
 10
352.017395
 20
186.505005
 40
48.000000
 50
-192.522598
 51
12.522720
  0
ARC
  8
0
  6
CONTINUOUS
 10
322.017395
 20
116.004997
 40
34.000000
 50
167.477402
 51
270.000000
  0
ARC
  8
0
  6
CONTINUOUS
 10
322.017395
 20
116.004997
 40
38.000000
 50
167.477402
 51
270.000000
  0
ARC
  8
0
  6
CONTINUOUS
 10
382.017395
 20
116.004997
 40
34.000000
 50
-90.000000
 51
12.522730
  0
ARC
  8
0
  6
CONTINUOUS
 10
382.017395
 20
116.004997
 40
38.000000
 50
-90.000000
 51
12.522720
  0
LINE
  8
0
  6
CONTINUOUS
 10
284.921387
 20
124.244362
 11
301.254395
 21
197.779907
  0
LINE
  8
0
  6
CONTINUOUS
 10
402.780396
 20
197.779999
 11
419.113373
 21
124.244423
  0
LINE
  8
0
  6
CONTINUOUS
 10
398.875397
 20
196.912674
 11
415.208588
 21
123.377121
  0
LINE
  8
0
  6
CONTINUOUS
 10
288.826172
 20
123.377068
 11
305.159393
 21
196.912613
  0
LINE
  8
0
  6
CONTINUOUS
 10
322.017395
 20
82.004997
 11
382.017395
 21
82.004997
  0
LINE
  8
0
  6
CONTINUOUS
 10
322.017395
 20
78.004997
 11
382.017395
 21
78.004997
  0
LINE
  8
0
  6
CONTINUOUS
 10
339.790375
 20
100.004997
 11
334.849976
 21
100.004997
  0
LINE
  8
0
  6
CONTINUOUS
 10
342.517395
 20
108.280403
 11
342.517395
 21
100.004997
  0
LINE
  8
0
  6
CONTINUOUS
 10
347.267395
 20
111.286240
 11
347.267395
 21
114.254997
  0
LINE
  8
0
  6
CONTINUOUS
 10
356.767395
 20
111.286240
 11
356.767395
 21
114.254997
  0
LINE
  8
0
  6
CONTINUOUS
 10
351.089569
 20
112.510857
 11
351.089569
 21
101.563599
  0
LINE
  8
0
  6
CONTINUOUS
 10
352.870972
 20
112.510857
 11
352.870972
 21
101.563599
  0
LINE
  8
0
  6
CONTINUOUS
 10
362.222595
 20
112.510857
 11
362.222595
 21
101.489380
  0
LINE
  8
0
  6
CONTINUOUS
 10
363.855377
 20
106.666138
 11
363.855377
 21
101.489380
  0
LINE
  8
0
  6
CONTINUOUS
 10
340.263397
 20
112.362419
 11
335.685791
 21
112.362419
  0
LINE
  8
0
  6
CONTINUOUS
 10
335.685791
 20
112.362419
 11
334.613190
 21
111.032417
  0
LINE
  8
0
  6
CONTINUOUS
 10
334.742188
 20
114.254997
 11
333.017395
 21
112.046539
  0
LINE
  8
0
  6
CONTINUOUS
 10
334.613190
 20
102.822838
 11
335.702972
 21
101.674919
  0
LINE
  8
0
  6
CONTINUOUS
 10
333.017395
 20
101.854118
 11
334.849976
 21
100.004997
  0
LINE
  8
0
  6
CONTINUOUS
 10
333.017395
 20
112.046539
 11
333.017395
 21
101.854118
  0
LINE
  8
0
  6
CONTINUOUS
 10
334.613190
 20
111.032417
 11
334.613190
 21
102.822838
  0
LINE
  8
0
  6
CONTINUOUS
 10
341.144379
 20
111.510857
 11
340.245392
 21
112.362419
  0
LINE
  8
0
  6
CONTINUOUS
 10
341.129974
 20
114.254997
 11
342.517395
 21
112.715424
  0
LINE
  8
0
  6
CONTINUOUS
 10
341.144379
 20
111.286240
 11
342.517395
 21
111.286240
  0
LINE
  8
0
  6
CONTINUOUS
 10
334.742188
 20
114.254997
 11
341.129974
 21
114.254997
  0
LINE
  8
0
  6
CONTINUOUS
 10
338.657990
 20
108.280403
 11
342.517395
 21
108.280403
  0
LINE
  8
0
  6
CONTINUOUS
 10
341.144379
 20
106.721802
 11
338.657990
 21
106.721802
  0
LINE
  8
0
  6
CONTINUOUS
 10
338.175568
 20
101.674919
 11
335.702972
 21
101.674919
  0
LINE
  8
0
  6
CONTINUOUS
 10
341.144379
 20
105.237419
 11
341.144379
 21
106.424919
  0
ARC
  8
0
  6
CONTINUOUS
 10
338.175568
 20
104.643661
 40
2.968750
 50
-89.999786
 51
0.000109
  0
LINE
  8
0
  6
CONTINUOUS
 10
341.144379
 20
101.140923
 11
341.144379
 21
100.004997
  0
LINE
  8
0
  6
CONTINUOUS
 10
342.517395
 20
112.715424
 11
342.517395
 21
111.286240
  0
LINE
  8
0
  6
CONTINUOUS
 10
341.144379
 20
106.721802
 11
341.144379
 21
104.643661
  0
LINE
  8
0
  6
CONTINUOUS
 10
338.657990
 20
108.280403
 11
338.657990
 21
106.721802
  0
LINE
  8
0
  6
CONTINUOUS
 10
341.144379
 20
100.004997
 11
342.517395
 21
100.004997
  0
LINE
  8
0
  6
CONTINUOUS
 10
341.144379
 20
101.140923
 11
339.790375
 21
100.004997
  0
LINE
  8
0
  6
CONTINUOUS
 10
352.870972
 20
101.563599
 11
353.464569
 21
101.563599
  0
LINE
  8
0
  6
CONTINUOUS
 10
350.384583
 20
101.563599
 11
350.384583
 21
100.004997
  0
LINE
  8
0
  6
CONTINUOUS
 10
353.464569
 20
101.563599
 11
353.464569
 21
100.004997
  0
LINE
  8
0
  6
CONTINUOUS
 10
355.776367
 20
111.286240
 11
356.767395
 21
111.286240
  0
LINE
  8
0
  6
CONTINUOUS
 10
347.267395
 20
111.286240
 11
348.321991
 21
111.286240
  0
LINE
  8
0
  6
CONTINUOUS
 10
347.267395
 20
114.254997
 11
356.767395
 21
114.254997
  0
LINE
  8
0
  6
CONTINUOUS
 10
350.384583
 20
100.004997
 11
353.464569
 21
100.004997
  0
LINE
  8
0
  6
CONTINUOUS
 10
350.384583
 20
101.563599
 11
351.089569
 21
101.563599
  0
ARC
  8
0
  6
CONTINUOUS
 10
367.213593
 20
110.451279
 40
3.803712
 50
-73.981873
 51
90.003510
  0
ARC
  8
0
  6
CONTINUOUS
 10
367.213593
 20
110.451279
 40
2.320524
 50
-82.585274
 51
62.411850
  0
LINE
  8
0
  6
CONTINUOUS
 10
361.517395
 20
114.254997
 11
367.213593
 21
114.254997
  0
LINE
  8
0
  6
CONTINUOUS
 10
367.513184
 20
108.150162
 11
363.855377
 21
108.150162
  0
LINE
  8
0
  6
CONTINUOUS
 10
361.517395
 20
114.254997
 11
361.517395
 21
112.510857
  0
LINE
  8
0
  6
CONTINUOUS
 10
363.855377
 20
112.510857
 11
363.855377
 21
108.150162
  0
LINE
  8
0
  6
CONTINUOUS
 10
368.263184
 20
106.795258
 11
370.617584
 21
101.489380
  0
LINE
  8
0
  6
CONTINUOUS
 10
366.895996
 20
106.666138
 11
369.123779
 21
101.489380
  0
LINE
  8
0
  6
CONTINUOUS
 10
361.517395
 20
101.489380
 11
362.222595
 21
101.489380
  0
LINE
  8
0
  6
CONTINUOUS
 10
363.855377
 20
101.489380
 11
364.504791
 21
101.489380
  0
LINE
  8
0
  6
CONTINUOUS
 10
364.504791
 20
100.004997
 11
361.517395
 21
100.004997
  0
LINE
  8
0
  6
CONTINUOUS
 10
368.827972
 20
101.489380
 11
369.123779
 21
101.489380
  0
LINE
  8
0
  6
CONTINUOUS
 10
370.617584
 20
101.489380
 11
371.017395
 21
101.489380
  0
LINE
  8
0
  6
CONTINUOUS
 10
368.827972
 20
100.004997
 11
371.017395
 21
100.004997
  0
LINE
  8
0
  6
CONTINUOUS
 10
371.017395
 20
101.489380
 11
371.017395
 21
100.004997
  0
LINE
  8
0
  6
CONTINUOUS
 10
368.827972
 20
101.489380
 11
368.827972
 21
100.004997
  0
LINE
  8
0
  6
CONTINUOUS
 10
364.504791
 20
101.489380
 11
364.504791
 21
100.004997
  0
LINE
  8
0
  6
CONTINUOUS
 10
361.517395
 20
101.489380
 11
361.517395
 21
100.004997
  0
LINE
  8
0
  6
CONTINUOUS
 10
348.832184
 20
112.510857
 11
348.321991
 21
111.286240
  0
LINE
  8
0
  6
CONTINUOUS
 10
355.346191
 20
112.510857
 11
355.776367
 21
111.286240
  0
LINE
  8
0
  6
CONTINUOUS
 10
352.870972
 20
112.510857
 11
355.346191
 21
112.510857
  0
LINE
  8
0
  6
CONTINUOUS
 10
351.089569
 20
112.510857
 11
348.832184
 21
112.510857
  0
LINE
  8
0
  6
CONTINUOUS
 10
363.855377
 20
106.666138
 11
366.895996
 21
106.666138
  0
LINE
  8
0
  6
CONTINUOUS
 10
361.517395
 20
112.510857
 11
362.222595
 21
112.510857
  0
LINE
  8
0
  6
CONTINUOUS
 10
363.855377
 20
112.510857
 11
368.288391
 21
112.507980
  0
LINE
  8
0
  6
CONTINUOUS
 10
341.144379
 20
111.510857
 11
341.144379
 21
111.286240
  0
ARC
  8
0
  6
CONTINUOUS
 10
471.698975
 20
133.005005
 40
215.181595
 50
167.017899
 51
192.982101
  0
LINE
  8
0
  6
CONTINUOUS
 10
62.517384
 20
171.005005
 11
192.517380
 21
171.005005
  0
LINE
  8
0
  6
CONTINUOUS
 10
62.517384
 20
65.004997
 11
192.517380
 21
65.004997
  0
LINE
  8
0
  6
CONTINUOUS
 10
62.517384
 20
160.628342
 11
181.179138
 21
160.628342
  0
LINE
  8
0
  6
CONTINUOUS
 10
62.517384
 20
75.381638
 11
181.179138
 21
75.381638
  0
LINE
  8
0
  6
CONTINUOUS
 10
182.517380
 20
169.005005
 11
182.517380
 21
67.004982
  0
ARC
  8
0
  6
CONTINUOUS
 10
184.517380
 20
169.005020
 40
2.000000
 50
90.000000
 51
180.000000
  0
ARC
  8
0
  6
CONTINUOUS
 10
184.517380
 20
67.004997
 40
2.000000
 50
180.000000
 51
270.000000
  0
LINE
  8
0
  6
CENTER
 10
726.517395
 20
4.995000
 11
726.517395
 21
277.149994
  0
LINE
  8
0
  6
CENTER
 10
625.715027
 20
133.005005
 11
822.424988
 21
133.005005
  0
LINE
  8
0
  6
CENTER
 10
570.705811
 20
186.505005
 11
817.684998
 21
186.505005
  0
LINE
  8
0
  6
CENTER
 10
656.517395
 20
53.185001
 11
656.517395
 21
14.475000
  0
LINE
  8
0
  6
CENTER
 10
796.517395
 20
50.419998
 11
796.517395
 21
13.685000
  0
LINE
  8
0
  6
DASHED
 10
789.017395
 20
41.505001
 11
789.017395
 21
21.504999
  0
LINE
  8
0
  6
DASHED
 10
804.017395
 20
41.505001
 11
804.017395
 21
21.504999
  0
LINE
  8
0
  6
DASHED
 10
664.017395
 20
41.505001
 11
664.017395
 21
21.504999
  0
LINE
  8
0
  6
DASHED
 10
649.017395
 20
41.505001
 11
649.017395
 21
21.504999
  0
LINE
  8
0
  6
CONTINUOUS
 10
636.517395
 20
21.504999
 11
691.517395
 21
21.504999
  0
LINE
  8
0
  6
CONTINUOUS
 10
761.517395
 20
21.504999
 11
816.517395
 21
21.504999
  0
LINE
  8
0
  6
CONTINUOUS
 10
783.517395
 20
41.505001
 11
813.517395
 21
41.505001
  0
LINE
  8
0
  6
CONTINUOUS
 10
639.517395
 20
41.505001
 11
669.517395
 21
41.505001
  0
LINE
  8
0
  6
CONTINUOUS
 10
636.517395
 20
38.873878
 11
636.517395
 21
21.505020
  0
LINE
  8
0
  6
CONTINUOUS
 10
816.517395
 20
38.873878
 11
816.517395
 21
21.504999
  0
LINE
  8
0
  6
CONTINUOUS
 10
778.517395
 20
243.785095
 11
778.517395
 21
259.166748
  0
LINE
  8
0
  6
CONTINUOUS
 10
674.517395
 20
259.166382
 11
674.517395
 21
21.504999
  0
LINE
  8
0
  6
CONTINUOUS
 10
693.017395
 20
23.004999
 11
760.017395
 21
23.004999
  0
LINE
  8
0
  6
CONTINUOUS
 10
678.961975
 20
225.005005
 11
774.749207
 21
225.005005
  0
LINE
  8
0
  6
CONTINUOUS
 10
774.587158
 20
263.166138
 11
726.517395
 21
264.005005
  0
LINE
  8
0
  6
CONTINUOUS
 10
678.447571
 20
263.165771
 11
726.517395
 21
264.005005
  0
LINE
  8
0
  6
CONTINUOUS
 10
653.517395
 20
145.785110
 11
653.517395
 21
227.224884
  0
LINE
  8
0
  6
CONTINUOUS
 10
799.517395
 20
145.785110
 11
799.517395
 21
227.224884
  0
LINE
  8
0
  6
CONTINUOUS
 10
660.517395
 20
87.285103
 11
660.517395
 21
190.645279
  0
LINE
  8
0
  6
CONTINUOUS
 10
792.517395
 20
87.285118
 11
792.517395
 21
190.645279
  0
ARC
  8
0
  6
CONTINUOUS
 10
678.517395
 20
259.166412
 40
4.000000
 50
91.000580
 51
180.000000
  0
ARC
  8
0
  6
CONTINUOUS
 10
774.517395
 20
259.166748
 40
4.000000
 50
0.000000
 51
89.000359
  0
LINE
  8
0
  6
CONTINUOUS
 10
658.594360
 20
233.955566
 11
669.440369
 21
237.054443
  0
LINE
  8
0
  6
CONTINUOUS
 10
783.594360
 20
237.054443
 11
794.440369
 21
233.955566
  0
LINE
  8
0
  6
CONTINUOUS
 10
665.594360
 20
80.554443
 11
669.440369
 21
79.455559
  0
LINE
  8
0
  6
CONTINUOUS
 10
787.440369
 20
80.554443
 11
783.594360
 21
79.455559
  0
LINE
  8
0
  6
CONTINUOUS
 10
813.908752
 20
41.848240
 11
781.125977
 21
46.161758
  0
LINE
  8
0
  6
CONTINUOUS
 10
639.125977
 20
41.848240
 11
671.908752
 21
46.161781
  0
ARC
  8
0
  6
CONTINUOUS
 10
660.517395
 20
227.224915
 40
7.000000
 50
105.945801
 51
180.000000
  0
ARC
  8
0
  6
CONTINUOUS
 10
660.517395
 20
145.785156
 40
7.000000
 50
180.000000
 51
240.000198
  0
ARC
  8
0
  6
CONTINUOUS
 10
792.517395
 20
227.224854
 40
7.000000
 50
0.000000
 51
74.054764
  0
ARC
  8
0
  6
CONTINUOUS
 10
792.517395
 20
145.785095
 40
7.000000
 50
-59.999882
 51
0.000000
  0
ARC
  8
0
  6
CONTINUOUS
 10
667.517395
 20
87.285156
 40
7.000000
 50
180.000000
 51
254.054901
  0
ARC
  8
0
  6
CONTINUOUS
 10
785.517395
 20
87.285103
 40
7.000000
 50
-74.054497
 51
0.000000
  0
LINE
  8
0
  6
CONTINUOUS
 10
778.517395
 20
46.505001
 11
778.517395
 21
243.785095
  0
ARC
  8
0
  6
CONTINUOUS
 10
785.517395
 20
243.785156
 40
7.000000
 50
180.000000
 51
254.054901
  0
ARC
  8
0
  6
CONTINUOUS
 10
785.517395
 20
72.724937
 40
7.000000
 50
105.945801
 51
180.000000
  0
ARC
  8
0
  6
CONTINUOUS
 10
799.517395
 20
133.660751
 40
7.000000
 50
120.000099
 51
180.000000
  0
ARC
  8
0
  6
CONTINUOUS
 10
781.517395
 20
49.136139
 40
3.000000
 50
180.000000
 51
262.504395
  0
ARC
  8
0
  6
CONTINUOUS
 10
813.517395
 20
38.505001
 40
3.000000
 50
0.000000
 51
90.000000
  0
ARC
  8
0
  6
CONTINUOUS
 10
813.517395
 20
38.873859
 40
3.000000
 50
0.000000
 51
82.504204
  0
LINE
  8
0
  6
CONTINUOUS
 10
778.517395
 20
46.505001
 11
778.517395
 21
21.504999
  0
ARC
  8
0
  6
CONTINUOUS
 10
783.517395
 20
46.505020
 40
5.000000
 50
180.000000
 51
270.000000
  0
ARC
  8
0
  6
CONTINUOUS
 10
671.517395
 20
49.136139
 40
3.000000
 50
-82.503883
 51
0.000000
  0
ARC
  8
0
  6
CONTINUOUS
 10
669.517395
 20
46.505001
 40
5.000000
 50
-90.000000
 51
0.000000
  0
ARC
  8
0
  6
CONTINUOUS
 10
639.517395
 20
38.505020
 40
3.000000
 50
90.000000
 51
180.000000
  0
ARC
  8
0
  6
CONTINUOUS
 10
639.517395
 20
38.873901
 40
3.000000
 50
97.496292
 51
180.000000
  0
LINE
  8
0
  6
CONTINUOUS
 10
691.517395
 20
21.504999
 11
693.017395
 21
23.004999
  0
LINE
  8
0
  6
CONTINUOUS
 10
761.517395
 20
21.504999
 11
760.017395
 21
23.004999
  0
ARC
  8
0
  6
CONTINUOUS
 10
667.517395
 20
72.724861
 40
7.000000
 50
0.000000
 51
74.054688
  0
ARC
  8
0
  6
CONTINUOUS
 10
653.517395
 20
133.660782
 40
7.000000
 50
0.000000
 51
60.000092
  0
ARC
  8
0
  6
CONTINUOUS
 10
667.517395
 20
243.785095
 40
7.000000
 50
-74.054443
 51
0.000000
  0
ARC
  8
0
  6
CONTINUOUS
 10
726.517395
 20
133.005005
 40
71.000000
 50
-21.630920
 51
6.068256
  0
ARC
  8
0
  6
CONTINUOUS
 10
726.517395
 20
133.005005
 40
71.000000
 50
173.931793
 51
201.630905
  0
LINE
  8
0
  6
CONTINUOUS
 10
779.517395
 20
76.330482
 11
779.517395
 21
70.004997
  0
LINE
  8
0
  6
CONTINUOUS
 10
673.517395
 20
70.004997
 11
673.517395
 21
76.194000
  0
ARC
  8
0
  6
CONTINUOUS
 10
774.517395
 20
70.004997
 40
5.000000
 50
-36.869869
 51
0.000000
  0
ARC
  8
0
  6
CONTINUOUS
 10
678.517395
 20
70.004997
 40
5.000000
 50
180.000000
 51
216.865204
  0
LINE
  8
0
  6
CONTINUOUS
 10
367.017395
 20
180.505066
 11
367.017395
 21
192.505066
  0
LINE
  8
0
  6
CONTINUOUS
 10
375.017395
 20
180.505081
 11
375.017395
 21
192.505081
  0
LINE
  8
0
  6
CONTINUOUS
 10
375.017395
 20
180.505081
 11
367.017395
 21
180.505066
  0
LINE
  8
0
  6
CONTINUOUS
 10
375.017395
 20
192.505081
 11
367.017395
 21
192.505066
  0
ARC
  8
0
  6
CONTINUOUS
 10
352.017395
 20
186.505005
 40
20.000000
 50
17.457600
 51
342.542389
  0
LINE
  8
0
  6
CONTINUOUS
 10
586.517395
 20
166.505005
 11
586.517395
 21
206.505005
  0
LINE
  8
0
  6
CONTINUOUS
 10
651.517395
 20
206.505005
 11
586.517395
 21
206.505005
  0
LINE
  8
0
  6
CONTINUOUS
 10
651.517395
 20
166.505005
 11
586.517395
 21
166.505005
  0
LINE
  8
0
  6
CONTINUOUS
 10
651.517395
 20
209.005005
 11
651.517395
 21
164.005005
  0
LINE
  8
0
  6
CONTINUOUS
 10
653.517395
 20
209.005005
 11
651.517395
 21
209.005005
  0
LINE
  8
0
  6
CONTINUOUS
 10
653.517395
 20
164.005005
 11
651.517395
 21
164.005005
  0
ARC
  8
0
  6
CONTINUOUS
 10
640.517395
 20
186.505005
 40
6.000000
 50
-90.000000
 51
90.000000
  0
LINE
  8
0
  6
CONTINUOUS
 10
640.517395
 20
192.505005
 11
586.517395
 21
192.505005
  0
LINE
  8
0
  6
CONTINUOUS
 10
640.517395
 20
180.505005
 11
586.517395
 21
180.505005
  0
LINE
  8
0
  6
CONTINUOUS
 10
240.017380
 20
87.761002
 11
240.017380
 21
202.005005
  0
LINE
  8
0
  6
CENTER
 10
-11.280000
 20
118.004997
 11
295.507385
 21
118.004997
  0
LINE
  8
0
  6
CONTINUOUS
 10
242.017380
 20
204.005005
 11
249.017380
 21
204.005005
  0
LINE
  8
0
  6
CONTINUOUS
 10
242.017380
 20
62.005020
 11
249.017380
 21
62.005020
  0
LINE
  8
0
  6
CONTINUOUS
 10
221.017380
 20
65.004997
 11
192.517380
 21
65.004997
  0
LINE
  8
0
  6
CONTINUOUS
 10
192.517380
 20
171.005005
 11
237.017365
 21
171.005005
  0
LINE
  8
0
  6
CONTINUOUS
 10
238.517380
 20
182.138977
 11
219.929123
 21
171.406921
  0
ARC
  8
0
  6
CONTINUOUS
 10
242.017395
 20
202.005005
 40
2.000000
 50
90.000000
 51
180.000000
  0
ARC
  8
0
  6
CONTINUOUS
 10
242.017380
 20
64.004997
 40
2.000000
 50
194.477707
 51
270.000000
  0
LINE
  8
0
  6
CONTINUOUS
 10
221.017380
 20
67.004997
 11
221.017380
 21
83.761002
  0
LINE
  8
0
  6
CONTINUOUS
 10
238.017380
 20
85.761002
 11
223.017380
 21
85.761002
  0
ARC
  8
0
  6
CONTINUOUS
 10
223.017380
 20
83.761017
 40
2.000000
 50
90.000000
 51
180.000000
  0
ARC
  8
0
  6
CONTINUOUS
 10
238.144409
 20
63.005001
 40
2.000000
 50
14.477280
 51
90.000000
  0
ARC
  8
0
  6
CONTINUOUS
 10
238.017380
 20
87.761002
 40
2.000000
 50
-90.000000
 51
0.000000
  0
LINE
  8
0
  6
CONTINUOUS
 10
221.017380
 20
65.004997
 11
238.144409
 21
65.004997
  0
ARC
  8
0
  6
CONTINUOUS
 10
219.017380
 20
67.004997
 40
2.000000
 50
-90.000000
 51
0.000000
  0
ARC
  8
0
  6
CONTINUOUS
 10
237.017380
 20
174.005005
 40
3.000000
 50
-90.000000
 51
0.000000
  0
ARC
  8
0
  6
CONTINUOUS
 10
237.017380
 20
184.737045
 40
3.000000
 50
-59.999660
 51
0.000000
  0
ARC
  8
0
  6
CONTINUOUS
 10
218.429108
 20
174.005005
 40
3.000000
 50
270.000000
 51
300.000305
  0
LINE
  8
0
  6
CONTINUOUS
 10
192.517380
 20
171.005005
 11
192.517380
 21
65.004997
  0
LINE
  8
0
  6
CONTINUOUS
 10
420.886505
 20
601.189209
 11
352.018036
 21
601.189209
  0
LINE
  8
0
  6
CONTINUOUS
 10
420.885895
 20
421.189178
 11
375.017395
 21
421.189270
  0
LINE
  8
0
  6
CENTER
 10
352.017395
 20
356.800354
 11
352.017914
 21
627.034973
  0
LINE
  8
0
  6
CENTER
 10
426.871185
 20
581.190002
 11
398.503143
 21
581.190002
  0
LINE
  8
0
  6
CONTINUOUS
 10
442.017700
 20
511.189240
 11
441.109711
 21
459.189209
  0
LINE
  8
0
  6
CONTINUOUS
 10
430.340485
 20
427.931763
 11
441.109711
 21
459.189209
  0
ARC
  8
0
  6
CONTINUOUS
 10
420.886108
 20
431.189240
 40
10.000000
 50
-90.000000
 51
-19.010900
  0
ARC
  8
0
  6
CONTINUOUS
 10
412.017700
 20
581.190002
 40
7.500000
 50
-46.074883
 51
212.226791
  0
LINE
  8
0
  6
CONTINUOUS
 10
442.017700
 20
511.189240
 11
441.109894
 21
563.189209
  0
LINE
  8
0
  6
CONTINUOUS
 10
430.340881
 20
594.446594
 11
441.109894
 21
563.189209
  0
ARC
  8
0
  6
CONTINUOUS
 10
420.886505
 20
591.189209
 40
10.000000
 50
19.010900
 51
90.000000
  0
LINE
  8
0
  6
CONTINUOUS
 10
262.017700
 20
511.189423
 11
262.925507
 21
459.189484
  0
LINE
  8
0
  6
CONTINUOUS
 10
273.694489
 20
427.932037
 11
262.925507
 21
459.189484
  0
ARC
  8
0
  6
CONTINUOUS
 10
283.149109
 20
431.189453
 40
10.000000
 50
199.010895
 51
270.000000
  0
LINE
  8
0
  6
CONTINUOUS
 10
262.017700
 20
511.189423
 11
262.874237
 21
560.242004
  0
LINE
  8
0
  6
CONTINUOUS
 10
273.694885
 20
594.446777
 11
263.272522
 21
564.196045
  0
LINE
  8
0
  6
CONTINUOUS
 10
251.055496
 20
582.189392
 11
249.017899
 21
582.189392
  0
LINE
  8
0
  6
CONTINUOUS
 10
249.017899
 20
582.189392
 11
249.017487
 21
440.189484
  0
LINE
  8
0
  6
CONTINUOUS
 10
260.127502
 20
568.377563
 11
257.816895
 21
577.001160
  0
ARC
  8
0
  6
CONTINUOUS
 10
251.055496
 20
575.189392
 40
7.000000
 50
14.999900
 51
90.000000
  0
ARC
  8
0
  6
CONTINUOUS
 10
266.889099
 20
570.189392
 40
7.000000
 50
-165.000305
 51
-90.000000
  0
LINE
  8
0
  6
CONTINUOUS
 10
251.055099
 20
440.189484
 11
249.017487
 21
440.189484
  0
LINE
  8
0
  6
CONTINUOUS
 10
260.127289
 20
454.001312
 11
257.816681
 21
445.377716
  0
ARC
  8
0
  6
CONTINUOUS
 10
251.055099
 20
447.189514
 40
7.000000
 50
-90.000000
 51
-14.999900
  0
ARC
  8
0
  6
CONTINUOUS
 10
266.888885
 20
452.189484
 40
7.000000
 50
121.109207
 51
165.000336
  0
ARC
  8
0
  6
CONTINUOUS
 10
283.149109
 20
591.189819
 40
10.000000
 50
90.000000
 51
160.989105
  0
ARC
  8
0
  6
CONTINUOUS
 10
292.017487
 20
581.190674
 40
7.500000
 50
-32.232941
 51
238.076355
  0
LINE
  8
0
  6
CENTER
 10
412.017395
 20
569.388428
 11
412.017883
 21
593.264832
  0
LINE
  8
0
  6
CENTER
 10
305.028107
 20
581.190125
 11
279.450348
 21
581.190125
  0
LINE
  8
0
  6
CENTER
 10
292.017700
 20
569.388428
 11
292.017883
 21
593.265015
  0
LINE
  8
0
  6
CONTINUOUS
 10
438.161804
 20
563.189636
 11
265.873779
 21
563.189636
  0
LINE
  8
0
  6
CONTINUOUS
 10
309.236938
 20
584.189636
 11
394.797852
 21
584.189636
  0
ARC
  8
0
  6
CONTINUOUS
 10
438.161804
 20
560.189636
 40
3.000000
 50
1.000152
 51
90.000000
  0
ARC
  8
0
  6
CONTINUOUS
 10
265.873779
 20
560.189636
 40
3.000000
 50
90.000000
 51
178.999634
  0
LINE
  8
0
  6
CONTINUOUS
 10
438.161804
 20
459.189636
 11
265.873779
 21
459.189636
  0
ARC
  8
0
  6
CONTINUOUS
 10
438.161804
 20
462.189636
 40
3.000000
 50
270.000000
 51
358.999847
  0
ARC
  8
0
  6
CONTINUOUS
 10
265.873779
 20
462.189636
 40
3.000000
 50
181.000366
 51
270.000000
  0
LINE
  8
0
  6
CONTINUOUS
 10
387.017609
 20
464.189636
 11
387.017609
 21
558.189636
  0
LINE
  8
0
  6
CONTINUOUS
 10
317.017609
 20
464.189636
 11
317.017609
 21
558.189636
  0
LINE
  8
0
  6
CONTINUOUS
 10
293.297607
 20
577.189636
 11
300.017395
 21
577.189636
  0
LINE
  8
0
  6
CONTINUOUS
 10
413.017487
 20
577.189636
 11
404.017395
 21
577.189636
  0
ARC
  8
0
  6
CONTINUOUS
 10
413.017487
 20
570.189636
 40
7.000000
 50
0.000000
 51
90.000000
  0
ARC
  8
0
  6
CONTINUOUS
 10
427.017487
 20
570.189636
 40
7.000000
 50
180.000000
 51
270.000000
  0
LINE
  8
0
  6
CENTER
 10
426.871185
 20
441.190094
 11
398.503143
 21
441.190094
  0
ARC
  8
0
  6
CONTINUOUS
 10
412.017700
 20
441.190094
 40
7.500000
 50
-212.226791
 51
46.074883
  0
ARC
  8
0
  6
CONTINUOUS
 10
292.017487
 20
441.189423
 40
7.500000
 50
-226.078156
 51
32.232941
  0
LINE
  8
0
  6
CENTER
 10
412.017395
 20
452.991699
 11
412.017883
 21
429.115295
  0
LINE
  8
0
  6
CENTER
 10
305.028107
 20
441.190002
 11
279.450348
 21
441.190002
  0
LINE
  8
0
  6
CENTER
 10
292.017700
 20
452.991699
 11
292.017883
 21
429.115112
  0
LINE
  8
0
  6
CONTINUOUS
 10
309.236938
 20
438.189636
 11
394.797852
 21
438.189636
  0
LINE
  8
0
  6
CONTINUOUS
 10
291.017487
 20
445.189636
 11
300.017395
 21
445.189575
  0
ARC
  8
0
  6
CONTINUOUS
 10
291.017487
 20
452.189636
 40
7.000000
 50
180.000000
 51
270.000000
  0
ARC
  8
0
  6
CONTINUOUS
 10
277.017487
 20
452.189636
 40
7.000000
 50
0.000000
 51
90.000000
  0
LINE
  8
0
  6
CONTINUOUS
 10
413.017487
 20
445.189636
 11
404.017395
 21
445.189575
  0
ARC
  8
0
  6
CONTINUOUS
 10
413.017487
 20
452.189636
 40
7.000000
 50
-90.000000
 51
0.000000
  0
ARC
  8
0
  6
CONTINUOUS
 10
427.017487
 20
452.189636
 40
7.000000
 50
90.000000
 51
180.000000
  0
LINE
  8
0
  6
CONTINUOUS
 10
286.566925
 20
572.112671
 11
285.468048
 21
568.266602
  0
ARC
  8
0
  6
CONTINUOUS
 10
293.297607
 20
570.189636
 40
7.000000
 50
90.000000
 51
164.054611
  0
ARC
  8
0
  6
CONTINUOUS
 10
278.737396
 20
570.189636
 40
7.000000
 50
-90.000000
 51
-15.945396
  0
LINE
  8
0
  6
CONTINUOUS
 10
332.017700
 20
371.189423
 11
375.017395
 21
371.189423
  0
LINE
  8
0
  6
CONTINUOUS
 10
372.017700
 20
436.189423
 11
372.017700
 21
431.189880
  0
LINE
  8
0
  6
CONTINUOUS
 10
332.017700
 20
436.189423
 11
332.017700
 21
371.189423
  0
LINE
  8
0
  6
CONTINUOUS
 10
374.517700
 20
436.189423
 11
329.517700
 21
436.189423
  0
LINE
  8
0
  6
CONTINUOUS
 10
374.517700
 20
438.189423
 11
374.517700
 21
436.189423
  0
LINE
  8
0
  6
CONTINUOUS
 10
329.517700
 20
438.189423
 11
329.517700
 21
436.189423
  0
LINE
  8
0
  6
CONTINUOUS
 10
352.018036
 20
601.189331
 11
283.149506
 21
601.189392
  0
LINE
  8
0
  6
CONTINUOUS
 10
332.017700
 20
421.189331
 11
283.149109
 21
421.189423
  0
LINE
  8
0
  6
CONTINUOUS
 10
375.017395
 20
371.189880
 11
375.017395
 21
431.189880
  0
LINE
  8
0
  6
CONTINUOUS
 10
371.096375
 20
431.189880
 11
375.017395
 21
431.189880
  0
LINE
  8
0
  6
CONTINUOUS
 10
303.922119
 20
581.745178
 11
300.017395
 21
577.189636
  0
ARC
  8
0
  6
CONTINUOUS
 10
309.236938
 20
577.189636
 40
7.000000
 50
90.000000
 51
139.398712
  0
LINE
  8
0
  6
CONTINUOUS
 10
400.112640
 20
581.745178
 11
404.017395
 21
577.189636
  0
ARC
  8
0
  6
CONTINUOUS
 10
394.797852
 20
577.189636
 40
7.000000
 50
40.601295
 51
90.000000
  0
LINE
  8
0
  6
CONTINUOUS
 10
400.112640
 20
440.634033
 11
404.017395
 21
445.189575
  0
ARC
  8
0
  6
CONTINUOUS
 10
394.797852
 20
445.189575
 40
7.000000
 50
-90.000000
 51
-40.601295
  0
LINE
  8
0
  6
CONTINUOUS
 10
303.922119
 20
440.634033
 11
300.017395
 21
445.189575
  0
ARC
  8
0
  6
CONTINUOUS
 10
309.236938
 20
445.189575
 40
7.000000
 50
-139.398712
 51
-90.000000
  0
LINE
  8
0
  6
CONTINUOUS
 10
371.096375
 20
431.189880
 11
371.096375
 21
371.189423
  0
LINE
  8
0
  6
CENTER
 10
465.218628
 20
511.189423
 11
-11.787500
 21
511.189423
  0
LINE
  8
0
  6
CONTINUOUS
 10
242.017899
 20
582.189453
 11
249.017899
 21
582.189453
  0
LINE
  8
0
  6
CONTINUOUS
 10
240.017899
 20
442.189423
 11
240.017899
 21
580.189453
  0
LINE
  8
0
  6
CONTINUOUS
 10
242.017899
 20
440.189423
 11
249.017487
 21
440.189423
  0
LINE
  8
0
  6
CONTINUOUS
 10
192.517899
 20
564.189453
 11
240.017899
 21
564.189453
  0
LINE
  8
0
  6
CONTINUOUS
 10
192.517899
 20
458.189423
 11
240.017899
 21
458.189423
  0
LINE
  8
0
  6
CONTINUOUS
 10
192.517899
 20
564.189453
 11
192.517899
 21
458.189423
  0
ARC
  8
0
  6
CONTINUOUS
 10
242.017899
 20
580.189453
 40
2.000000
 50
90.000000
 51
180.000000
  0
ARC
  8
0
  6
CONTINUOUS
 10
242.017899
 20
442.189423
 40
2.000000
 50
180.000000
 51
270.000000
  0
ARC
  8
0
  6
CONTINUOUS
 10
239.232971
 20
511.189423
 40
20.000000
 50
141.561295
 51
180.000000
  0
LINE
  8
0
  6
CONTINUOUS
 10
240.017899
 20
544.349426
 11
223.567490
 21
523.622986
  0
ARC
  8
0
  6
CONTINUOUS
 10
239.232971
 20
511.189423
 40
20.000000
 50
-180.000000
 51
-141.561295
  0
LINE
  8
0
  6
CONTINUOUS
 10
240.017899
 20
478.029419
 11
223.567490
 21
498.755890
  0
LINE
  8
0
  6
CONTINUOUS
 10
62.517384
 20
564.189453
 11
192.517380
 21
564.189453
  0
LINE
  8
0
  6
CONTINUOUS
 10
62.517384
 20
458.189423
 11
192.517380
 21
458.189423
  0
LINE
  8
0
  6
CONTINUOUS
 10
62.517384
 20
542.689392
 11
182.517380
 21
542.689392
  0
LINE
  8
0
  6
CONTINUOUS
 10
62.517384
 20
479.689423
 11
182.517380
 21
479.689423
  0
LINE
  8
0
  6
CONTINUOUS
 10
182.517380
 20
562.189453
 11
182.517380
 21
542.689392
  0
ARC
  8
0
  6
CONTINUOUS
 10
184.517380
 20
562.189453
 40
2.000000
 50
90.000000
 51
180.000000
  0
ARC
  8
0
  6
CONTINUOUS
 10
184.517380
 20
460.189423
 40
2.000000
 50
180.000000
 51
270.000000
  0
LINE
  8
0
  6
CONTINUOUS
 10
54.017342
 20
564.189392
 11
62.517384
 21
564.189392
  0
LINE
  8
0
  6
CONTINUOUS
 10
54.017342
 20
458.189453
 11
62.517384
 21
458.189453
  0
LINE
  8
0
  6
CONTINUOUS
 10
62.517384
 20
542.689453
 11
54.017342
 21
542.689453
  0
LINE
  8
0
  6
CONTINUOUS
 10
62.517384
 20
479.689423
 11
54.017342
 21
479.689423
  0
LINE
  8
0
  6
CONTINUOUS
 10
62.517384
 20
458.189453
 11
62.517384
 21
480.189392
  0
LINE
  8
0
  6
CONTINUOUS
 10
62.517384
 20
542.189392
 11
62.517384
 21
564.189392
  0
LINE
  8
0
  6
CONTINUOUS
 10
54.017342
 20
566.189453
 11
54.017342
 21
540.689392
  0
LINE
  8
0
  6
CONTINUOUS
 10
15.017340
 20
566.189453
 11
54.017342
 21
566.189453
  0
LINE
  8
0
  6
CONTINUOUS
 10
15.017340
 20
456.189423
 11
54.017342
 21
456.189423
  0
LINE
  8
0
  6
CONTINUOUS
 10
5.017340
 20
466.189423
 11
5.017340
 21
556.189453
  0
LINE
  8
0
  6
CONTINUOUS
 10
10.017340
 20
541.689453
 11
54.017342
 21
541.689453
  0
LINE
  8
0
  6
CONTINUOUS
 10
10.017340
 20
480.689423
 11
54.017342
 21
480.689423
  0
ARC
  8
0
  6
CONTINUOUS
 10
15.017430
 20
556.189453
 40
10.000000
 50
90.000000
 51
180.000000
  0
ARC
  8
0
  6
CONTINUOUS
 10
15.017340
 20
466.189423
 40
10.000000
 50
180.000000
 51
270.000000
  0
LINE
  8
0
  6
CONTINUOUS
 10
54.017384
 20
173.005005
 11
54.017384
 21
63.005001
  0
LINE
  8
0
  6
CONTINUOUS
 10
54.017384
 20
171.005005
 11
62.517384
 21
171.005005
  0
LINE
  8
0
  6
CONTINUOUS
 10
54.017384
 20
65.004997
 11
62.517384
 21
65.004997
  0
LINE
  8
0
  6
CONTINUOUS
 10
54.017384
 20
160.567596
 11
62.517384
 21
160.567596
  0
LINE
  8
0
  6
CONTINUOUS
 10
54.017384
 20
75.320869
 11
62.517384
 21
75.320869
  0
LINE
  8
0
  6
CONTINUOUS
 10
15.017382
 20
173.005005
 11
54.017384
 21
173.005005
  0
LINE
  8
0
  6
CONTINUOUS
 10
15.017382
 20
63.005001
 11
54.017384
 21
63.005001
  0
LINE
  8
0
  6
CONTINUOUS
 10
5.017382
 20
73.004997
 11
5.017382
 21
163.005005
  0
LINE
  8
0
  6
CONTINUOUS
 10
10.017382
 20
148.505005
 11
54.017384
 21
148.505005
  0
LINE
  8
0
  6
CONTINUOUS
 10
10.017382
 20
87.504997
 11
54.017384
 21
87.504997
  0
ARC
  8
0
  6
CONTINUOUS
 10
15.017472
 20
163.005005
 40
10.000000
 50
90.000000
 51
180.000000
  0
ARC
  8
0
  6
CONTINUOUS
 10
15.017382
 20
73.004997
 40
10.000000
 50
180.000000
 51
270.000000
  0
LINE
  8
0
  6
CONTINUOUS
 10
62.517384
 20
65.004997
 11
62.517384
 21
171.005005
  0
LINE
  8
0
  6
CONTINUOUS
 10
53.517342
 20
540.189392
 11
53.517342
 21
482.189392
  0
LINE
  8
0
  6
CONTINUOUS
 10
115.517342
 20
482.189392
 11
115.517342
 21
540.189392
  0
LINE
  8
0
  6
CONTINUOUS
 10
55.517342
 20
542.189392
 11
113.517342
 21
542.189392
  0
LINE
  8
0
  6
CONTINUOUS
 10
55.517342
 20
480.189392
 11
113.517342
 21
480.189392
  0
LINE
  8
0
  6
CONTINUOUS
 10
113.517342
 20
542.189392
 11
115.517342
 21
540.189392
  0
LINE
  8
0
  6
CONTINUOUS
 10
115.517342
 20
482.189392
 11
113.517342
 21
480.189392
  0
LINE
  8
0
  6
CONTINUOUS
 10
53.517342
 20
482.189392
 11
55.517342
 21
480.189392
  0
LINE
  8
0
  6
CONTINUOUS
 10
53.517342
 20
540.189392
 11
55.517342
 21
542.189392
  0
LINE
  8
0
  6
CONTINUOUS
 10
107.517342
 20
537.189392
 11
107.517342
 21
542.189392
  0
LINE
  8
0
  6
CONTINUOUS
 10
110.517342
 20
534.189392
 11
115.517342
 21
534.189392
  0
CIRCLE
  8
0
  6
CONTINUOUS
 10
111.517342
 20
538.189392
 40
2.250000
  0
ARC
  8
0
  6
CONTINUOUS
 10
110.517342
 20
537.189392
 40
3.000000
 50
180.000000
 51
270.000000
  0
LINE
  8
0
  6
CONTINUOUS
 10
114.517342
 20
533.189392
 11
114.517342
 21
489.189392
  0
LINE
  8
0
  6
CONTINUOUS
 10
110.517342
 20
533.189392
 11
114.517342
 21
533.189392
  0
ARC
  8
0
  6
CONTINUOUS
 10
110.517342
 20
537.189392
 40
4.000000
 50
180.000000
 51
270.000000
  0
LINE
  8
0
  6
CONTINUOUS
 10
106.517342
 20
541.189392
 11
106.517342
 21
537.189392
  0
LINE
  8
0
  6
CONTINUOUS
 10
114.517342
 20
533.189392
 11
115.517342
 21
534.189392
  0
LINE
  8
0
  6
CONTINUOUS
 10
62.517342
 20
541.189392
 11
106.517342
 21
541.189392
  0
LINE
  8
0
  6
CONTINUOUS
 10
106.517342
 20
541.189392
 11
107.517342
 21
542.189392
  0
LINE
  8
0
  6
CONTINUOUS
 10
58.517342
 20
534.189392
 11
53.517342
 21
534.189392
  0
LINE
  8
0
  6
CONTINUOUS
 10
61.517342
 20
537.189392
 11
61.517342
 21
542.189392
  0
CIRCLE
  8
0
  6
CONTINUOUS
 10
57.517342
 20
538.189392
 40
2.250000
  0
ARC
  8
0
  6
CONTINUOUS
 10
58.517342
 20
537.189392
 40
3.000000
 50
-90.000000
 51
0.000000
  0
LINE
  8
0
  6
CONTINUOUS
 10
62.517342
 20
537.189392
 11
62.517342
 21
541.189392
  0
ARC
  8
0
  6
CONTINUOUS
 10
58.517342
 20
537.189392
 40
4.000000
 50
-90.000000
 51
0.000000
  0
LINE
  8
0
  6
CONTINUOUS
 10
54.517342
 20
533.189392
 11
58.517342
 21
533.189392
  0
LINE
  8
0
  6
CONTINUOUS
 10
62.517342
 20
541.189392
 11
61.517342
 21
542.189392
  0
LINE
  8
0
  6
CONTINUOUS
 10
54.517342
 20
533.189392
 11
53.517342
 21
534.189392
  0
LINE
  8
0
  6
CONTINUOUS
 10
61.517342
 20
485.189392
 11
61.517342
 21
480.189392
  0
LINE
  8
0
  6
CONTINUOUS
 10
58.517342
 20
488.189392
 11
53.517342
 21
488.189392
  0
CIRCLE
  8
0
  6
CONTINUOUS
 10
57.517342
 20
484.189392
 40
2.250000
  0
ARC
  8
0
  6
CONTINUOUS
 10
58.517342
 20
485.189392
 40
3.000000
 50
0.000000
 51
90.000000
  0
LINE
  8
0
  6
CONTINUOUS
 10
58.517342
 20
489.189392
 11
54.517342
 21
489.189392
  0
ARC
  8
0
  6
CONTINUOUS
 10
58.517342
 20
485.189392
 40
4.000000
 50
0.000000
 51
90.000000
  0
LINE
  8
0
  6
CONTINUOUS
 10
62.517342
 20
481.189392
 11
62.517342
 21
485.189392
  0
LINE
  8
0
  6
CONTINUOUS
 10
54.517342
 20
489.189392
 11
53.517342
 21
488.189392
  0
LINE
  8
0
  6
CONTINUOUS
 10
62.517342
 20
481.189392
 11
61.517342
 21
480.189392
  0
LINE
  8
0
  6
CONTINUOUS
 10
110.517342
 20
488.189392
 11
115.517342
 21
488.189392
  0
LINE
  8
0
  6
CONTINUOUS
 10
107.517342
 20
485.189392
 11
107.517342
 21
480.189392
  0
CIRCLE
  8
0
  6
CONTINUOUS
 10
111.517342
 20
484.189392
 40
2.250000
  0
ARC
  8
0
  6
CONTINUOUS
 10
110.517342
 20
485.189392
 40
3.000000
 50
90.000000
 51
180.000000
  0
LINE
  8
0
  6
CONTINUOUS
 10
106.517342
 20
485.189392
 11
106.517342
 21
481.189392
  0
ARC
  8
0
  6
CONTINUOUS
 10
110.517342
 20
485.189392
 40
4.000000
 50
90.000000
 51
180.000000
  0
LINE
  8
0
  6
CONTINUOUS
 10
114.517342
 20
489.189392
 11
110.517342
 21
489.189392
  0
LINE
  8
0
  6
CONTINUOUS
 10
106.517342
 20
481.189392
 11
107.517342
 21
480.189392
  0
LINE
  8
0
  6
CONTINUOUS
 10
114.517342
 20
489.189392
 11
115.517342
 21
488.189392
  0
LINE
  8
0
  6
CONTINUOUS
 10
62.517342
 20
481.189392
 11
106.517342
 21
481.189392
  0
LINE
  8
0
  6
CONTINUOUS
 10
54.517342
 20
533.189392
 11
54.517342
 21
489.189392
  0
LINE
  8
0
  6
CENTER
 10
84.517342
 20
547.435669
 11
84.517342
 21
474.742859
  0
LINE
  8
0
  6
CONTINUOUS
 10
54.017342
 20
456.189423
 11
54.017342
 21
481.689392
  0
LINE
  8
0
  6
CONTINUOUS
 10
55.017384
 20
172.505005
 11
113.517380
 21
172.505005
  0
LINE
  8
0
  6
CONTINUOUS
 10
55.017384
 20
172.505005
 11
55.017384
 21
171.005005
  0
LINE
  8
0
  6
CONTINUOUS
 10
101.017380
 20
172.505005
 11
101.017380
 21
171.005005
  0
LINE
  8
0
  6
CONTINUOUS
 10
53.517384
 20
221.505005
 11
53.517384
 21
174.505005
  0
LINE
  8
0
  6
CONTINUOUS
 10
115.517380
 20
221.505005
 11
115.517380
 21
174.505005
  0
LINE
  8
0
  6
CONTINUOUS
 10
115.517380
 20
174.505005
 11
113.517380
 21
172.505005
  0
LINE
  8
0
  6
CONTINUOUS
 10
53.517384
 20
174.505005
 11
55.517384
 21
172.505005
  0
LINE
  8
0
  6
CONTINUOUS
 10
53.517384
 20
174.505005
 11
115.517380
 21
174.505005
  0
LINE
  8
0
  6
CONTINUOUS
 10
53.517384
 20
184.505005
 11
115.517380
 21
184.505005
  0
LINE
  8
0
  6
CENTER
 10
84.517380
 20
230.018753
 11
84.517380
 21
167.910995
  0
LINE
  8
0
  6
CONTINUOUS
 10
53.517384
 20
185.505005
 11
115.517380
 21
185.505005
  0
LINE
  8
0
  6
CONTINUOUS
 10
54.517384
 20
222.505005
 11
114.517380
 21
222.505005
  0
LINE
  8
0
  6
CONTINUOUS
 10
114.517380
 20
222.505005
 11
115.517380
 21
221.505005
  0
LINE
  8
0
  6
CONTINUOUS
 10
53.517384
 20
221.505005
 11
54.517384
 21
222.505005
  0
LINE
  8
0
  6
CONTINUOUS
 10
53.517384
 20
221.505005
 11
115.517380
 21
221.505005
  0
LINE
  8
0
  6
CENTER
 10
50.892384
 20
205.505020
 11
56.642384
 21
205.505020
  0
LINE
  8
0
  6
CONTINUOUS
 10
52.392384
 20
216.005020
 11
55.517384
 21
216.005020
  0
LINE
  8
0
  6
CONTINUOUS
 10
52.392384
 20
195.005005
 11
55.517384
 21
195.005005
  0
LINE
  8
0
  6
CONTINUOUS
 10
182.517380
 20
479.689423
 11
182.517380
 21
460.189392
  0
TEXT
  8
0
 10
-11.000000
 20
4.000000
 40
4.000000
 41
1.000000
  1
HLMN-40R-1200~1800-S90WC
 50
0.000000
  0
ENDSEC
  0
EOF
