  0
SECTION
  2
HEADER
  9
$ACADVER
  1
AC1014
  9
$ACADMAINTVER
 70
     9
  9
$DWGCODEPAGE
  3
ANSI_932
  9
$INSBASE
 10
0.0
 20
0.0
 30
0.0
  9
$EXTMIN
 10
65.2141306972735
 20
86.63807710865546
 30
0.0
  9
$EXTMAX
 10
950.8926279723295
 20
779.1773320481125
 30
0.0
  9
$LIMMIN
 10
0.0
 20
0.0
  9
$LIMMAX
 10
297.0
 20
210.0
  9
$ORTHOMODE
 70
     1
  9
$REGENMODE
 70
     1
  9
$FILLMODE
 70
     1
  9
$QTEXTMODE
 70
     0
  9
$MIRRTEXT
 70
     0
  9
$DRAGMODE
 70
     2
  9
$LTSCALE
 40
4.0
  9
$OSMODE
 70
    37
  9
$ATTMODE
 70
     1
  9
$TEXTSIZE
 40
2.0
  9
$TRACEWID
 40
1.0
  9
$TEXTSTYLE
  7
STANDARD
  9
$CLAYER
  8
0
  9
$CELTYPE
  6
BYLAYER
  9
$CECOLOR
 62
   256
  9
$CELTSCALE
 40
1.0
  9
$DELOBJ
 70
     1
  9
$DISPSILH
 70
     0
  9
$DIMSCALE
 40
4.0
  9
$DIMASZ
 40
1.8
  9
$DIMEXO
 40
0.625
  9
$DIMDLI
 40
3.75
  9
$DIMRND
 40
0.0
  9
$DIMDLE
 40
0.0
  9
$DIMEXE
 40
0.8
  9
$DIMTP
 40
0.0
  9
$DIMTM
 40
0.0
  9
$DIMTXT
 40
1.8
  9
$DIMCEN
 40
2.5
  9
$DIMTSZ
 40
0.0
  9
$DIMTOL
 70
     0
  9
$DIMLIM
 70
     0
  9
$DIMTIH
 70
     0
  9
$DIMTOH
 70
     0
  9
$DIMSE1
 70
     0
  9
$DIMSE2
 70
     0
  9
$DIMTAD
 70
     1
  9
$DIMZIN
 70
     8
  9
$DIMBLK
  1

  9
$DIMASO
 70
     1
  9
$DIMSHO
 70
     1
  9
$DIMPOST
  1

  9
$DIMAPOST
  1

  9
$DIMALT
 70
     0
  9
$DIMALTD
 70
     4
  9
$DIMALTF
 40
0.0394
  9
$DIMLFAC
 40
1.0
  9
$DIMTOFL
 70
     1
  9
$DIMTVP
 40
0.0
  9
$DIMTIX
 70
     0
  9
$DIMSOXD
 70
     0
  9
$DIMSAH
 70
     0
  9
$DIMBLK1
  1

  9
$DIMBLK2
  1

  9
$DIMSTYLE
  2
STANDARD
  9
$DIMCLRD
 70
     0
  9
$DIMCLRE
 70
     0
  9
$DIMCLRT
 70
     0
  9
$DIMTFAC
 40
1.0
  9
$DIMGAP
 40
0.75
  9
$DIMJUST
 70
     0
  9
$DIMSD1
 70
     0
  9
$DIMSD2
 70
     0
  9
$DIMTOLJ
 70
     1
  9
$DIMTZIN
 70
     0
  9
$DIMALTZ
 70
     0
  9
$DIMALTTZ
 70
     0
  9
$DIMFIT
 70
     3
  9
$DIMUPT
 70
     0
  9
$DIMUNIT
 70
     8
  9
$DIMDEC
 70
     2
  9
$DIMTDEC
 70
     2
  9
$DIMALTU
 70
     8
  9
$DIMALTTD
 70
     4
  9
$DIMTXSTY
  7
STANDARD
  9
$DIMAUNIT
 70
     0
  9
$LUNITS
 70
     2
  9
$LUPREC
 70
     3
  9
$SKETCHINC
 40
1.0
  9
$FILLETRAD
 40
10.0
  9
$AUNITS
 70
     0
  9
$AUPREC
 70
     2
  9
$MENU
  1
.
  9
$ELEVATION
 40
0.0
  9
$PELEVATION
 40
0.0
  9
$THICKNESS
 40
0.0
  9
$LIMCHECK
 70
     0
  9
$BLIPMODE
 70
     0
  9
$CHAMFERA
 40
0.0
  9
$CHAMFERB
 40
0.0
  9
$CHAMFERC
 40
20.0
  9
$CHAMFERD
 40
0.0
  9
$SKPOLY
 70
     0
  9
$TDCREATE
 40
2453753.556116898
  9
$TDUPDATE
 40
2453832.467467627
  9
$TDINDWG
 40
0.2160754630
  9
$TDUSRTIMER
 40
0.2160754630
  9
$USRTIMER
 70
     1
  9
$ANGBASE
 50
0.0
  9
$ANGDIR
 70
     0
  9
$PDMODE
 70
     0
  9
$PDSIZE
 40
-10.0
  9
$PLINEWID
 40
0.0
  9
$COORDS
 70
     0
  9
$SPLFRAME
 70
     0
  9
$SPLINETYPE
 70
     6
  9
$SPLINESEGS
 70
     8
  9
$ATTDIA
 70
     0
  9
$ATTREQ
 70
     1
  9
$HANDLING
 70
-16383
  9
$HANDSEED
  5
1801
  9
$SURFTAB1
 70
     6
  9
$SURFTAB2
 70
     6
  9
$SURFTYPE
 70
     6
  9
$SURFU
 70
     6
  9
$SURFV
 70
     6
  9
$UCSNAME
  2

  9
$UCSORG
 10
0.0
 20
0.0
 30
0.0
  9
$UCSXDIR
 10
1.0
 20
0.0
 30
0.0
  9
$UCSYDIR
 10
0.0
 20
1.0
 30
0.0
  9
$PUCSNAME
  2

  9
$PUCSORG
 10
0.0
 20
0.0
 30
0.0
  9
$PUCSXDIR
 10
1.0
 20
0.0
 30
0.0
  9
$PUCSYDIR
 10
0.0
 20
1.0
 30
0.0
  9
$USERI1
 70
     0
  9
$USERI2
 70
     0
  9
$USERI3
 70
     0
  9
$USERI4
 70
     0
  9
$USERI5
 70
     0
  9
$USERR1
 40
0.0
  9
$USERR2
 40
0.0
  9
$USERR3
 40
0.0
  9
$USERR4
 40
0.0
  9
$USERR5
 40
0.0
  9
$WORLDVIEW
 70
     1
  9
$SHADEDGE
 70
     3
  9
$SHADEDIF
 70
    70
  9
$TILEMODE
 70
     1
  9
$MAXACTVP
 70
    48
  9
$PINSBASE
 10
0.0
 20
0.0
 30
0.0
  9
$PLIMCHECK
 70
     0
  9
$PEXTMIN
 10
0.0
 20
0.0
 30
0.0
  9
$PEXTMAX
 10
0.0
 20
0.0
 30
0.0
  9
$PLIMMIN
 10
0.0
 20
0.0
  9
$PLIMMAX
 10
12.0
 20
9.0
  9
$UNITMODE
 70
     0
  9
$VISRETAIN
 70
     1
  9
$PLINEGEN
 70
     0
  9
$PSLTSCALE
 70
     1
  9
$TREEDEPTH
 70
  3020
  9
$PICKSTYLE
 70
     1
  9
$CMLSTYLE
  2
STANDARD
  9
$CMLJUST
 70
     0
  9
$CMLSCALE
 40
1.0
  9
$PROXYGRAPHICS
 70
     1
  9
$MEASUREMENT
 70
     0
  0
ENDSEC
  0
SECTION
  2
CLASSES
  0
CLASS
  1
DICTIONARYVAR
  2
AcDbDictionaryVar
  3
AutoCAD 2000
 90
        0
280
     0
281
     0
  0
CLASS
  1
ACDBDICTIONARYWDFLT
  2
AcDbDictionaryWithDefault
  3
AutoCAD 2000
 90
        0
280
     0
281
     0
  0
CLASS
  1
ACDBPLACEHOLDER
  2
AcDbPlaceHolder
  3
AutoCAD 2000
 90
        0
280
     0
281
     0
  0
CLASS
  1
LAYOUT
  2
AcDbLayout
  3
AutoCAD 2000
 90
        0
280
     0
281
     0
  0
CLASS
  1
LONG_TRANSACTION
  2
AcDbLongTransaction
  3
AutoCAD 2000
 90
        0
280
     0
281
     0
  0
CLASS
  1
LWPOLYLINE
  2
AcDbPolyline
  3
AutoCAD 2000
 90
        0
280
     0
281
     1
  0
CLASS
  1
HATCH
  2
AcDbHatch
  3
AutoCAD 2000
 90
        0
280
     0
281
     1
  0
CLASS
  1
XRECORD
  2
AcDbXrecord
  3
AutoCAD 2000
 90
        0
280
     0
281
     0
  0
ENDSEC
  0
SECTION
  2
TABLES
  0
TABLE
  2
VPORT
  5
6E
330
0
100
AcDbSymbolTable
 70
     2
  0
VPORT
  5
17DB
330
6E
100
AcDbSymbolTableRecord
100
AcDbViewportTableRecord
  2
*ACTIVE
 70
     0
 10
0.0
 20
0.0
 11
1.0
 21
1.0
 12
513.7804170133017
 22
409.8599287129849
 13
0.0
 23
0.0
 14
10.0
 24
10.0
 15
10.0
 25
10.0
 16
0.0
 26
0.0
 36
1.0
 17
0.0
 27
0.0
 37
0.0
 40
744.4761280208871
 41
1.566970091027308
 42
50.0
 43
0.0
 44
0.0
 50
0.0
 51
0.0
 71
     0
 72
   100
 73
     1
 74
     3
 75
     0
 76
     0
 77
     0
 78
     0
  0
ENDTAB
  0
TABLE
  2
LTYPE
  5
69
330
0
100
AcDbSymbolTable
 70
     3
  0
LTYPE
  5
6A
330
69
100
AcDbSymbolTableRecord
100
AcDbLinetypeTableRecord
  2
BYBLOCK
 70
     0
  3

 72
    65
 73
     0
 40
0.0
  0
LTYPE
  5
6B
330
69
100
AcDbSymbolTableRecord
100
AcDbLinetypeTableRecord
  2
BYLAYER
 70
     0
  3

 72
    65
 73
     0
 40
0.0
  0
LTYPE
  5
8
330
69
100
AcDbSymbolTableRecord
100
AcDbLinetypeTableRecord
  2
CONTINUOUS
 70
     0
  3
Solid line
 72
    65
 73
     0
 40
0.0
  0
LTYPE
  5
27C
330
69
100
AcDbSymbolTableRecord
100
AcDbLinetypeTableRecord
  2
SEKKEI_A2_
 70
     0
  3
center(A2)  ____ _ ____ _ ____ _ ____ _ ____ _ 
 72
    65
 73
     4
 40
14.28749999999999
 49
9.525
 74
     0
 49
-1.587499999999999
 74
     0
 49
1.587499999999999
 74
     0
 49
-1.587499999999999
 74
     0
  0
LTYPE
  5
2B4
330
69
100
AcDbSymbolTableRecord
100
AcDbLinetypeTableRecord
  2
HIDDEN2
 70
     0
  3
Hidden (.5x) _ _ _ _ _ _ _ _ _ _ _ _ _ _ _ _ _
 72
    65
 73
     2
 40
4.762499999999999
 49
3.174999999999999
 74
     0
 49
-1.587499999999999
 74
     0
  0
ENDTAB
  0
TABLE
  2
LAYER
  5
66
330
0
100
AcDbSymbolTable
 70
     9
  0
LAYER
  5
5E
330
66
100
AcDbSymbolTableRecord
100
AcDbLayerTableRecord
  2
0
 70
     0
 62
     7
  6
CONTINUOUS
  0
LAYER
  5
3E
330
66
100
AcDbSymbolTableRecord
100
AcDbLayerTableRecord
  2
CENTER
 70
     0
 62
     3
  6
SEKKEI_A2_
  0
LAYER
  5
2B5
330
66
100
AcDbSymbolTableRecord
100
AcDbLayerTableRecord
  2
HIDS
 70
     0
 62
     1
  6
HIDDEN2
  0
LAYER
  5
2BA
330
66
100
AcDbSymbolTableRecord
100
AcDbLayerTableRecord
  2
HOJO
 70
     0
 62
     4
  6
CONTINUOUS
  0
LAYER
  5
3FA
330
66
100
AcDbSymbolTableRecord
100
AcDbLayerTableRecord
  2
TITLE
 70
     0
 62
     4
  6
CONTINUOUS
  0
ENDTAB
  0
TABLE
  2
STYLE
  5
67
330
0
100
AcDbSymbolTable
 70
     1
  0
STYLE
  5
16
330
67
100
AcDbSymbolTableRecord
100
AcDbTextStyleTableRecord
  2
STANDARD
 70
     0
 40
0.0
 41
1.0
 50
0.0
 71
     0
 42
2.0
  3
simplex.shx
  4
extfont.shx
  0
ENDTAB
  0
TABLE
  2
VIEW
  5
6C
330
0
100
AcDbSymbolTable
 70
     0
  0
ENDTAB
  0
TABLE
  2
UCS
  5
6D
330
0
100
AcDbSymbolTable
 70
     0
  0
ENDTAB
  0
TABLE
  2
APPID
  5
70
330
0
100
AcDbSymbolTable
 70
     1
  0
APPID
  5
71
330
70
100
AcDbSymbolTableRecord
100
AcDbRegAppTableRecord
  2
ACAD
 70
     0
  0
ENDTAB
  0
TABLE
  2
DIMSTYLE
  5
72
330
0
100
AcDbSymbolTable
 70
     1
  0
DIMSTYLE
105
73
330
72
100
AcDbSymbolTableRecord
100
AcDbDimStyleTableRecord
  2
STANDARD
 70
     0
  3

  4

  5

  6

  7

 40
4.0
 41
1.8
 42
0.625
 43
3.75
 44
0.8
 45
0.0
 46
0.0
 47
0.0
 48
0.0
140
1.8
141
2.5
142
0.0
143
0.0394
144
1.0
145
0.0
146
1.0
147
0.75
 71
     0
 72
     0
 73
     0
 74
     0
 75
     0
 76
     0
 77
     1
 78
     8
170
     0
171
     4
172
     1
173
     0
174
     0
175
     0
176
     0
177
     0
178
     0
270
     8
271
     2
272
     2
273
     8
274
     4
340
16
275
     0
280
     0
281
     0
282
     0
283
     1
284
     0
285
     0
286
     0
287
     3
288
     0
  0
ENDTAB
  0
TABLE
  2
BLOCK_RECORD
  5
1
330
0
100
AcDbSymbolTable
 70
    57
  0
BLOCK_RECORD
  5
2
102
{ACAD_XDICTIONARY
360
17FD
102
}
330
1
100
AcDbSymbolTableRecord
100
AcDbBlockTableRecord
  2
*MODEL_SPACE
  0
BLOCK_RECORD
  5
17D6
102
{ACAD_XDICTIONARY
360
17FF
102
}
330
1
100
AcDbSymbolTableRecord
100
AcDbBlockTableRecord
  2
*PAPER_SPACE
  0
ENDTAB
  0
ENDSEC
  0
SECTION
  2
BLOCKS
  0
BLOCK
  5
5D
330
2
100
AcDbEntity
  8
0
100
AcDbBlockBegin
  2
*MODEL_SPACE
 70
     0
 10
0.0
 20
0.0
 30
0.0
  3
*MODEL_SPACE
  1

  0
ENDBLK
  5
5F
330
2
100
AcDbEntity
  8
0
100
AcDbBlockEnd
  0
BLOCK
  5
17D8
330
17D6
100
AcDbEntity
 67
     1
  8
0
100
AcDbBlockBegin
  2
*PAPER_SPACE
 70
     0
 10
0.0
 20
0.0
 30
0.0
  3
*PAPER_SPACE
  1

  0
ENDBLK
  5
17D9
330
17D6
100
AcDbEntity
 67
     1
  8
0
100
AcDbBlockEnd
  0
ENDSEC
  0
SECTION
  2
ENTITIES
  0
LINE
  5
68F
330
2
100
AcDbEntity
  8
CENTER
100
AcDbLine
 10
532.2144955024874
 20
624.1773320481454
 30
0.0
 11
65.2141306972735
 21
624.1773320481454
 31
0.0
  0
ARC
  5
690
330
2
100
AcDbEntity
  8
0
100
AcDbCircle
 10
488.2142846972734
 20
565.1775460481453
 30
0.0
 40
7.0
100
AcDbArc
 50
270.0
 51
0.0
  0
ARC
  5
691
330
2
100
AcDbEntity
  8
0
100
AcDbCircle
 10
487.2144986972735
 20
554.1780040481454
 30
0.0
 40
7.5
100
AcDbArc
 50
147.7732090000001
 51
46.07488299999994
  0
ARC
  5
693
330
2
100
AcDbEntity
  8
0
100
AcDbCircle
 10
488.2142846972734
 20
683.1775760481455
 30
0.0
 40
7.0
100
AcDbArc
 50
0.0
 51
90.0
  0
LINE
  5
694
330
2
100
AcDbEntity
  8
0
100
AcDbLine
 10
513.3586026972734
 20
572.1775460481453
 30
0.0
 11
341.0705776972733
 21
572.1775460481453
 31
0.0
  0
LINE
  5
695
330
2
100
AcDbEntity
  8
0
100
AcDbLine
 10
513.3586026972734
 20
676.1775760481455
 30
0.0
 11
341.0705776972733
 21
676.1775760481455
 31
0.0
  0
ARC
  5
696
330
2
100
AcDbEntity
  8
0
100
AcDbCircle
 10
487.2144986972735
 20
694.1779430481453
 30
0.0
 40
7.5
100
AcDbArc
 50
313.925117
 51
212.2267909999998
  0
LINE
  5
697
330
2
100
AcDbEntity
  8
CENTER
100
AcDbLine
 10
499.2892024028698
 20
694.1779430481453
 30
0.0
 11
475.1396663978051
 21
694.1779430481453
 31
0.0
  0
LINE
  5
698
330
2
100
AcDbEntity
  8
0
100
AcDbLine
 10
496.0826926972734
 20
534.1770570481453
 30
0.0
 11
450.2141626972734
 21
534.1771490481453
 31
0.0
  0
LINE
  5
699
330
2
100
AcDbEntity
  8
0
100
AcDbLine
 10
496.0832726972735
 20
714.1770880481454
 30
0.0
 11
450.2141626972734
 21
714.1771490481455
 31
0.0
  0
LINE
  5
69A
330
2
100
AcDbEntity
  8
0
100
AcDbLine
 10
474.0721646972734
 20
277.0457591086554
 30
0.0
 11
490.4053856972734
 21
203.5101911086554
 31
0.0
  0
LINE
  5
69B
330
2
100
AcDbEntity
  8
0
100
AcDbLine
 10
477.9771626972734
 20
277.9130841086554
 30
0.0
 11
494.3101706972734
 21
204.3775011086554
 31
0.0
  0
ARC
  5
69C
330
2
100
AcDbEntity
  8
0
100
AcDbCircle
 10
457.2141626972734
 20
196.1380751086554
 30
0.0
 40
38.0
100
AcDbArc
 50
270.0
 51
12.52272000000005
  0
ARC
  5
69D
330
2
100
AcDbEntity
  8
0
100
AcDbCircle
 10
457.2141626972734
 20
196.1380751086554
 30
0.0
 40
34.0
100
AcDbArc
 50
270.0
 51
12.52273000000003
  0
LINE
  5
69E
330
2
100
AcDbEntity
  8
0
100
AcDbLine
 10
464.8127646972734
 20
342.2954241086554
 30
0.0
 11
512.9985866972734
 21
308.1273941086554
 31
0.0
  0
LINE
  5
69F
330
2
100
AcDbEntity
  8
0
100
AcDbLine
 10
337.2141776972735
 20
121.6380771086554
 30
0.0
 11
517.2141626972734
 21
121.6380771086554
 31
0.0
  0
LINE
  5
6A0
330
2
100
AcDbEntity
  8
0
100
AcDbLine
 10
337.2141776972735
 20
101.6380771086554
 30
0.0
 11
517.2141626972734
 21
101.6380771086554
 31
0.0
  0
LINE
  5
6A1
330
2
100
AcDbEntity
  8
CENTER
100
AcDbLine
 10
358.9468931981944
 20
266.6380751086554
 30
0.0
 11
495.4814579606573
 21
266.6380751086554
 31
0.0
  0
LINE
  5
6A2
330
2
100
AcDbEntity
  8
CENTER
100
AcDbLine
 10
65.2141726972734
 20
198.1380751086554
 30
0.0
 11
370.7041836972734
 21
198.1380751086554
 31
0.0
  0
LINE
  5
6A3
330
2
100
AcDbEntity
  8
0
100
AcDbLine
 10
137.7141736972735
 20
155.5147151086554
 30
0.0
 11
256.3759366972734
 21
155.5147151086554
 31
0.0
  0
LINE
  5
6A4
330
2
100
AcDbEntity
  8
0
100
AcDbLine
 10
137.7141736972735
 20
240.7614121086554
 30
0.0
 11
256.3759366972734
 21
240.7614121086554
 31
0.0
  0
LINE
  5
6A5
330
2
100
AcDbEntity
  8
0
100
AcDbLine
 10
137.7141736972735
 20
145.1380751086554
 30
0.0
 11
267.7141776972735
 21
145.1380751086554
 31
0.0
  0
LINE
  5
6A6
330
2
100
AcDbEntity
  8
0
100
AcDbLine
 10
137.7141736972735
 20
251.1380751086554
 30
0.0
 11
267.7141776972735
 21
251.1380751086554
 31
0.0
  0
LINE
  5
6A7
330
2
100
AcDbEntity
  8
0
100
AcDbLine
 10
137.7141736972735
 20
145.1380751086554
 30
0.0
 11
137.7141736972735
 21
251.1380751086554
 31
0.0
  0
LINE
  5
6A8
330
2
100
AcDbEntity
  8
0
100
AcDbLine
 10
80.2141726972734
 20
153.1380751086554
 30
0.0
 11
80.2141726972734
 21
243.1380751086554
 31
0.0
  0
LINE
  5
6A9
330
2
100
AcDbEntity
  8
0
100
AcDbLine
 10
129.2141736972735
 20
253.1380751086554
 30
0.0
 11
129.2141736972735
 21
143.1380751086554
 31
0.0
  0
ARC
  5
6AB
330
2
100
AcDbEntity
  8
0
100
AcDbCircle
 10
90.2141726972734
 20
153.1380751086554
 30
0.0
 40
10.0
100
AcDbArc
 50
180.0
 51
270.0
  0
LINE
  5
6AC
330
2
100
AcDbEntity
  8
0
100
AcDbLine
 10
85.2141726972734
 20
167.6380751086554
 30
0.0
 11
129.2141736972735
 21
167.6380751086554
 31
0.0
  0
LINE
  5
6AD
330
2
100
AcDbEntity
  8
0
100
AcDbLine
 10
90.2141726972734
 20
143.1380751086554
 30
0.0
 11
129.2141736972735
 21
143.1380751086554
 31
0.0
  0
LINE
  5
6AE
330
2
100
AcDbEntity
  8
0
100
AcDbLine
 10
129.2141736972735
 20
155.4539471086554
 30
0.0
 11
137.7141736972735
 21
155.4539471086554
 31
0.0
  0
LINE
  5
6AF
330
2
100
AcDbEntity
  8
0
100
AcDbLine
 10
129.2141736972735
 20
145.1380751086554
 30
0.0
 11
137.7141736972735
 21
145.1380751086554
 31
0.0
  0
ARC
  5
6B0
330
2
100
AcDbEntity
  8
0
100
AcDbCircle
 10
90.2142626972734
 20
243.1380751086554
 30
0.0
 40
10.0
100
AcDbArc
 50
90.0
 51
180.0
  0
LINE
  5
6B1
330
2
100
AcDbEntity
  8
0
100
AcDbLine
 10
85.2141726972734
 20
228.6380751086554
 30
0.0
 11
129.2141736972735
 21
228.6380751086554
 31
0.0
  0
LINE
  5
6B6
330
2
100
AcDbEntity
  8
0
100
AcDbLine
 10
90.2141726972734
 20
253.1380751086554
 30
0.0
 11
129.2141736972735
 21
253.1380751086554
 31
0.0
  0
ARC
  5
6B7
330
2
100
AcDbEntity
  8
0
100
AcDbCircle
 10
129.2141736972735
 20
234.8207841086554
 30
0.0
 40
3.0
100
AcDbArc
 50
0.0
 51
90.0
  0
ARC
  5
6B8
330
2
100
AcDbEntity
  8
0
100
AcDbCircle
 10
129.2141736972735
 20
234.8207841086554
 30
0.0
 40
4.5
100
AcDbArc
 50
0.0
 51
90.0
  0
LINE
  5
6B9
330
2
100
AcDbEntity
  8
HOJO
100
AcDbLine
 10
132.2141736972735
 20
230.8207841086554
 30
0.0
 11
133.7141736972735
 21
230.3207841086554
 31
0.0
  0
LINE
  5
6BA
330
2
100
AcDbEntity
  8
HOJO
100
AcDbLine
 10
130.7141736972735
 20
229.8207841086554
 30
0.0
 11
132.2141736972735
 21
230.3207841086554
 31
0.0
  0
LINE
  5
6BB
330
2
100
AcDbEntity
  8
0
100
AcDbLine
 10
133.7141736972735
 20
234.8207841086554
 30
0.0
 11
133.7141736972735
 21
230.3207841086554
 31
0.0
  0
LINE
  5
6BC
330
2
100
AcDbEntity
  8
0
100
AcDbLine
 10
132.2141736972735
 20
234.8207841086554
 30
0.0
 11
132.2141736972735
 21
230.3207841086554
 31
0.0
  0
LINE
  5
6BD
330
2
100
AcDbEntity
  8
0
100
AcDbLine
 10
130.7141736972735
 20
234.8207841086554
 30
0.0
 11
130.7141736972735
 21
229.8051741086554
 31
0.0
  0
ARC
  5
6BE
330
2
100
AcDbEntity
  8
0
100
AcDbCircle
 10
129.2141736972735
 20
234.8207841086554
 30
0.0
 40
1.5
100
AcDbArc
 50
0.0
 51
90.0
  0
LINE
  5
6BF
330
2
100
AcDbEntity
  8
0
100
AcDbLine
 10
129.2141736972735
 20
240.7006821086554
 30
0.0
 11
137.7141736972735
 21
240.7006821086554
 31
0.0
  0
LINE
  5
6C1
330
2
100
AcDbEntity
  8
0
100
AcDbLine
 10
129.2141736972735
 20
251.1380751086554
 30
0.0
 11
137.7141736972735
 21
251.1380751086554
 31
0.0
  0
LINE
  5
6C7
330
2
100
AcDbEntity
  8
0
100
AcDbLine
 10
267.7141776972735
 20
251.1380751086554
 30
0.0
 11
267.7141776972735
 21
145.1380751086554
 31
0.0
  0
LINE
  5
6C8
330
2
100
AcDbEntity
  8
0
100
AcDbLine
 10
315.2141776972734
 20
167.8940801086554
 30
0.0
 11
315.2141776972734
 21
282.1380751086554
 31
0.0
  0
LINE
  5
6C9
330
2
100
AcDbEntity
  8
0
100
AcDbLine
 10
257.7141776972735
 20
249.1380751086554
 30
0.0
 11
257.7141776972735
 21
147.1380561086554
 31
0.0
  0
ARC
  5
6CA
330
2
100
AcDbEntity
  8
0
100
AcDbCircle
 10
546.8957726972734
 20
213.1380751086554
 30
0.0
 40
215.181595
100
AcDbArc
 50
167.0178990000001
 51
192.9821009999998
  0
LINE
  5
6CB
330
2
100
AcDbEntity
  8
0
100
AcDbLine
 10
364.0229696972735
 20
203.5101381086554
 30
0.0
 11
380.3561606972735
 21
277.0456981086554
 31
0.0
  0
LINE
  5
6CC
330
2
100
AcDbEntity
  8
0
100
AcDbLine
 10
360.1181846972735
 20
204.3774401086554
 30
0.0
 11
376.4511616972733
 21
277.9129781086554
 31
0.0
  0
LINE
  5
6CD
330
2
100
AcDbEntity
  8
0
100
AcDbLine
 10
337.2141776972735
 20
299.9700761086554
 30
0.0
 11
337.2141776972735
 21
101.6380771086554
 31
0.0
  0
LINE
  5
6CE
330
2
100
AcDbEntity
  8
CENTER
100
AcDbLine
 10
427.2141626972734
 20
359.1380751086553
 30
0.0
 11
427.2141626972734
 21
86.63807710865546
 31
0.0
  0
LINE
  5
6CF
330
2
100
AcDbEntity
  8
0
100
AcDbLine
 10
324.2141776972735
 20
142.1380751086554
 30
0.0
 11
324.2141776972735
 21
284.1380751086554
 31
0.0
  0
ARC
  5
6D0
330
2
100
AcDbEntity
  8
0
100
AcDbCircle
 10
397.2141626972734
 20
196.1380751086554
 30
0.0
 40
38.0
100
AcDbArc
 50
167.4774020000002
 51
270.0
  0
ARC
  5
6D1
330
2
100
AcDbEntity
  8
0
100
AcDbCircle
 10
397.2141626972734
 20
196.1380751086554
 30
0.0
 40
34.0
100
AcDbArc
 50
167.4774020000002
 51
270.0
  0
LINE
  5
6D2
330
2
100
AcDbEntity
  8
0
100
AcDbLine
 10
351.2141626972734
 20
118.9527571086554
 30
0.0
 11
351.2141626972734
 21
101.6380771086554
 31
0.0
  0
LINE
  5
6D3
330
2
100
AcDbEntity
  8
0
100
AcDbLine
 10
296.2141776972734
 20
145.1380751086554
 30
0.0
 11
267.7141776972735
 21
145.1380751086554
 31
0.0
  0
ARC
  5
6D4
330
2
100
AcDbEntity
  8
0
100
AcDbCircle
 10
259.7141776972735
 20
147.1380751086554
 30
0.0
 40
2.0
100
AcDbArc
 50
180.0
 51
270.0
  0
LINE
  5
6D5
330
2
100
AcDbEntity
  8
0
100
AcDbLine
 10
296.2141776972734
 20
147.1380751086554
 30
0.0
 11
296.2141776972734
 21
163.8940761086554
 31
0.0
  0
LINE
  5
6D6
330
2
100
AcDbEntity
  8
0
100
AcDbLine
 10
317.2141776972734
 20
142.1380981086554
 30
0.0
 11
324.2141776972735
 21
142.1380981086554
 31
0.0
  0
LINE
  5
6D7
330
2
100
AcDbEntity
  8
0
100
AcDbLine
 10
296.2141776972734
 20
145.1380751086554
 30
0.0
 11
313.3411916972734
 21
145.1380751086554
 31
0.0
  0
ARC
  5
6D8
330
2
100
AcDbEntity
  8
0
100
AcDbCircle
 10
294.2141776972734
 20
147.1380751086554
 30
0.0
 40
2.0
100
AcDbArc
 50
270.0
 51
0.0
  0
ARC
  5
6D9
330
2
100
AcDbEntity
  8
0
100
AcDbCircle
 10
313.3411916972734
 20
143.1380751086554
 30
0.0
 40
2.0
100
AcDbArc
 50
14.47728000000024
 51
90.0
  0
ARC
  5
6DA
330
2
100
AcDbEntity
  8
0
100
AcDbCircle
 10
317.2141776972734
 20
144.1380751086554
 30
0.0
 40
2.0
100
AcDbArc
 50
194.477707
 51
270.0
  0
LINE
  5
6DB
330
2
100
AcDbEntity
  8
0
100
AcDbLine
 10
324.2141776972735
 20
142.1380751086554
 30
0.0
 11
332.2141776972735
 21
142.1380751086554
 31
0.0
  0
ARC
  5
6DC
330
2
100
AcDbEntity
  8
0
100
AcDbCircle
 10
332.2141776972735
 20
137.1380561086554
 30
0.0
 40
5.0
100
AcDbArc
 50
0.0
 51
90.0
  0
LINE
  5
6DD
330
2
100
AcDbEntity
  8
0
100
AcDbLine
 10
313.2141776972734
 20
165.8940801086554
 30
0.0
 11
298.2141776972735
 21
165.8940801086554
 31
0.0
  0
ARC
  5
6DE
330
2
100
AcDbEntity
  8
0
100
AcDbCircle
 10
298.2141776972735
 20
163.8940991086554
 30
0.0
 40
2.0
100
AcDbArc
 50
90.0
 51
180.0
  0
ARC
  5
6DF
330
2
100
AcDbEntity
  8
0
100
AcDbCircle
 10
313.2141776972734
 20
167.8940801086554
 30
0.0
 40
2.0
100
AcDbArc
 50
270.0
 51
0.0
  0
LINE
  5
6E0
330
2
100
AcDbEntity
  8
HIDS
100
AcDbLine
 10
359.7141626972734
 20
121.6380771086554
 30
0.0
 11
359.7141626972734
 21
101.6380771086554
 31
0.0
  0
LINE
  5
6E1
330
2
100
AcDbEntity
  8
HIDS
100
AcDbLine
 10
374.7141626972734
 20
121.6380771086554
 30
0.0
 11
374.7141626972734
 21
101.6380771086554
 31
0.0
  0
LINE
  5
6E2
330
2
100
AcDbEntity
  8
HIDS
100
AcDbLine
 10
479.7141626972734
 20
121.6380771086554
 30
0.0
 11
479.7141626972734
 21
101.6380771086554
 31
0.0
  0
LINE
  5
6E3
330
2
100
AcDbEntity
  8
CENTER
100
AcDbLine
 10
367.2141626972734
 20
128.6380771086554
 30
0.0
 11
367.2141626972735
 21
94.63807710865546
 31
0.0
  0
LINE
  5
6E4
330
2
100
AcDbEntity
  8
CENTER
100
AcDbLine
 10
487.2141626972734
 20
128.6380771086554
 30
0.0
 11
487.2141626972734
 21
94.63807710865546
 31
0.0
  0
LINE
  5
6E5
330
2
100
AcDbEntity
  8
0
100
AcDbLine
 10
422.4641626972734
 20
194.3880751086554
 30
0.0
 11
431.9641626972734
 21
194.3880751086554
 31
0.0
  0
LINE
  5
6E6
330
2
100
AcDbEntity
  8
0
100
AcDbLine
 10
422.4641626972734
 20
191.4193181086554
 30
0.0
 11
423.5187586972735
 21
191.4193181086554
 31
0.0
  0
LINE
  5
6E7
330
2
100
AcDbEntity
  8
0
100
AcDbLine
 10
397.2141626972734
 20
158.1380751086554
 30
0.0
 11
457.2141626972734
 21
158.1380751086554
 31
0.0
  0
LINE
  5
6E8
330
2
100
AcDbEntity
  8
0
100
AcDbLine
 10
397.2141626972734
 20
162.1380751086554
 30
0.0
 11
457.2141626972734
 21
162.1380751086554
 31
0.0
  0
LINE
  5
6E9
330
2
100
AcDbEntity
  8
0
100
AcDbLine
 10
460.9715786972734
 20
126.6380771086554
 30
0.0
 11
393.4567776972735
 21
126.6380771086554
 31
0.0
  0
LINE
  5
6EA
330
2
100
AcDbEntity
  8
0
100
AcDbLine
 10
391.3355616972735
 20
125.7593981086554
 30
0.0
 11
388.6785786972734
 21
123.1025781086554
 31
0.0
  0
ARC
  5
6EB
330
2
100
AcDbEntity
  8
0
100
AcDbCircle
 10
385.1431786972734
 20
126.6380771086554
 30
0.0
 40
5.0
100
AcDbArc
 50
270.0
 51
315.0000919999998
  0
ARC
  5
6EC
330
2
100
AcDbEntity
  8
0
100
AcDbCircle
 10
391.2141626972734
 20
122.6380771086554
 30
0.0
 40
1.0
100
AcDbArc
 50
270.0
 51
0.0
  0
ARC
  5
6ED
330
2
100
AcDbEntity
  8
0
100
AcDbCircle
 10
393.4567776972735
 20
123.6380771086554
 30
0.0
 40
3.0
100
AcDbArc
 50
90.0
 51
135.0003970000001
  0
LINE
  5
6EE
330
2
100
AcDbEntity
  8
0
100
AcDbLine
 10
392.2141626972734
 20
125.5011961086554
 30
0.0
 11
392.2141626972734
 21
122.6380771086554
 31
0.0
  0
ARC
  5
6EF
330
2
100
AcDbEntity
  8
0
100
AcDbCircle
 10
413.3723656972733
 20
184.7767391086554
 30
0.0
 40
2.96875
100
AcDbArc
 50
270.0002139999998
 51
0.0001089999998967
  0
LINE
  5
6F0
330
2
100
AcDbEntity
  8
0
100
AcDbLine
 10
409.8099876972735
 20
191.1654951086554
 30
0.0
 11
409.8099876972735
 21
182.9559161086554
 31
0.0
  0
LINE
  5
6F1
330
2
100
AcDbEntity
  8
0
100
AcDbLine
 10
408.2141626972734
 20
192.1796171086554
 30
0.0
 11
408.2141626972734
 21
181.9871961086554
 31
0.0
  0
LINE
  5
6F2
330
2
100
AcDbEntity
  8
0
100
AcDbLine
 10
417.7141626972733
 20
188.4134731086554
 30
0.0
 11
417.7141626972733
 21
180.1380751086554
 31
0.0
  0
LINE
  5
6F3
330
2
100
AcDbEntity
  8
0
100
AcDbLine
 10
414.9871726972734
 20
180.1380751086554
 30
0.0
 11
410.0467736972734
 21
180.1380751086554
 31
0.0
  0
LINE
  5
6F4
330
2
100
AcDbEntity
  8
0
100
AcDbLine
 10
413.3723656972733
 20
181.8079971086554
 30
0.0
 11
410.8997706972734
 21
181.8079971086554
 31
0.0
  0
LINE
  5
6F5
330
2
100
AcDbEntity
  8
0
100
AcDbLine
 10
408.2141626972734
 20
181.9871961086554
 30
0.0
 11
410.0467736972734
 21
180.1380751086554
 31
0.0
  0
LINE
  5
6F6
330
2
100
AcDbEntity
  8
0
100
AcDbLine
 10
409.8099876972735
 20
182.9559161086554
 30
0.0
 11
410.8997706972734
 21
181.8079971086554
 31
0.0
  0
LINE
  5
6F7
330
2
100
AcDbEntity
  8
0
100
AcDbLine
 10
416.3411766972734
 20
181.2740001086554
 30
0.0
 11
414.9871726972734
 21
180.1380751086554
 31
0.0
  0
LINE
  5
6F8
330
2
100
AcDbEntity
  8
0
100
AcDbLine
 10
416.3411766972734
 20
180.1380751086554
 30
0.0
 11
417.7141626972733
 21
180.1380751086554
 31
0.0
  0
LINE
  5
6F9
330
2
100
AcDbEntity
  8
0
100
AcDbLine
 10
416.3411766972734
 20
181.2740001086554
 30
0.0
 11
416.3411766972734
 21
180.1380751086554
 31
0.0
  0
LINE
  5
6FA
330
2
100
AcDbEntity
  8
0
100
AcDbLine
 10
416.3411766972734
 20
186.8548801086554
 30
0.0
 11
413.8547876972734
 21
186.8548801086554
 31
0.0
  0
LINE
  5
6FB
330
2
100
AcDbEntity
  8
0
100
AcDbLine
 10
413.8547876972734
 20
188.4134731086554
 30
0.0
 11
417.7141626972733
 21
188.4134731086554
 31
0.0
  0
LINE
  5
6FC
330
2
100
AcDbEntity
  8
0
100
AcDbLine
 10
409.9389856972734
 20
194.3880751086554
 30
0.0
 11
416.3267726972734
 21
194.3880751086554
 31
0.0
  0
LINE
  5
6FD
330
2
100
AcDbEntity
  8
0
100
AcDbLine
 10
415.4601646972735
 20
192.4954971086554
 30
0.0
 11
410.8825586972734
 21
192.4954971086554
 31
0.0
  0
LINE
  5
6FE
330
2
100
AcDbEntity
  8
0
100
AcDbLine
 10
413.8547876972734
 20
188.4134731086554
 30
0.0
 11
413.8547876972734
 21
186.8548801086554
 31
0.0
  0
LINE
  5
6FF
330
2
100
AcDbEntity
  8
0
100
AcDbLine
 10
409.9389856972734
 20
194.3880751086554
 30
0.0
 11
408.2141626972734
 21
192.1796171086554
 31
0.0
  0
LINE
  5
700
330
2
100
AcDbEntity
  8
0
100
AcDbLine
 10
410.8825586972734
 20
192.4954971086554
 30
0.0
 11
409.8099876972735
 21
191.1654951086554
 31
0.0
  0
LINE
  5
701
330
2
100
AcDbEntity
  8
0
100
AcDbLine
 10
416.3411766972734
 20
191.6439351086554
 30
0.0
 11
416.3411766972734
 21
191.4193181086554
 31
0.0
  0
LINE
  5
702
330
2
100
AcDbEntity
  8
0
100
AcDbLine
 10
416.3411766972734
 20
186.8548801086554
 30
0.0
 11
416.3411766972734
 21
184.7767391086554
 31
0.0
  0
LINE
  5
703
330
2
100
AcDbEntity
  8
0
100
AcDbLine
 10
417.7141626972733
 20
192.8484941086554
 30
0.0
 11
417.7141626972733
 21
191.4193181086554
 31
0.0
  0
LINE
  5
704
330
2
100
AcDbEntity
  8
0
100
AcDbLine
 10
416.3411766972734
 20
185.3704971086554
 30
0.0
 11
416.3411766972734
 21
186.5579971086554
 31
0.0
  0
LINE
  5
705
330
2
100
AcDbEntity
  8
0
100
AcDbLine
 10
416.3411766972734
 20
191.4193181086554
 30
0.0
 11
417.7141626972733
 21
191.4193181086554
 31
0.0
  0
LINE
  5
706
330
2
100
AcDbEntity
  8
0
100
AcDbLine
 10
416.3267726972734
 20
194.3880751086554
 30
0.0
 11
417.7141626972733
 21
192.8484941086554
 31
0.0
  0
LINE
  5
707
330
2
100
AcDbEntity
  8
0
100
AcDbLine
 10
416.3411766972734
 20
191.6439351086554
 30
0.0
 11
415.4421596972733
 21
192.4954971086554
 31
0.0
  0
LINE
  5
708
330
2
100
AcDbEntity
  8
0
100
AcDbLine
 10
422.4641626972734
 20
191.4193181086554
 30
0.0
 11
422.4641626972734
 21
194.3880751086554
 31
0.0
  0
LINE
  5
709
330
2
100
AcDbEntity
  8
0
100
AcDbLine
 10
463.0927636972735
 20
125.7593981086554
 30
0.0
 11
465.7497766972734
 21
123.1025161086554
 31
0.0
  0
ARC
  5
70A
330
2
100
AcDbEntity
  8
0
100
AcDbCircle
 10
463.2141626972734
 20
122.6380771086554
 30
0.0
 40
1.0
100
AcDbArc
 50
180.0
 51
270.0
  0
ARC
  5
70B
330
2
100
AcDbEntity
  8
0
100
AcDbCircle
 10
460.9715786972734
 20
123.6380771086554
 30
0.0
 40
3.0
100
AcDbArc
 50
45.00025900000007
 51
90.0
  0
LINE
  5
70C
330
2
100
AcDbEntity
  8
0
100
AcDbLine
 10
462.2141626972734
 20
125.5011961086554
 30
0.0
 11
462.2141626972734
 21
122.6380771086554
 31
0.0
  0
ARC
  5
70D
330
2
100
AcDbEntity
  8
0
100
AcDbCircle
 10
469.2851766972735
 20
126.6380771086554
 30
0.0
 40
5.0
100
AcDbArc
 50
225.0001069999998
 51
270.0
  0
LINE
  5
70E
330
2
100
AcDbEntity
  8
0
100
AcDbLine
 10
442.0927636972735
 20
186.7992161086554
 30
0.0
 11
444.3205776972734
 21
181.6224581086554
 31
0.0
  0
LINE
  5
70F
330
2
100
AcDbEntity
  8
0
100
AcDbLine
 10
443.4599816972734
 20
186.9283351086554
 30
0.0
 11
445.8143826972734
 21
181.6224581086554
 31
0.0
  0
LINE
  5
710
330
2
100
AcDbEntity
  8
0
100
AcDbLine
 10
439.0521756972734
 20
186.7992161086554
 30
0.0
 11
439.0521756972734
 21
181.6224581086554
 31
0.0
  0
LINE
  5
711
330
2
100
AcDbEntity
  8
0
100
AcDbLine
 10
437.4193626972735
 20
192.6439351086554
 30
0.0
 11
437.4193626972735
 21
181.6224581086554
 31
0.0
  0
LINE
  5
712
330
2
100
AcDbEntity
  8
0
100
AcDbLine
 10
428.0677696972734
 20
192.6439351086554
 30
0.0
 11
428.0677696972734
 21
181.6966771086554
 31
0.0
  0
LINE
  5
713
330
2
100
AcDbEntity
  8
0
100
AcDbLine
 10
426.2863666972735
 20
192.6439351086554
 30
0.0
 11
426.2863666972735
 21
181.6966771086554
 31
0.0
  0
LINE
  5
714
330
2
100
AcDbEntity
  8
0
100
AcDbLine
 10
439.7015586972734
 20
180.1380751086554
 30
0.0
 11
436.7141626972734
 21
180.1380751086554
 31
0.0
  0
LINE
  5
715
330
2
100
AcDbEntity
  8
0
100
AcDbLine
 10
439.0521756972734
 20
181.6224581086554
 30
0.0
 11
439.7015586972734
 21
181.6224581086554
 31
0.0
  0
LINE
  5
716
330
2
100
AcDbEntity
  8
0
100
AcDbLine
 10
425.5813806972735
 20
181.6966771086554
 30
0.0
 11
426.2863666972735
 21
181.6966771086554
 31
0.0
  0
LINE
  5
717
330
2
100
AcDbEntity
  8
0
100
AcDbLine
 10
425.5813806972735
 20
180.1380751086554
 30
0.0
 11
428.6613666972734
 21
180.1380751086554
 31
0.0
  0
LINE
  5
718
330
2
100
AcDbEntity
  8
0
100
AcDbLine
 10
428.6613666972734
 20
181.6966771086554
 30
0.0
 11
428.6613666972734
 21
180.1380751086554
 31
0.0
  0
LINE
  5
719
330
2
100
AcDbEntity
  8
0
100
AcDbLine
 10
425.5813806972735
 20
181.6966771086554
 30
0.0
 11
425.5813806972735
 21
180.1380751086554
 31
0.0
  0
LINE
  5
71A
330
2
100
AcDbEntity
  8
0
100
AcDbLine
 10
428.0677696972734
 20
181.6966771086554
 30
0.0
 11
428.6613666972734
 21
181.6966771086554
 31
0.0
  0
LINE
  5
71B
330
2
100
AcDbEntity
  8
0
100
AcDbLine
 10
436.7141626972734
 20
181.6224581086554
 30
0.0
 11
436.7141626972734
 21
180.1380751086554
 31
0.0
  0
LINE
  5
71C
330
2
100
AcDbEntity
  8
0
100
AcDbLine
 10
436.7141626972734
 20
181.6224581086554
 30
0.0
 11
437.4193626972735
 21
181.6224581086554
 31
0.0
  0
LINE
  5
71D
330
2
100
AcDbEntity
  8
0
100
AcDbLine
 10
439.7015586972734
 20
181.6224581086554
 30
0.0
 11
439.7015586972734
 21
180.1380751086554
 31
0.0
  0
LINE
  5
71E
330
2
100
AcDbEntity
  8
0
100
AcDbLine
 10
444.0247706972733
 20
181.6224581086554
 30
0.0
 11
444.0247706972733
 21
180.1380751086554
 31
0.0
  0
LINE
  5
71F
330
2
100
AcDbEntity
  8
0
100
AcDbLine
 10
446.2141626972734
 20
181.6224581086554
 30
0.0
 11
446.2141626972734
 21
180.1380751086554
 31
0.0
  0
LINE
  5
720
330
2
100
AcDbEntity
  8
0
100
AcDbLine
 10
444.0247706972733
 20
180.1380751086554
 30
0.0
 11
446.2141626972734
 21
180.1380751086554
 31
0.0
  0
LINE
  5
721
330
2
100
AcDbEntity
  8
0
100
AcDbLine
 10
445.8143826972734
 20
181.6224581086554
 30
0.0
 11
446.2141626972734
 21
181.6224581086554
 31
0.0
  0
LINE
  5
722
330
2
100
AcDbEntity
  8
0
100
AcDbLine
 10
444.0247706972733
 20
181.6224581086554
 30
0.0
 11
444.3205776972734
 21
181.6224581086554
 31
0.0
  0
LINE
  5
723
330
2
100
AcDbEntity
  8
0
100
AcDbLine
 10
439.0521756972734
 20
192.6439351086554
 30
0.0
 11
443.4851586972735
 21
192.6410581086554
 31
0.0
  0
LINE
  5
724
330
2
100
AcDbEntity
  8
0
100
AcDbLine
 10
439.0521756972734
 20
186.7992161086554
 30
0.0
 11
442.0927636972735
 21
186.7992161086554
 31
0.0
  0
LINE
  5
725
330
2
100
AcDbEntity
  8
0
100
AcDbLine
 10
442.7099816972734
 20
188.2832401086554
 30
0.0
 11
439.0521756972734
 21
188.2832401086554
 31
0.0
  0
LINE
  5
726
330
2
100
AcDbEntity
  8
0
100
AcDbLine
 10
436.7141626972734
 20
194.3880751086554
 30
0.0
 11
442.4103596972734
 21
194.3880751086554
 31
0.0
  0
LINE
  5
727
330
2
100
AcDbEntity
  8
0
100
AcDbLine
 10
430.9731656972735
 20
191.4193181086554
 30
0.0
 11
431.9641626972734
 21
191.4193181086554
 31
0.0
  0
LINE
  5
728
330
2
100
AcDbEntity
  8
0
100
AcDbLine
 10
426.2863666972735
 20
192.6439351086554
 30
0.0
 11
424.0289816972734
 21
192.6439351086554
 31
0.0
  0
LINE
  5
729
330
2
100
AcDbEntity
  8
0
100
AcDbLine
 10
428.0677696972734
 20
192.6439351086554
 30
0.0
 11
430.5429586972734
 21
192.6439351086554
 31
0.0
  0
LINE
  5
72A
330
2
100
AcDbEntity
  8
0
100
AcDbLine
 10
430.5429586972734
 20
192.6439351086554
 30
0.0
 11
430.9731656972735
 21
191.4193181086554
 31
0.0
  0
LINE
  5
72B
330
2
100
AcDbEntity
  8
0
100
AcDbLine
 10
424.0289816972734
 20
192.6439351086554
 30
0.0
 11
423.5187586972735
 21
191.4193181086554
 31
0.0
  0
LINE
  5
72C
330
2
100
AcDbEntity
  8
0
100
AcDbLine
 10
436.7141626972734
 20
192.6439351086554
 30
0.0
 11
437.4193626972735
 21
192.6439351086554
 31
0.0
  0
LINE
  5
72D
330
2
100
AcDbEntity
  8
0
100
AcDbLine
 10
439.0521756972734
 20
192.6439351086554
 30
0.0
 11
439.0521756972734
 21
188.2832401086554
 31
0.0
  0
LINE
  5
72E
330
2
100
AcDbEntity
  8
0
100
AcDbLine
 10
436.7141626972734
 20
194.3880751086554
 30
0.0
 11
436.7141626972734
 21
192.6439351086554
 31
0.0
  0
LINE
  5
72F
330
2
100
AcDbEntity
  8
0
100
AcDbLine
 10
431.9641626972734
 20
191.4193181086554
 30
0.0
 11
431.9641626972734
 21
194.3880751086554
 31
0.0
  0
ARC
  5
730
330
2
100
AcDbEntity
  8
0
100
AcDbCircle
 10
442.4103596972734
 20
190.5843571086554
 30
0.0
 40
2.320524
100
AcDbArc
 50
277.4147259999995
 51
62.41185000000021
  0
ARC
  5
731
330
2
100
AcDbEntity
  8
0
100
AcDbCircle
 10
442.4103596972734
 20
190.5843571086554
 30
0.0
 40
3.803712
100
AcDbArc
 50
286.0181269999995
 51
90.00350999999964
  0
LINE
  5
732
330
2
100
AcDbEntity
  8
0
100
AcDbLine
 10
341.4299826972734
 20
308.1273941086554
 30
0.0
 11
389.6155606972735
 21
342.2954241086554
 31
0.0
  0
LINE
  5
734
330
2
100
AcDbEntity
  8
0
100
AcDbLine
 10
267.7141776972735
 20
251.1380751086554
 30
0.0
 11
312.2141476972734
 21
251.1380751086554
 31
0.0
  0
ARC
  5
735
330
2
100
AcDbEntity
  8
0
100
AcDbCircle
 10
259.7141776972735
 20
249.1380901086554
 30
0.0
 40
2.0
100
AcDbArc
 50
90.0
 51
180.0
  0
ARC
  5
736
330
2
100
AcDbEntity
  8
0
100
AcDbCircle
 10
312.2141776972735
 20
264.8701161086554
 30
0.0
 40
3.0
100
AcDbArc
 50
300.0003400000001
 51
0.0
  0
LINE
  5
737
330
2
100
AcDbEntity
  8
0
100
AcDbLine
 10
313.7141776972735
 20
262.2720631086554
 30
0.0
 11
295.1259056972734
 21
251.5400071086554
 31
0.0
  0
ARC
  5
738
330
2
100
AcDbEntity
  8
0
100
AcDbCircle
 10
293.6258906972734
 20
254.1380751086554
 30
0.0
 40
3.0
100
AcDbArc
 50
270.0
 51
300.0003049999997
  0
ARC
  5
739
330
2
100
AcDbEntity
  8
0
100
AcDbCircle
 10
312.2141776972735
 20
254.1380751086554
 30
0.0
 40
3.0
100
AcDbArc
 50
270.0
 51
0.0
  0
LINE
  5
73A
330
2
100
AcDbEntity
  8
0
100
AcDbLine
 10
317.2141776972734
 20
284.1380751086554
 30
0.0
 11
324.2141776972735
 21
284.1380751086554
 31
0.0
  0
ARC
  5
73B
330
2
100
AcDbEntity
  8
0
100
AcDbCircle
 10
317.2141926972734
 20
282.1380751086554
 30
0.0
 40
2.0
100
AcDbArc
 50
90.0
 51
180.0
  0
LINE
  5
73C
330
2
100
AcDbEntity
  8
0
100
AcDbLine
 10
324.2141776972735
 20
284.1380751086554
 30
0.0
 11
332.2141776972735
 21
284.1380751086554
 31
0.0
  0
ARC
  5
73D
330
2
100
AcDbEntity
  8
0
100
AcDbCircle
 10
332.2141776972735
 20
289.1380751086554
 30
0.0
 40
5.0
100
AcDbArc
 50
270.0
 51
0.0
  0
ARC
  5
73E
330
2
100
AcDbEntity
  8
0
100
AcDbCircle
 10
347.2141626972734
 20
299.9701221086554
 30
0.0
 40
10.0
100
AcDbArc
 50
125.3404999999999
 51
180.0
  0
ARC
  5
73F
330
2
100
AcDbEntity
  8
0
100
AcDbCircle
 10
427.2141626972734
 20
266.6380751086554
 30
0.0
 40
52.0
100
AcDbArc
 50
12.52272000000005
 51
167.4774020000002
  0
ARC
  5
740
330
2
100
AcDbEntity
  8
0
100
AcDbCircle
 10
427.2141626972734
 20
266.6380751086554
 30
0.0
 40
20.0
100
AcDbArc
 50
17.45760000000002
 51
342.5423890000003
  0
ARC
  5
741
330
2
100
AcDbEntity
  8
0
100
AcDbCircle
 10
427.2141626972734
 20
266.6380751086554
 30
0.0
 40
48.0
100
AcDbArc
 50
167.4774020000002
 51
12.52272000000005
  0
CIRCLE
  5
742
330
2
100
AcDbEntity
  8
0
100
AcDbCircle
 10
427.2141626972734
 20
266.6380751086554
 30
0.0
 40
46.0
  0
LINE
  5
743
330
2
100
AcDbEntity
  8
0
100
AcDbLine
 10
450.2141626972734
 20
260.6381511086554
 30
0.0
 11
450.2141626972734
 21
272.6381511086554
 31
0.0
  0
LINE
  5
744
330
2
100
AcDbEntity
  8
0
100
AcDbLine
 10
442.2141626972734
 20
260.6381361086554
 30
0.0
 11
442.2141626972734
 21
272.6381361086554
 31
0.0
  0
LINE
  5
745
330
2
100
AcDbEntity
  8
0
100
AcDbLine
 10
450.2141626972734
 20
260.6381511086554
 30
0.0
 11
442.2141626972734
 21
260.6381361086554
 31
0.0
  0
LINE
  5
746
330
2
100
AcDbEntity
  8
0
100
AcDbLine
 10
450.2141626972734
 20
272.6381511086554
 30
0.0
 11
442.2141626972734
 21
272.6381361086554
 31
0.0
  0
LINE
  5
747
330
2
100
AcDbEntity
  8
0
100
AcDbLine
 10
395.3997706972734
 20
344.1380751086554
 30
0.0
 11
459.0285846972734
 21
344.1380751086554
 31
0.0
  0
ARC
  5
748
330
2
100
AcDbEntity
  8
0
100
AcDbCircle
 10
395.3997706972734
 20
334.1380751086554
 30
0.0
 40
10.0
100
AcDbArc
 50
90.0
 51
125.3403019999997
  0
ARC
  5
749
330
2
100
AcDbEntity
  8
0
100
AcDbCircle
 10
459.0285846972734
 20
334.1380751086554
 30
0.0
 40
10.0
100
AcDbArc
 50
54.65994999999999
 51
90.0
  0
LINE
  5
74A
330
2
100
AcDbEntity
  8
0
100
AcDbLine
 10
137.7141736972735
 20
592.6773320481454
 30
0.0
 11
257.7141776972735
 21
592.6773320481454
 31
0.0
  0
LINE
  5
74B
330
2
100
AcDbEntity
  8
0
100
AcDbLine
 10
137.7141736972735
 20
655.6773320481454
 30
0.0
 11
257.7141776972735
 21
655.6773320481454
 31
0.0
  0
LINE
  5
74C
330
2
100
AcDbEntity
  8
0
100
AcDbLine
 10
137.7141736972735
 20
571.1773320481454
 30
0.0
 11
267.7141776972735
 21
571.1773320481454
 31
0.0
  0
LINE
  5
74D
330
2
100
AcDbEntity
  8
0
100
AcDbLine
 10
137.7141736972735
 20
677.1773320481454
 30
0.0
 11
267.7141776972735
 21
677.1773320481454
 31
0.0
  0
LINE
  5
74E
330
2
100
AcDbEntity
  8
0
100
AcDbLine
 10
80.2141306972735
 20
579.1773320481454
 30
0.0
 11
80.2141306972735
 21
669.1773320481454
 31
0.0
  0
LINE
  5
74F
330
2
100
AcDbEntity
  8
0
100
AcDbLine
 10
129.2141316972733
 20
679.1773320481454
 30
0.0
 11
129.2141316972733
 21
647.6773970481452
 31
0.0
  0
LINE
  5
750
330
2
100
AcDbEntity
  8
0
100
AcDbLine
 10
137.7141736972735
 20
649.1773320481454
 30
0.0
 11
137.7141736972735
 21
677.1773320481454
 31
0.0
  0
ARC
  5
751
330
2
100
AcDbEntity
  8
0
100
AcDbCircle
 10
90.2141306972735
 20
579.1773320481454
 30
0.0
 40
10.0
100
AcDbArc
 50
180.0
 51
270.0
  0
LINE
  5
752
330
2
100
AcDbEntity
  8
0
100
AcDbLine
 10
85.2141306972735
 20
593.6773320481454
 30
0.0
 11
129.2141316972733
 21
593.6773320481454
 31
0.0
  0
LINE
  5
753
330
2
100
AcDbEntity
  8
0
100
AcDbLine
 10
85.2141306972735
 20
654.6773320481454
 30
0.0
 11
129.2141316972733
 21
654.6773320481454
 31
0.0
  0
LINE
  5
754
330
2
100
AcDbEntity
  8
0
100
AcDbLine
 10
137.7141736972735
 20
571.1773320481454
 30
0.0
 11
137.7141736972735
 21
599.1773320481454
 31
0.0
  0
LINE
  5
755
330
2
100
AcDbEntity
  8
0
100
AcDbLine
 10
90.2141306972735
 20
569.1773320481454
 30
0.0
 11
129.2141316972733
 21
569.1773320481454
 31
0.0
  0
ARC
  5
756
330
2
100
AcDbEntity
  8
0
100
AcDbCircle
 10
129.2141316972733
 20
582.4074960481454
 30
0.0
 40
3.0
100
AcDbArc
 50
0.0
 51
90.0
  0
ARC
  5
757
330
2
100
AcDbEntity
  8
0
100
AcDbCircle
 10
129.2141316972733
 20
582.4074960481454
 30
0.0
 40
4.5
100
AcDbArc
 50
0.0
 51
90.0
  0
LINE
  5
758
330
2
100
AcDbEntity
  8
0
100
AcDbLine
 10
129.2141316972733
 20
571.1773320481454
 30
0.0
 11
137.7141736972735
 21
571.1773320481454
 31
0.0
  0
LINE
  5
759
330
2
100
AcDbEntity
  8
HOJO
100
AcDbLine
 10
132.2141316972733
 20
578.4074960481454
 30
0.0
 11
133.7141316972733
 21
577.9074960481454
 31
0.0
  0
LINE
  5
75A
330
2
100
AcDbEntity
  8
HOJO
100
AcDbLine
 10
130.7141316972733
 20
577.4074960481454
 30
0.0
 11
132.2141316972733
 21
577.9074960481454
 31
0.0
  0
LINE
  5
75B
330
2
100
AcDbEntity
  8
0
100
AcDbLine
 10
133.7141316972733
 20
582.4074960481454
 30
0.0
 11
133.7141316972733
 21
577.9074960481454
 31
0.0
  0
LINE
  5
75C
330
2
100
AcDbEntity
  8
0
100
AcDbLine
 10
132.2141316972733
 20
582.4074960481454
 30
0.0
 11
132.2141316972733
 21
577.9074960481454
 31
0.0
  0
LINE
  5
75D
330
2
100
AcDbEntity
  8
0
100
AcDbLine
 10
130.7141316972733
 20
582.4074960481454
 30
0.0
 11
130.7141316972733
 21
577.3918710481455
 31
0.0
  0
ARC
  5
75E
330
2
100
AcDbEntity
  8
0
100
AcDbCircle
 10
129.2141316972733
 20
582.4074960481454
 30
0.0
 40
1.5
100
AcDbArc
 50
0.0
 51
90.0
  0
LINE
  5
75F
330
2
100
AcDbEntity
  8
0
100
AcDbLine
 10
137.7141736972735
 20
592.6773320481454
 30
0.0
 11
129.2141316972733
 21
592.6773320481454
 31
0.0
  0
LINE
  5
76E
330
2
100
AcDbEntity
  8
0
100
AcDbLine
 10
137.7141736972735
 20
655.6773320481454
 30
0.0
 11
129.2141316972733
 21
655.6773320481454
 31
0.0
  0
ARC
  5
76F
330
2
100
AcDbEntity
  8
0
100
AcDbCircle
 10
90.2142206972735
 20
669.1773320481454
 30
0.0
 40
10.0
100
AcDbArc
 50
90.0
 51
180.0
  0
LINE
  5
770
330
2
100
AcDbEntity
  8
0
100
AcDbLine
 10
90.2141306972735
 20
679.1773320481454
 30
0.0
 11
129.2141316972733
 21
679.1773320481454
 31
0.0
  0
LINE
  5
771
330
2
100
AcDbEntity
  8
0
100
AcDbLine
 10
129.2141316972733
 20
677.1773320481454
 30
0.0
 11
137.7141736972735
 21
677.1773320481454
 31
0.0
  0
LINE
  5
772
330
2
100
AcDbEntity
  8
0
100
AcDbLine
 10
257.7141776972735
 20
675.1773320481454
 30
0.0
 11
257.7141776972735
 21
655.6773320481454
 31
0.0
  0
LINE
  5
773
330
2
100
AcDbEntity
  8
0
100
AcDbLine
 10
267.7146816972734
 20
677.1773320481454
 30
0.0
 11
267.7146816972734
 21
571.1773320481454
 31
0.0
  0
LINE
  5
774
330
2
100
AcDbEntity
  8
0
100
AcDbLine
 10
315.2146816972734
 20
555.1773320481454
 30
0.0
 11
315.2146816972734
 21
693.1773320481454
 31
0.0
  0
LINE
  5
775
330
2
100
AcDbEntity
  8
0
100
AcDbLine
 10
392.2144066972734
 20
577.1775460481453
 30
0.0
 11
392.2144066972734
 21
671.1775760481454
 31
0.0
  0
LINE
  5
776
330
2
100
AcDbEntity
  8
0
100
AcDbLine
 10
462.2143756972734
 20
577.1775460481453
 30
0.0
 11
462.2143756972734
 21
671.1775760481454
 31
0.0
  0
LINE
  5
777
330
2
100
AcDbEntity
  8
0
100
AcDbLine
 10
324.2146816972734
 20
695.1772710481455
 30
0.0
 11
324.2142846972734
 21
553.1773930481453
 31
0.0
  0
LINE
  5
778
330
2
100
AcDbEntity
  8
0
100
AcDbLine
 10
337.2144826972735
 20
624.1773320481454
 30
0.0
 11
338.0710346972735
 21
673.2299440481454
 31
0.0
  0
LINE
  5
779
330
2
100
AcDbEntity
  8
CENTER
100
AcDbLine
 10
427.2141614140876
 20
469.1773320481784
 30
0.0
 11
427.2148125300807
 21
779.1773320481125
 31
0.0
  0
ARC
  5
77A
330
2
100
AcDbEntity
  8
0
100
AcDbCircle
 10
352.2142846972734
 20
565.1775460481453
 30
0.0
 40
7.0
100
AcDbArc
 50
0.0
 51
90.0
  0
ARC
  5
77C
330
2
100
AcDbEntity
  8
0
100
AcDbCircle
 10
358.3458766972735
 20
544.1773630481455
 30
0.0
 40
10.0
100
AcDbArc
 50
199.0108949999999
 51
270.0
  0
LINE
  5
77D
330
2
100
AcDbEntity
  8
0
100
AcDbLine
 10
335.3240866972735
 20
566.9892220481454
 30
0.0
 11
333.0134936972734
 21
558.3656260481454
 31
0.0
  0
LINE
  5
77E
330
2
100
AcDbEntity
  8
0
100
AcDbLine
 10
348.8912866972734
 20
540.9199160481453
 30
0.0
 11
338.1222736972735
 21
572.1773930481454
 31
0.0
  0
LINE
  5
77F
330
2
100
AcDbEntity
  8
0
100
AcDbLine
 10
317.2146816972734
 20
553.1773320481454
 30
0.0
 11
324.2142846972734
 21
553.1773320481454
 31
0.0
  0
ARC
  5
780
330
2
100
AcDbEntity
  8
0
100
AcDbCircle
 10
317.2146816972734
 20
555.1773320481454
 30
0.0
 40
2.0
100
AcDbArc
 50
180.0
 51
270.0
  0
ARC
  5
781
330
2
100
AcDbEntity
  8
0
100
AcDbCircle
 10
326.2518826972734
 20
560.1774240481454
 30
0.0
 40
7.0
100
AcDbArc
 50
270.0
 51
345.0001000000002
  0
LINE
  5
782
330
2
100
AcDbEntity
  8
0
100
AcDbLine
 10
326.2518826972734
 20
553.1773930481453
 30
0.0
 11
324.2142846972734
 21
553.1773930481453
 31
0.0
  0
LINE
  5
783
330
2
100
AcDbEntity
  8
0
100
AcDbLine
 10
267.7146816972734
 20
571.1773320481454
 30
0.0
 11
315.2146816972734
 21
571.1773320481454
 31
0.0
  0
LINE
  5
784
330
2
100
AcDbEntity
  8
0
100
AcDbLine
 10
257.7141776972735
 20
592.6773320481454
 30
0.0
 11
257.7141776972735
 21
573.1773020481454
 31
0.0
  0
ARC
  5
785
330
2
100
AcDbEntity
  8
0
100
AcDbCircle
 10
259.7141776972735
 20
573.1773320481454
 30
0.0
 40
2.0
100
AcDbArc
 50
180.0
 51
270.0
  0
LINE
  5
786
330
2
100
AcDbEntity
  8
0
100
AcDbLine
 10
315.2146816972734
 20
591.0173280481453
 30
0.0
 11
298.7642876972735
 21
611.7437990481454
 31
0.0
  0
LINE
  5
787
330
2
100
AcDbEntity
  8
0
100
AcDbLine
 10
337.2144826972735
 20
624.1773320481454
 30
0.0
 11
338.1222736972735
 21
572.1773930481454
 31
0.0
  0
ARC
  5
788
330
2
100
AcDbEntity
  8
0
100
AcDbCircle
 10
341.0705776972733
 20
575.1775460481453
 30
0.0
 40
3.0
100
AcDbArc
 50
181.0003659999995
 51
270.0
  0
ARC
  5
789
330
2
100
AcDbEntity
  8
0
100
AcDbCircle
 10
342.0856836972734
 20
565.1773930481454
 30
0.0
 40
7.0
100
AcDbArc
 50
121.1092070000002
 51
165.0003359999999
  0
LINE
  5
78A
330
2
100
AcDbEntity
  8
0
100
AcDbLine
 10
315.2146816972734
 20
657.3373050481454
 30
0.0
 11
298.7642876972735
 21
636.6108650481453
 31
0.0
  0
ARC
  5
78B
330
2
100
AcDbEntity
  8
0
100
AcDbCircle
 10
314.4297536972734
 20
624.1773320481454
 30
0.0
 40
20.0
100
AcDbArc
 50
180.0
 51
218.4387050000001
  0
ARC
  5
78C
330
2
100
AcDbEntity
  8
0
100
AcDbCircle
 10
314.4297536972734
 20
624.1773320481454
 30
0.0
 40
20.0
100
AcDbArc
 50
141.5612949999999
 51
180.0
  0
ARC
  5
78D
330
2
100
AcDbEntity
  8
0
100
AcDbCircle
 10
366.2142846972734
 20
565.1775460481453
 30
0.0
 40
7.0
100
AcDbArc
 50
180.0
 51
270.0
  0
ARC
  5
790
330
2
100
AcDbEntity
  8
0
100
AcDbCircle
 10
367.2142846972734
 20
554.1773320481454
 30
0.0
 40
7.5
100
AcDbArc
 50
133.921844
 51
32.23294099999961
  0
LINE
  5
791
330
2
100
AcDbEntity
  8
0
100
AcDbLine
 10
449.7144986972735
 20
549.1773320481454
 30
0.0
 11
404.7144986972734
 21
549.1773320481454
 31
0.0
  0
LINE
  5
792
330
2
100
AcDbEntity
  8
0
100
AcDbLine
 10
407.2144986972735
 20
484.1773320481454
 30
0.0
 11
450.2141626972734
 21
484.1773320481454
 31
0.0
  0
LINE
  5
793
330
2
100
AcDbEntity
  8
0
100
AcDbLine
 10
384.4337056972734
 20
551.1775460481453
 30
0.0
 11
469.9946186972733
 21
551.1775460481453
 31
0.0
  0
LINE
  5
794
330
2
100
AcDbEntity
  8
0
100
AcDbLine
 10
407.2144986972735
 20
549.1773320481454
 30
0.0
 11
407.2144986972735
 21
484.1773320481454
 31
0.0
  0
LINE
  5
795
330
2
100
AcDbEntity
  8
0
100
AcDbLine
 10
407.2144986972735
 20
534.1772410481453
 30
0.0
 11
358.3458766972735
 21
534.1773320481454
 31
0.0
  0
LINE
  5
796
330
2
100
AcDbEntity
  8
0
100
AcDbLine
 10
366.2142846972734
 20
558.1775460481453
 30
0.0
 11
375.2141626972734
 21
558.1774850481454
 31
0.0
  0
ARC
  5
797
330
2
100
AcDbEntity
  8
0
100
AcDbCircle
 10
384.4337056972734
 20
558.1774850481454
 30
0.0
 40
7.0
100
AcDbArc
 50
220.6012879999999
 51
270.0
  0
LINE
  5
798
330
2
100
AcDbEntity
  8
0
100
AcDbLine
 10
379.1189166972734
 20
553.6219430481453
 30
0.0
 11
375.2141626972734
 21
558.1774850481454
 31
0.0
  0
LINE
  5
799
330
2
100
AcDbEntity
  8
0
100
AcDbLine
 10
404.7144986972734
 20
551.1773320481454
 30
0.0
 11
404.7144986972734
 21
549.1773320481454
 31
0.0
  0
LINE
  5
79A
330
2
100
AcDbEntity
  8
0
100
AcDbLine
 10
446.2931726972734
 20
544.1777590481454
 30
0.0
 11
446.2931726972734
 21
484.1773320481454
 31
0.0
  0
LINE
  5
79B
330
2
100
AcDbEntity
  8
0
100
AcDbLine
 10
450.2141626972734
 20
484.1777590481454
 30
0.0
 11
450.2141626972734
 21
544.1777590481454
 31
0.0
  0
LINE
  5
79C
330
2
100
AcDbEntity
  8
0
100
AcDbLine
 10
447.2144986972734
 20
549.1773320481454
 30
0.0
 11
447.2144986972734
 21
544.1777590481454
 31
0.0
  0
LINE
  5
79D
330
2
100
AcDbEntity
  8
0
100
AcDbLine
 10
446.2931726972734
 20
544.1777590481454
 30
0.0
 11
450.2141626972734
 21
544.1777590481454
 31
0.0
  0
LINE
  5
79E
330
2
100
AcDbEntity
  8
0
100
AcDbLine
 10
449.7144986972735
 20
551.1773320481454
 30
0.0
 11
449.7144986972735
 21
549.1773320481454
 31
0.0
  0
ARC
  5
79F
330
2
100
AcDbEntity
  8
0
100
AcDbCircle
 10
469.9946186972733
 20
558.1774850481454
 30
0.0
 40
7.0
100
AcDbArc
 50
270.0
 51
319.3987049999997
  0
LINE
  5
7A0
330
2
100
AcDbEntity
  8
0
100
AcDbLine
 10
488.2142846972734
 20
558.1775460481453
 30
0.0
 11
479.2141626972734
 21
558.1774850481454
 31
0.0
  0
LINE
  5
7A1
330
2
100
AcDbEntity
  8
0
100
AcDbLine
 10
475.3094386972734
 20
553.6219430481453
 30
0.0
 11
479.2141626972734
 21
558.1774850481454
 31
0.0
  0
ARC
  5
7A2
330
2
100
AcDbEntity
  8
0
100
AcDbCircle
 10
353.9341636972734
 20
683.1775760481455
 30
0.0
 40
7.0
100
AcDbArc
 50
270.0
 51
344.0546040000002
  0
ARC
  5
7A4
330
2
100
AcDbEntity
  8
0
100
AcDbCircle
 10
358.3458766972735
 20
704.1777590481453
 30
0.0
 40
10.0
100
AcDbArc
 50
90.0
 51
160.989105
  0
LINE
  5
7A5
330
2
100
AcDbEntity
  8
0
100
AcDbLine
 10
267.7146816972734
 20
677.1773320481454
 30
0.0
 11
315.2146816972734
 21
677.1773320481454
 31
0.0
  0
ARC
  5
7A6
330
2
100
AcDbEntity
  8
0
100
AcDbCircle
 10
259.7141776972735
 20
675.1773320481454
 30
0.0
 40
2.0
100
AcDbArc
 50
90.0
 51
180.0
  0
LINE
  5
7A7
330
2
100
AcDbEntity
  8
0
100
AcDbLine
 10
317.2146816972734
 20
695.1773320481454
 30
0.0
 11
324.2146966972734
 21
695.1773320481454
 31
0.0
  0
ARC
  5
7A8
330
2
100
AcDbEntity
  8
0
100
AcDbCircle
 10
317.2146816972734
 20
693.1773320481454
 30
0.0
 40
2.0
100
AcDbArc
 50
90.0
 51
180.0
  0
LINE
  5
7A9
330
2
100
AcDbEntity
  8
0
100
AcDbLine
 10
335.3242856972734
 20
681.3655040481453
 30
0.0
 11
333.0136926972734
 21
689.9891000481455
 31
0.0
  0
LINE
  5
7AA
330
2
100
AcDbEntity
  8
0
100
AcDbLine
 10
348.8916836972734
 20
707.4347170481453
 30
0.0
 11
338.4693196972734
 21
677.1839240481454
 31
0.0
  0
ARC
  5
7AB
330
2
100
AcDbEntity
  8
0
100
AcDbCircle
 10
341.0705776972733
 20
673.1775760481455
 30
0.0
 40
3.0
100
AcDbArc
 50
90.0
 51
178.9996339999996
  0
ARC
  5
7AC
330
2
100
AcDbEntity
  8
0
100
AcDbCircle
 10
342.0858966972734
 20
683.1772710481454
 30
0.0
 40
7.0
100
AcDbArc
 50
194.9996949999998
 51
270.0
  0
ARC
  5
7AD
330
2
100
AcDbEntity
  8
0
100
AcDbCircle
 10
326.2522946972734
 20
688.1772710481454
 30
0.0
 40
7.0
100
AcDbArc
 50
14.99989999999975
 51
90.0
  0
LINE
  5
7AE
330
2
100
AcDbEntity
  8
0
100
AcDbLine
 10
326.2522946972734
 20
695.1772710481455
 30
0.0
 11
324.2146966972734
 21
695.1772710481455
 31
0.0
  0
LINE
  5
7AF
330
2
100
AcDbEntity
  8
0
100
AcDbLine
 10
449.7144986972735
 20
699.1773320481454
 30
0.0
 11
404.7144986972734
 21
699.1773320481454
 31
0.0
  0
LINE
  5
7B0
330
2
100
AcDbEntity
  8
0
100
AcDbLine
 10
407.2144986972735
 20
764.1773320481454
 30
0.0
 11
450.2141626972734
 21
764.1773320481454
 31
0.0
  0
LINE
  5
7B1
330
2
100
AcDbEntity
  8
0
100
AcDbLine
 10
384.4337056972734
 20
697.1775760481455
 30
0.0
 11
469.9946186972733
 21
697.1775760481455
 31
0.0
  0
LINE
  5
7B2
330
2
100
AcDbEntity
  8
0
100
AcDbLine
 10
407.2144986972735
 20
699.1773320481454
 30
0.0
 11
407.2144986972735
 21
764.1773320481454
 31
0.0
  0
LINE
  5
7B3
330
2
100
AcDbEntity
  8
0
100
AcDbLine
 10
407.2144986972735
 20
714.1772100481452
 30
0.0
 11
358.3462726972734
 21
714.1772710481454
 31
0.0
  0
ARC
  5
7B4
330
2
100
AcDbEntity
  8
0
100
AcDbCircle
 10
368.4944056972734
 20
683.1775760481455
 30
0.0
 40
7.0
100
AcDbArc
 50
90.0
 51
164.0546110000001
  0
ARC
  5
7B6
330
2
100
AcDbEntity
  8
0
100
AcDbCircle
 10
367.2142846972734
 20
694.1786140481454
 30
0.0
 40
7.5
100
AcDbArc
 50
327.7670590000003
 51
238.076355
  0
LINE
  5
7B7
330
2
100
AcDbEntity
  8
0
100
AcDbLine
 10
361.7637226972734
 20
685.1006110481453
 30
0.0
 11
360.6648456972734
 21
681.2544810481454
 31
0.0
  0
LINE
  5
7B8
330
2
100
AcDbEntity
  8
0
100
AcDbLine
 10
368.4944056972734
 20
690.1775760481455
 30
0.0
 11
375.2141626972734
 21
690.1775760481455
 31
0.0
  0
ARC
  5
7B9
330
2
100
AcDbEntity
  8
0
100
AcDbCircle
 10
384.4337056972734
 20
690.1775760481455
 30
0.0
 40
7.0
100
AcDbArc
 50
90.0
 51
139.398712
  0
LINE
  5
7BA
330
2
100
AcDbEntity
  8
0
100
AcDbLine
 10
379.1189166972734
 20
694.7331180481453
 30
0.0
 11
375.2141626972734
 21
690.1775760481455
 31
0.0
  0
LINE
  5
7BB
330
2
100
AcDbEntity
  8
0
100
AcDbLine
 10
404.7144986972734
 20
697.1773320481454
 30
0.0
 11
404.7144986972734
 21
699.1773320481454
 31
0.0
  0
LINE
  5
7BC
330
2
100
AcDbEntity
  8
0
100
AcDbLine
 10
446.2931726972734
 20
764.1773320481454
 30
0.0
 11
446.2931726972734
 21
704.1773320481454
 31
0.0
  0
LINE
  5
7BD
330
2
100
AcDbEntity
  8
0
100
AcDbLine
 10
450.2141626972734
 20
764.1773320481454
 30
0.0
 11
450.2141626972734
 21
704.1773320481454
 31
0.0
  0
LINE
  5
7BE
330
2
100
AcDbEntity
  8
0
100
AcDbLine
 10
447.2144986972734
 20
699.1773320481454
 30
0.0
 11
447.2144986972734
 21
704.1773320481454
 31
0.0
  0
LINE
  5
7BF
330
2
100
AcDbEntity
  8
0
100
AcDbLine
 10
449.7144986972735
 20
697.1773320481454
 30
0.0
 11
449.7144986972735
 21
699.1773320481454
 31
0.0
  0
LINE
  5
7C0
330
2
100
AcDbEntity
  8
0
100
AcDbLine
 10
446.2931726972734
 20
704.1773320481454
 30
0.0
 11
450.2141626972734
 21
704.1773320481454
 31
0.0
  0
LINE
  5
7C1
330
2
100
AcDbEntity
  8
CENTER
100
AcDbLine
 10
487.2141871034015
 20
682.1031750481454
 30
0.0
 11
487.2146816972734
 21
706.2527110481453
 31
0.0
  0
ARC
  5
7C2
330
2
100
AcDbEntity
  8
0
100
AcDbCircle
 10
469.9946186972733
 20
690.1775760481455
 30
0.0
 40
7.0
100
AcDbArc
 50
40.60129500000027
 51
90.0
  0
LINE
  5
7C3
330
2
100
AcDbEntity
  8
0
100
AcDbLine
 10
488.2142846972734
 20
690.1775760481455
 30
0.0
 11
479.2141626972734
 21
690.1775760481455
 31
0.0
  0
LINE
  5
7C4
330
2
100
AcDbEntity
  8
0
100
AcDbLine
 10
475.3094386972734
 20
694.7331180481453
 30
0.0
 11
479.2141626972734
 21
690.1775760481455
 31
0.0
  0
LINE
  5
7C5
330
2
100
AcDbEntity
  8
0
100
AcDbLine
 10
747.8228039723295
 20
343.2988571086554
 30
0.0
 11
795.8926279723296
 21
344.1380901086554
 31
0.0
  0
LINE
  5
7C6
330
2
100
AcDbEntity
  8
0
100
AcDbLine
 10
748.3372079723295
 20
305.1380751086554
 30
0.0
 11
844.1244399723295
 21
305.1380751086554
 31
0.0
  0
LINE
  5
7C7
330
2
100
AcDbEntity
  8
0
100
AcDbLine
 10
762.3926279723296
 20
103.1380771086554
 30
0.0
 11
829.3926279723295
 21
103.1380771086554
 31
0.0
  0
LINE
  5
7C8
330
2
100
AcDbEntity
  8
CENTER
100
AcDbLine
 10
640.8926279723296
 20
266.6380751086555
 30
0.0
 11
950.8926279723295
 21
266.6380751086554
 31
0.0
  0
LINE
  5
7C9
330
2
100
AcDbEntity
  8
CENTER
100
AcDbLine
 10
709.8926279723295
 20
213.1380751086554
 30
0.0
 11
881.8926279723296
 21
213.1380751086554
 31
0.0
  0
ARC
  5
7CA
330
2
100
AcDbEntity
  8
0
100
AcDbCircle
 10
795.8926279723296
 20
213.1380751086554
 30
0.0
 40
71.0
100
AcDbArc
 50
173.9317930000003
 51
201.6309050000002
  0
LINE
  5
7CB
330
2
100
AcDbEntity
  8
0
100
AcDbLine
 10
729.8926279723295
 20
167.4181811086554
 30
0.0
 11
729.8926279723295
 21
270.7783641086554
 31
0.0
  0
LINE
  5
7CC
330
2
100
AcDbEntity
  8
0
100
AcDbLine
 10
743.8926279723296
 20
339.2994521086555
 30
0.0
 11
743.8926279723296
 21
101.6380771086554
 31
0.0
  0
LINE
  5
7CD
330
2
100
AcDbEntity
  8
0
100
AcDbLine
 10
517.2141626972734
 20
299.9700761086554
 30
0.0
 11
517.2141626972734
 21
101.6380771086554
 31
0.0
  0
LINE
  5
7CE
330
2
100
AcDbEntity
  8
0
100
AcDbLine
 10
503.2141626972734
 20
118.9527571086554
 30
0.0
 11
503.2141626972734
 21
101.6380771086554
 31
0.0
  0
LINE
  5
7CF
330
2
100
AcDbEntity
  8
HIDS
100
AcDbLine
 10
494.7141626972734
 20
121.6380771086554
 30
0.0
 11
494.7141626972734
 21
101.6380771086554
 31
0.0
  0
LINE
  5
7D0
330
2
100
AcDbEntity
  8
0
100
AcDbLine
 10
705.8926279723295
 20
119.0069561086554
 30
0.0
 11
705.8926279723295
 21
101.6380971086554
 31
0.0
  0
LINE
  5
7D1
330
2
100
AcDbEntity
  8
HIDS
100
AcDbLine
 10
718.3926279723295
 20
121.6380771086554
 30
0.0
 11
718.3926279723295
 21
101.6380771086554
 31
0.0
  0
LINE
  5
7D2
330
2
100
AcDbEntity
  8
HIDS
100
AcDbLine
 10
733.3926279723296
 20
121.6380771086554
 30
0.0
 11
733.3926279723296
 21
101.6380771086554
 31
0.0
  0
LINE
  5
7D3
330
2
100
AcDbEntity
  8
CENTER
100
AcDbLine
 10
725.8926279723295
 20
128.6380771086554
 30
0.0
 11
725.8926279723295
 21
94.63807710865546
 31
0.0
  0
LINE
  5
7D4
330
2
100
AcDbEntity
  8
0
100
AcDbLine
 10
705.8926279723295
 20
101.6380771086554
 30
0.0
 11
760.8926279723296
 21
101.6380771086554
 31
0.0
  0
LINE
  5
7D5
330
2
100
AcDbEntity
  8
0
100
AcDbLine
 10
760.8926279723296
 20
101.6380771086554
 30
0.0
 11
762.3926279723296
 21
103.1380771086554
 31
0.0
  0
LINE
  5
7D6
330
2
100
AcDbEntity
  8
0
100
AcDbLine
 10
708.5012099723297
 20
121.9813181086554
 30
0.0
 11
741.2840459723296
 21
126.2948571086554
 31
0.0
  0
LINE
  5
7D7
330
2
100
AcDbEntity
  8
0
100
AcDbLine
 10
708.8926279723295
 20
121.6380771086554
 30
0.0
 11
738.8926279723295
 21
121.6380771086554
 31
0.0
  0
ARC
  5
7D8
330
2
100
AcDbEntity
  8
0
100
AcDbCircle
 10
708.8926279723295
 20
119.0069771086554
 30
0.0
 40
3.0
100
AcDbArc
 50
97.49629199999963
 51
180.0
  0
ARC
  5
7D9
330
2
100
AcDbEntity
  8
0
100
AcDbCircle
 10
708.8926279723295
 20
118.6380961086554
 30
0.0
 40
3.0
100
AcDbArc
 50
90.0
 51
180.0
  0
ARC
  5
7DA
330
2
100
AcDbEntity
  8
0
100
AcDbCircle
 10
736.8926279723296
 20
152.8579351086554
 30
0.0
 40
7.0
100
AcDbArc
 50
0.0
 51
74.05468799999955
  0
ARC
  5
7DB
330
2
100
AcDbEntity
  8
0
100
AcDbCircle
 10
738.8926279723295
 20
126.6380771086554
 30
0.0
 40
5.0
100
AcDbArc
 50
270.0
 51
0.0
  0
ARC
  5
7DC
330
2
100
AcDbEntity
  8
0
100
AcDbCircle
 10
740.8926279723296
 20
129.2692171086554
 30
0.0
 40
3.0
100
AcDbArc
 50
277.4961169999997
 51
0.0
  0
ARC
  5
7DD
330
2
100
AcDbEntity
  8
0
100
AcDbCircle
 10
747.8926279723296
 20
150.1380751086554
 30
0.0
 40
5.0
100
AcDbArc
 50
180.0
 51
216.865204
  0
LINE
  5
7DE
330
2
100
AcDbEntity
  8
0
100
AcDbLine
 10
742.8926279723295
 20
150.1380751086554
 30
0.0
 11
742.8926279723295
 21
156.3270781086554
 31
0.0
  0
ARC
  5
7DF
330
2
100
AcDbEntity
  8
0
100
AcDbCircle
 10
736.8926279723296
 20
167.4182341086554
 30
0.0
 40
7.0
100
AcDbArc
 50
180.0
 51
254.0549009999996
  0
LINE
  5
7E0
330
2
100
AcDbEntity
  8
0
100
AcDbLine
 10
734.9696539723296
 20
160.6875171086554
 30
0.0
 11
738.8156019723297
 21
159.5886371086554
 31
0.0
  0
LINE
  5
7E1
330
2
100
AcDbEntity
  8
0
100
AcDbLine
 10
709.8926279723295
 20
260.6380751086554
 30
0.0
 11
655.8926279723295
 21
260.6380751086554
 31
0.0
  0
LINE
  5
7E2
330
2
100
AcDbEntity
  8
0
100
AcDbLine
 10
709.8926279723295
 20
272.6380751086554
 30
0.0
 11
655.8926279723295
 21
272.6380751086554
 31
0.0
  0
LINE
  5
7E3
330
2
100
AcDbEntity
  8
0
100
AcDbLine
 10
720.8926279723296
 20
246.6380751086554
 30
0.0
 11
655.8926279723295
 21
246.6380751086554
 31
0.0
  0
LINE
  5
7E4
330
2
100
AcDbEntity
  8
0
100
AcDbLine
 10
720.8926279723296
 20
286.6380751086554
 30
0.0
 11
655.8926279723295
 21
286.6380751086554
 31
0.0
  0
ARC
  5
7E5
330
2
100
AcDbEntity
  8
0
100
AcDbCircle
 10
507.2141626972734
 20
299.9700301086554
 30
0.0
 40
10.0
100
AcDbArc
 50
0.0
 51
54.66009899999957
  0
LINE
  5
7E6
330
2
100
AcDbEntity
  8
0
100
AcDbLine
 10
655.8926279723295
 20
246.6380751086554
 30
0.0
 11
655.8926279723295
 21
286.6380751086554
 31
0.0
  0
LINE
  5
7E7
330
2
100
AcDbEntity
  8
0
100
AcDbLine
 10
727.9696539723296
 20
314.0886371086554
 30
0.0
 11
738.8156019723297
 21
317.1875141086554
 31
0.0
  0
ARC
  5
7E8
330
2
100
AcDbEntity
  8
0
100
AcDbCircle
 10
729.8926279723295
 20
225.9182341086554
 30
0.0
 40
7.0
100
AcDbArc
 50
180.0
 51
240.0001980000002
  0
ARC
  5
7E9
330
2
100
AcDbEntity
  8
0
100
AcDbCircle
 10
729.8926279723295
 20
307.3580001086554
 30
0.0
 40
7.0
100
AcDbArc
 50
105.9458009999998
 51
180.0
  0
ARC
  5
7EA
330
2
100
AcDbEntity
  8
0
100
AcDbCircle
 10
709.8926279723295
 20
266.6380751086554
 30
0.0
 40
6.0
100
AcDbArc
 50
270.0
 51
90.0
  0
LINE
  5
7EB
330
2
100
AcDbEntity
  8
0
100
AcDbLine
 10
720.8926279723296
 20
289.1380751086554
 30
0.0
 11
720.8926279723296
 21
244.1380751086554
 31
0.0
  0
LINE
  5
7EC
330
2
100
AcDbEntity
  8
0
100
AcDbLine
 10
722.8926279723296
 20
225.9181881086554
 30
0.0
 11
722.8926279723296
 21
307.3579541086554
 31
0.0
  0
LINE
  5
7ED
330
2
100
AcDbEntity
  8
0
100
AcDbLine
 10
722.8926279723296
 20
244.1380751086554
 30
0.0
 11
720.8926279723296
 21
244.1380751086554
 31
0.0
  0
LINE
  5
7EE
330
2
100
AcDbEntity
  8
0
100
AcDbLine
 10
722.8926279723296
 20
289.1380751086554
 30
0.0
 11
720.8926279723296
 21
289.1380751086554
 31
0.0
  0
ARC
  5
7EF
330
2
100
AcDbEntity
  8
0
100
AcDbCircle
 10
722.8926279723296
 20
213.7938601086554
 30
0.0
 40
7.0
100
AcDbArc
 50
0.0
 51
60.00009199999957
  0
ARC
  5
7F0
330
2
100
AcDbEntity
  8
0
100
AcDbCircle
 10
747.8926279723296
 20
339.2994831086554
 30
0.0
 40
4.0
100
AcDbArc
 50
91.00058000000009
 51
180.0
  0
ARC
  5
7F1
330
2
100
AcDbEntity
  8
0
100
AcDbCircle
 10
736.8926279723296
 20
323.9181811086554
 30
0.0
 40
7.0
100
AcDbArc
 50
285.945557
 51
0.0
  0
ARC
  5
7F2
330
2
100
AcDbEntity
  8
0
100
AcDbCircle
 10
795.8926279723296
 20
213.1380751086554
 30
0.0
 40
71.0
100
AcDbArc
 50
338.36908
 51
6.068255999999881
  0
LINE
  5
7F3
330
2
100
AcDbEntity
  8
0
100
AcDbLine
 10
847.8926279723296
 20
101.6380771086554
 30
0.0
 11
847.8926279723296
 21
339.2998181086554
 31
0.0
  0
LINE
  5
7F4
330
2
100
AcDbEntity
  8
0
100
AcDbLine
 10
861.8926279723295
 20
167.4181961086554
 30
0.0
 11
861.8926279723295
 21
270.7783641086554
 31
0.0
  0
LINE
  5
7F5
330
2
100
AcDbEntity
  8
CENTER
100
AcDbLine
 10
795.8926279723296
 20
86.63807710865553
 30
0.0
 11
795.8926279723296
 21
359.1380901086554
 31
0.0
  0
LINE
  5
7F7
330
2
100
AcDbEntity
  8
0
100
AcDbLine
 10
885.8926279723295
 20
119.0069561086554
 30
0.0
 11
885.8926279723295
 21
101.6380771086554
 31
0.0
  0
LINE
  5
7F8
330
2
100
AcDbEntity
  8
HIDS
100
AcDbLine
 10
873.3926279723295
 20
121.6380771086554
 30
0.0
 11
873.3926279723295
 21
101.6380771086554
 31
0.0
  0
LINE
  5
7F9
330
2
100
AcDbEntity
  8
HIDS
100
AcDbLine
 10
858.3926279723296
 20
121.6380771086554
 30
0.0
 11
858.3926279723296
 21
101.6380771086554
 31
0.0
  0
LINE
  5
7FA
330
2
100
AcDbEntity
  8
CENTER
100
AcDbLine
 10
865.8926279723294
 20
128.6380771086554
 30
0.0
 11
865.8926279723296
 21
94.63807710865546
 31
0.0
  0
LINE
  5
7FB
330
2
100
AcDbEntity
  8
0
100
AcDbLine
 10
830.8926279723296
 20
101.6380771086554
 30
0.0
 11
885.8926279723295
 21
101.6380771086554
 31
0.0
  0
LINE
  5
7FC
330
2
100
AcDbEntity
  8
0
100
AcDbLine
 10
830.8926279723296
 20
101.6380771086554
 30
0.0
 11
829.3926279723295
 21
103.1380771086554
 31
0.0
  0
ARC
  5
7FD
330
2
100
AcDbEntity
  8
0
100
AcDbCircle
 10
854.8926279723296
 20
167.4181811086554
 30
0.0
 40
7.0
100
AcDbArc
 50
285.9455029999998
 51
0.0
  0
LINE
  5
7FE
330
2
100
AcDbEntity
  8
0
100
AcDbLine
 10
883.2840459723296
 20
121.9813181086554
 30
0.0
 11
850.5012099723296
 21
126.2948361086554
 31
0.0
  0
LINE
  5
7FF
330
2
100
AcDbEntity
  8
0
100
AcDbLine
 10
852.8926279723295
 20
121.6380771086554
 30
0.0
 11
882.8926279723296
 21
121.6380771086554
 31
0.0
  0
ARC
  5
800
330
2
100
AcDbEntity
  8
0
100
AcDbCircle
 10
854.8926279723296
 20
152.8580151086554
 30
0.0
 40
7.0
100
AcDbArc
 50
105.9458009999998
 51
180.0
  0
ARC
  5
801
330
2
100
AcDbEntity
  8
0
100
AcDbCircle
 10
852.8926279723295
 20
126.6380961086554
 30
0.0
 40
5.0
100
AcDbArc
 50
180.0
 51
270.0
  0
ARC
  5
802
330
2
100
AcDbEntity
  8
0
100
AcDbCircle
 10
850.8926279723295
 20
129.2692171086554
 30
0.0
 40
3.0
100
AcDbArc
 50
180.0
 51
262.5043950000001
  0
ARC
  5
803
330
2
100
AcDbEntity
  8
0
100
AcDbCircle
 10
843.8926279723295
 20
150.1380751086554
 30
0.0
 40
5.0
100
AcDbArc
 50
323.1301310000003
 51
0.0
  0
LINE
  5
804
330
2
100
AcDbEntity
  8
0
100
AcDbLine
 10
848.8926279723296
 20
156.4635571086554
 30
0.0
 11
848.8926279723296
 21
150.1380751086554
 31
0.0
  0
LINE
  5
805
330
2
100
AcDbEntity
  8
0
100
AcDbLine
 10
856.8156019723296
 20
160.6875171086554
 30
0.0
 11
852.9696539723296
 21
159.5886371086554
 31
0.0
  0
ARC
  5
806
330
2
100
AcDbEntity
  8
0
100
AcDbCircle
 10
882.8926279723296
 20
119.0069371086554
 30
0.0
 40
3.0
100
AcDbArc
 50
0.0
 51
82.50420400000049
  0
ARC
  5
807
330
2
100
AcDbEntity
  8
0
100
AcDbCircle
 10
882.8926279723296
 20
118.6380771086554
 30
0.0
 40
3.0
100
AcDbArc
 50
0.0
 51
90.0
  0
LINE
  5
808
330
2
100
AcDbEntity
  8
0
100
AcDbLine
 10
881.8926279723296
 20
260.6380751086554
 30
0.0
 11
935.8926279723295
 21
260.6380751086554
 31
0.0
  0
LINE
  5
809
330
2
100
AcDbEntity
  8
0
100
AcDbLine
 10
881.8926279723296
 20
272.6380751086554
 30
0.0
 11
935.8926279723295
 21
272.6380751086554
 31
0.0
  0
LINE
  5
80A
330
2
100
AcDbEntity
  8
0
100
AcDbLine
 10
870.8926279723296
 20
246.6380751086554
 30
0.0
 11
935.8926279723295
 21
246.6380751086554
 31
0.0
  0
LINE
  5
80B
330
2
100
AcDbEntity
  8
0
100
AcDbLine
 10
870.8926279723296
 20
286.6380751086554
 30
0.0
 11
935.8926279723295
 21
286.6380751086554
 31
0.0
  0
LINE
  5
80C
330
2
100
AcDbEntity
  8
0
100
AcDbLine
 10
852.9696539723296
 20
317.1875141086554
 30
0.0
 11
863.8156019723297
 21
314.0886371086554
 31
0.0
  0
ARC
  5
80D
330
2
100
AcDbEntity
  8
0
100
AcDbCircle
 10
881.8926279723296
 20
266.6380751086554
 30
0.0
 40
6.0
100
AcDbArc
 50
90.0
 51
270.0
  0
LINE
  5
80E
330
2
100
AcDbEntity
  8
0
100
AcDbLine
 10
870.8926279723296
 20
289.1380751086554
 30
0.0
 11
870.8926279723296
 21
244.1380751086554
 31
0.0
  0
LINE
  5
80F
330
2
100
AcDbEntity
  8
0
100
AcDbLine
 10
868.8926279723295
 20
225.9181881086554
 30
0.0
 11
868.8926279723295
 21
307.3579541086554
 31
0.0
  0
ARC
  5
810
330
2
100
AcDbEntity
  8
0
100
AcDbCircle
 10
861.8926279723295
 20
225.9181731086554
 30
0.0
 40
7.0
100
AcDbArc
 50
300.0001180000002
 51
0.0
  0
ARC
  5
811
330
2
100
AcDbEntity
  8
0
100
AcDbCircle
 10
868.8926279723295
 20
213.7938221086554
 30
0.0
 40
7.0
100
AcDbArc
 50
120.000099
 51
180.0
  0
LINE
  5
812
330
2
100
AcDbEntity
  8
0
100
AcDbLine
 10
868.8926279723295
 20
244.1380751086554
 30
0.0
 11
870.8926279723296
 21
244.1380751086554
 31
0.0
  0
LINE
  5
813
330
2
100
AcDbEntity
  8
0
100
AcDbLine
 10
868.8926279723295
 20
289.1380751086554
 30
0.0
 11
870.8926279723296
 21
289.1380751086554
 31
0.0
  0
ARC
  5
814
330
2
100
AcDbEntity
  8
0
100
AcDbCircle
 10
861.8926279723295
 20
307.3579391086555
 30
0.0
 40
7.0
100
AcDbArc
 50
0.0
 51
74.05476400000004
  0
LINE
  5
815
330
2
100
AcDbEntity
  8
0
100
AcDbLine
 10
843.9624519723295
 20
343.2992231086554
 30
0.0
 11
795.8926279723296
 21
344.1380901086554
 31
0.0
  0
ARC
  5
816
330
2
100
AcDbEntity
  8
0
100
AcDbCircle
 10
843.8926279723295
 20
339.2998181086554
 30
0.0
 40
4.0
100
AcDbArc
 50
0.0
 51
89.00035899999958
  0
ARC
  5
818
330
2
100
AcDbEntity
  8
0
100
AcDbCircle
 10
854.8926279723296
 20
323.9182421086554
 30
0.0
 40
7.0
100
AcDbArc
 50
180.0
 51
254.0549009999996
  0
LINE
  5
819
330
2
100
AcDbEntity
  8
0
100
AcDbLine
 10
935.8926279723295
 20
246.6380751086554
 30
0.0
 11
935.8926279723295
 21
286.6380751086554
 31
0.0
  0
LINE
  5
81A
330
2
100
AcDbEntity
  8
0
100
AcDbLine
 10
517.2144986972734
 20
624.1771490481454
 30
0.0
 11
516.3066916972734
 21
676.1770880481454
 31
0.0
  0
LINE
  5
81B
330
2
100
AcDbEntity
  8
0
100
AcDbLine
 10
505.5372826972734
 20
540.9196720481454
 30
0.0
 11
516.3064786972734
 21
572.1771190481454
 31
0.0
  0
ARC
  5
81C
330
2
100
AcDbEntity
  8
0
100
AcDbCircle
 10
496.0828756972735
 20
544.1771190481453
 30
0.0
 40
10.0
100
AcDbArc
 50
270.0
 51
340.9891
  0
LINE
  5
81D
330
2
100
AcDbEntity
  8
0
100
AcDbLine
 10
517.2144986972734
 20
624.1771490481454
 30
0.0
 11
516.3064786972734
 21
572.1771190481454
 31
0.0
  0
ARC
  5
81E
330
2
100
AcDbEntity
  8
0
100
AcDbCircle
 10
502.2142846972736
 20
565.1775460481453
 30
0.0
 40
7.0
100
AcDbArc
 50
90.0
 51
180.0
  0
ARC
  5
81F
330
2
100
AcDbEntity
  8
0
100
AcDbCircle
 10
513.3586026972734
 20
575.1775460481453
 30
0.0
 40
3.0
100
AcDbArc
 50
270.0
 51
358.9998470000001
  0
LINE
  5
821
330
2
100
AcDbEntity
  8
0
100
AcDbLine
 10
505.5376796972734
 20
707.4344730481454
 30
0.0
 11
516.3066916972734
 21
676.1770880481454
 31
0.0
  0
ARC
  5
822
330
2
100
AcDbEntity
  8
0
100
AcDbCircle
 10
502.2142846972736
 20
683.1775760481455
 30
0.0
 40
7.0
100
AcDbArc
 50
180.0
 51
270.0
  0
ARC
  5
823
330
2
100
AcDbEntity
  8
0
100
AcDbCircle
 10
513.3586026972734
 20
673.1775760481455
 30
0.0
 40
3.0
100
AcDbArc
 50
1.000151999999961
 51
90.0
  0
ARC
  5
824
330
2
100
AcDbEntity
  8
0
100
AcDbCircle
 10
496.0832726972735
 20
704.1770880481453
 30
0.0
 40
10.0
100
AcDbArc
 50
19.01089999999999
 51
90.0
  0
LINE
  5
912
330
2
100
AcDbEntity
  8
CENTER
100
AcDbLine
 10
367.2139731034015
 20
682.1038460481454
 30
0.0
 11
367.2144676972734
 21
706.2533820481453
 31
0.0
  0
LINE
  5
913
330
2
100
AcDbEntity
  8
CENTER
100
AcDbLine
 10
379.2889884028697
 20
694.1786140481454
 30
0.0
 11
355.1394523978051
 21
694.1786140481454
 31
0.0
  0
LINE
  5
914
330
2
100
AcDbEntity
  8
CENTER
100
AcDbLine
 10
367.2139731034015
 20
542.1025640481454
 30
0.0
 11
367.2144676972734
 21
566.2521000481453
 31
0.0
  0
LINE
  5
915
330
2
100
AcDbEntity
  8
CENTER
100
AcDbLine
 10
379.2889884028697
 20
554.1773320481454
 30
0.0
 11
355.1394523978051
 21
554.1773320481454
 31
0.0
  0
LINE
  5
916
330
2
100
AcDbEntity
  8
CENTER
100
AcDbLine
 10
487.2141871034015
 20
542.1032360481454
 30
0.0
 11
487.2146816972734
 21
566.2527720481453
 31
0.0
  0
LINE
  5
917
330
2
100
AcDbEntity
  8
CENTER
100
AcDbLine
 10
499.2892024028698
 20
554.1780040481454
 30
0.0
 11
475.1396663978051
 21
554.1780040481454
 31
0.0
  0
TEXT
  5
925
330
2
100
AcDbEntity
  8
TITLE
100
AcDbText
 10
644.0122438173392
 20
643.229840279919
 30
0.0
 40
10.0
  1
HLMN-40T-1200~1800-T90K
100
AcDbText
  0
TEXT
  5
926
330
2
100
AcDbEntity
  8
TITLE
100
AcDbText
 10
644.0122438173392
 20
611.229840279919
 30
0.0
 40
10.0
  1
HLMN-40T-1200~1800-S90K
100
AcDbText
  0
TEXT
  5
927
330
2
100
AcDbEntity
  8
TITLE
100
AcDbText
 10
644.0122438173392
 20
595.229840279919
 30
0.0
 40
10.0
  1
HLMN-40T-1200~1800-S90WK
100
AcDbText
  0
TEXT
  5
928
330
2
100
AcDbEntity
  8
TITLE
100
AcDbText
 10
644.0122438173392
 20
627.229840279919
 30
0.0
 40
10.0
  1
HLMN-40T-1200~1800-T90WK
100
AcDbText
  0
LINE
  5
BC0
330
2
100
AcDbEntity
  8
CENTER
100
AcDbLine
 10
249.6159185820142
 20
213.1380751086554
 30
0.0
 11
347.5705087905403
 21
213.1380751086554
 31
0.0
  0
LINE
  5
15EC
330
2
100
AcDbEntity
  8
0
100
AcDbLine
 10
128.7141666972734
 20
264.6380751086554
 30
0.0
 11
178.7141736972735
 21
264.6380751086554
 31
0.0
  0
LINE
  5
15ED
330
2
100
AcDbEntity
  8
0
100
AcDbLine
 10
128.7141666972734
 20
265.6380751086554
 30
0.0
 11
178.7141736972735
 21
265.6380751086554
 31
0.0
  0
LINE
  5
15EE
330
2
100
AcDbEntity
  8
CENTER
100
AcDbLine
 10
118.6705667160649
 20
280.6380751086554
 30
0.0
 11
188.757780678482
 21
280.6380751086554
 31
0.0
  0
LINE
  5
15EF
330
2
100
AcDbEntity
  8
0
100
AcDbLine
 10
133.5520825133
 20
297.6380901086554
 30
0.0
 11
173.8762648812471
 21
297.6380901086554
 31
0.0
  0
LINE
  5
15F0
330
2
100
AcDbEntity
  8
0
100
AcDbLine
 10
136.2141736972735
 20
296.6380901086554
 30
0.0
 11
171.2141736972735
 21
296.6380901086554
 31
0.0
  0
LINE
  5
15F2
330
2
100
AcDbEntity
  8
0
100
AcDbLine
 10
130.2141666972734
 20
252.6380751086554
 30
0.0
 11
176.7141736972735
 21
252.6380751086554
 31
0.0
  0
LINE
  5
15F3
330
2
100
AcDbEntity
  8
0
100
AcDbLine
 10
128.7141666972734
 20
254.6380751086554
 30
0.0
 11
178.7141736972735
 21
254.6380751086554
 31
0.0
  0
LINE
  5
15F5
330
2
100
AcDbEntity
  8
0
100
AcDbLine
 10
130.7140666972736
 20
649.1773320481454
 30
0.0
 11
176.7139756972735
 21
649.1773320481454
 31
0.0
  0
LINE
  5
15F6
330
2
100
AcDbEntity
  8
0
100
AcDbLine
 10
171.2139756972735
 20
647.1773320481454
 30
0.0
 11
136.2140666972736
 21
647.1773320481454
 31
0.0
  0
LINE
  5
15F7
330
2
100
AcDbEntity
  8
0
100
AcDbLine
 10
171.2139756972735
 20
601.1773320481454
 30
0.0
 11
136.2140666972736
 21
601.1773320481454
 31
0.0
  0
LINE
  5
15F8
330
2
100
AcDbEntity
  8
0
100
AcDbLine
 10
130.7140666972736
 20
599.1773320481454
 30
0.0
 11
176.7139756972735
 21
599.1773320481454
 31
0.0
  0
LINE
  5
15FA
330
2
100
AcDbEntity
  8
0
100
AcDbLine
 10
130.7140666972736
 20
641.6773320481454
 30
0.0
 11
130.7140666972736
 21
606.6773320481454
 31
0.0
  0
LINE
  5
15FB
330
2
100
AcDbEntity
  8
0
100
AcDbLine
 10
128.7140666972736
 20
601.1773320481454
 30
0.0
 11
128.7140666972736
 21
647.1773320481454
 31
0.0
  0
LINE
  5
15FC
330
2
100
AcDbEntity
  8
CENTER
100
AcDbLine
 10
153.7141736972735
 20
589.1337250669368
 30
0.0
 11
153.7141736972735
 21
659.220939029354
 31
0.0
  0
LINE
  5
15FE
330
2
100
AcDbEntity
  8
CENTER
100
AcDbLine
 10
153.7141736972735
 20
241.2485791086556
 30
0.0
 11
153.7141736972735
 21
308.0255901086554
 31
0.0
  0
LINE
  5
1631
330
2
100
AcDbEntity
  8
0
100
AcDbLine
 10
128.7141666972734
 20
296.6380901086554
 30
0.0
 11
128.7141666972734
 21
254.6380751086554
 31
0.0
  0
LINE
  5
1632
330
2
100
AcDbEntity
  8
0
100
AcDbLine
 10
127.8391666972734
 20
270.1380751086554
 30
0.0
 11
129.8391666972734
 21
270.1380751086554
 31
0.0
  0
LINE
  5
1633
330
2
100
AcDbEntity
  8
0
100
AcDbLine
 10
128.7141666972734
 20
254.6380751086554
 30
0.0
 11
130.7141666972734
 21
252.6380751086554
 31
0.0
  0
LINE
  5
1634
330
2
100
AcDbEntity
  8
0
100
AcDbLine
 10
130.2141666972734
 20
252.6380751086554
 30
0.0
 11
130.2141666972734
 21
251.1380751086554
 31
0.0
  0
LINE
  5
1635
330
2
100
AcDbEntity
  8
0
100
AcDbLine
 10
129.7141736972735
 20
297.6380901086554
 30
0.0
 11
128.7141736972735
 21
296.6380901086554
 31
0.0
  0
ARC
  5
1636
330
2
100
AcDbEntity
  8
0
100
AcDbCircle
 10
130.1071629436805
 20
296.1442028329019
 30
0.0
 40
1.3
100
AcDbArc
 50
105.880850008278
 51
174.9999999999999
  0
LINE
  5
1637
330
2
100
AcDbEntity
  8
0
100
AcDbLine
 10
127.8391666972734
 20
291.1380751086554
 30
0.0
 11
129.8391666972734
 21
291.1380751086554
 31
0.0
  0
LINE
  5
1638
330
2
100
AcDbEntity
  8
0
100
AcDbLine
 10
136.2141736972735
 20
295.1380901086554
 30
0.0
 11
128.7141736972735
 21
295.1380901086555
 31
0.0
  0
LINE
  5
1639
330
2
100
AcDbEntity
  8
0
100
AcDbLine
 10
128.7141736972735
 20
295.1380901086555
 30
0.0
 11
128.8121098361614
 21
296.2575052984738
 31
0.0
  0
LINE
  5
163A
330
2
100
AcDbEntity
  8
0
100
AcDbLine
 10
135.7141736972735
 20
295.1380901086555
 30
0.0
 11
135.6162375583855
 21
296.2575052984738
 31
0.0
  0
LINE
  5
163B
330
2
100
AcDbEntity
  8
0
100
AcDbLine
 10
136.2141736972735
 20
295.1380901086554
 30
0.0
 11
136.2141736972735
 21
297.1380901086555
 31
0.0
  0
LINE
  5
163C
330
2
100
AcDbEntity
  8
0
100
AcDbLine
 10
136.2141736972735
 20
297.1380901086554
 30
0.0
 11
135.1591510868938
 21
297.1380901086554
 31
0.0
  0
LINE
  5
163D
330
2
100
AcDbEntity
  8
0
100
AcDbLine
 10
136.7141736972735
 20
297.6380901086554
 30
0.0
 11
136.2141736972735
 21
297.1380901086554
 31
0.0
  0
LINE
  5
163E
330
2
100
AcDbEntity
  8
0
100
AcDbLine
 10
134.2439135204376
 20
297.2905316460331
 30
0.0
 11
134.2641736972734
 21
297.5015083914947
 31
0.0
  0
SPLINE
  5
163F
330
2
100
AcDbEntity
  8
0
100
AcDbSpline
210
0.0
220
0.0
230
1.0
 70
     8
 71
     3
 72
    11
 73
     7
 74
     0
 42
0.0000000001
 43
0.0000000001
 40
0.0
 40
0.0
 40
0.0
 40
0.0
 40
0.4601364636755307
 40
1.04988694485363
 40
1.713742833862792
 40
2.320347933405154
 40
2.320347933405154
 40
2.320347933405154
 40
2.320347933405179
 10
132.5016736977286
 20
296.2210901086555
 30
0.0
 10
132.5240913548364
 20
296.3761135483354
 30
0.0
 10
132.5752414100695
 20
296.7298283662529
 30
0.0
 10
133.0111265716032
 20
297.1545560378546
 30
0.0
 10
133.6161772866107
 20
297.3737432178204
 30
0.0
 10
134.0413619107864
 20
297.3047519182098
 30
0.0
 10
134.2439135204376
 20
297.2905316460331
 30
0.0
  0
SPLINE
  5
1640
330
2
100
AcDbEntity
  8
0
100
AcDbSpline
210
0.0
220
0.0
230
1.0
 70
     8
 71
     3
 72
    11
 73
     7
 74
     0
 42
0.0000000001
 43
0.0000000001
 40
0.0
 40
0.0
 40
0.0
 40
0.0
 40
0.4601364636755307
 40
1.04988694485363
 40
1.713742833862792
 40
2.320347933405154
 40
2.320347933405154
 40
2.320347933405154
 40
2.320347933405179
 10
131.9266736968184
 20
296.2210901086555
 30
0.0
 10
131.9042560397106
 20
296.3761135483354
 30
0.0
 10
131.8531059844772
 20
296.7298283662529
 30
0.0
 10
131.4172208229438
 20
297.1545560378546
 30
0.0
 10
130.8121701079362
 20
297.3737432178204
 30
0.0
 10
130.3869854837603
 20
297.3047519182098
 30
0.0
 10
130.1844338741093
 20
297.2905316460331
 30
0.0
  0
LINE
  5
1641
330
2
100
AcDbEntity
  8
0
100
AcDbLine
 10
130.1844338741093
 20
297.2905316460331
 30
0.0
 11
130.1641736972733
 21
297.5015083914947
 31
0.0
  0
LINE
  5
1642
330
2
100
AcDbEntity
  8
0
100
AcDbLine
 10
130.8762648812471
 20
297.6380901086554
 30
0.0
 11
129.7141736972735
 21
297.6380901086554
 31
0.0
  0
ARC
  5
1643
330
2
100
AcDbEntity
  8
0
100
AcDbCircle
 10
132.2141736972735
 20
288.7380901086555
 30
0.0
 40
9.0
100
AcDbArc
 50
74.11914999172198
 51
105.880850008278
  0
LINE
  5
1644
330
2
100
AcDbEntity
  8
0
100
AcDbLine
 10
131.9266736968184
 20
296.2210901086555
 30
0.0
 11
132.5016736977286
 21
296.2210901086555
 31
0.0
  0
ARC
  5
1645
330
2
100
AcDbEntity
  8
0
100
AcDbCircle
 10
134.3211844508664
 20
296.1442028329019
 30
0.0
 40
1.3
100
AcDbArc
 50
5.000000000000026
 51
74.11914999172198
  0
LINE
  5
1646
330
2
100
AcDbEntity
  8
0
100
AcDbLine
 10
132.2140666972736
 20
606.6773320481454
 30
0.0
 11
128.7140666972736
 21
606.6773320481454
 31
0.0
  0
LINE
  5
1647
330
2
100
AcDbEntity
  8
0
100
AcDbLine
 10
128.7140666972736
 20
601.1773320481454
 30
0.0
 11
130.7140666972736
 21
599.1773320481454
 31
0.0
  0
CIRCLE
  5
1648
330
2
100
AcDbEntity
  8
0
100
AcDbCircle
 10
132.2140666972736
 20
602.6772400481454
 30
0.0
 40
3.500000000000028
  0
ARC
  5
1649
330
2
100
AcDbEntity
  8
0
100
AcDbCircle
 10
132.2140666972736
 20
602.6772400481454
 30
0.0
 40
2.049999999999998
100
AcDbArc
 50
0.0
 51
8.061960083981649
  0
ARC
  5
164A
330
2
100
AcDbEntity
  8
0
100
AcDbCircle
 10
130.1843666972734
 20
604.7069400481453
 30
0.0
 40
1.742199999999999
100
AcDbArc
 50
269.9986903345067
 51
0.0013096654997424
  0
ARC
  5
164B
330
2
100
AcDbEntity
  8
0
100
AcDbCircle
 10
132.2140666972736
 20
602.6772400481454
 30
0.0
 40
2.049999999999998
100
AcDbArc
 50
171.9380399160183
 51
180.0
  0
ARC
  5
164C
330
2
100
AcDbEntity
  8
0
100
AcDbCircle
 10
134.2437666972734
 20
604.7069400481453
 30
0.0
 40
1.742199999999999
100
AcDbArc
 50
179.9986903345002
 51
270.0013096654932
  0
ARC
  5
164D
330
2
100
AcDbEntity
  8
0
100
AcDbCircle
 10
130.1843666972734
 20
600.6475400481454
 30
0.0
 40
1.742199999999999
100
AcDbArc
 50
359.9986903345002
 51
90.00130966549322
  0
ARC
  5
164E
330
2
100
AcDbEntity
  8
0
100
AcDbCircle
 10
134.2437666972734
 20
600.6475400481454
 30
0.0
 40
1.742199999999999
100
AcDbArc
 50
89.99869033449375
 51
180.0013096654997
  0
ARC
  5
164F
330
2
100
AcDbEntity
  8
0
100
AcDbCircle
 10
132.2140666972736
 20
602.6772400481454
 30
0.0
 40
2.049999999999998
100
AcDbArc
 50
261.9380399160178
 51
270.0
  0
ARC
  5
1650
330
2
100
AcDbEntity
  8
0
100
AcDbCircle
 10
132.2140666972736
 20
602.6772400481454
 30
0.0
 40
2.049999999999998
100
AcDbArc
 50
270.0
 51
278.061960083982
  0
ARC
  5
1651
330
2
100
AcDbEntity
  8
0
100
AcDbCircle
 10
132.2140666972736
 20
602.6772400481454
 30
0.0
 40
2.049999999999998
100
AcDbArc
 50
351.9380399160183
 51
0.0
  0
ARC
  5
1652
330
2
100
AcDbEntity
  8
0
100
AcDbCircle
 10
132.2140666972736
 20
602.6772400481454
 30
0.0
 40
2.049999999999998
100
AcDbArc
 50
180.0
 51
188.0619600839816
  0
ARC
  5
1653
330
2
100
AcDbEntity
  8
0
100
AcDbCircle
 10
132.2140666972736
 20
602.6772400481454
 30
0.0
 40
2.049999999999998
100
AcDbArc
 50
90.0
 51
98.06196008398211
  0
ARC
  5
1654
330
2
100
AcDbEntity
  8
0
100
AcDbCircle
 10
132.2140666972736
 20
602.6772400481454
 30
0.0
 40
2.049999999999998
100
AcDbArc
 50
81.93803991601789
 51
90.0
  0
ARC
  5
1655
330
2
100
AcDbEntity
  8
0
100
AcDbCircle
 10
132.2140666972736
 20
602.6772400481454
 30
0.0
 40
4.0
100
AcDbArc
 50
0.0
 51
90.0
  0
LINE
  5
1656
330
2
100
AcDbEntity
  8
0
100
AcDbLine
 10
136.2140666972736
 20
602.6772400481454
 30
0.0
 11
136.2140666972736
 21
599.1773320481454
 31
0.0
  0
LINE
  5
1657
330
2
100
AcDbEntity
  8
0
100
AcDbLine
 10
128.7140666972736
 20
647.1773320481454
 30
0.0
 11
130.7140666972736
 21
649.1773320481454
 31
0.0
  0
LINE
  5
1658
330
2
100
AcDbEntity
  8
0
100
AcDbLine
 10
128.7140666972736
 20
647.1773320481454
 30
0.0
 11
130.7140666972736
 21
649.1773320481454
 31
0.0
  0
LINE
  5
1659
330
2
100
AcDbEntity
  8
0
100
AcDbLine
 10
132.2140666972736
 20
641.6773320481454
 30
0.0
 11
128.7140666972736
 21
641.6773320481454
 31
0.0
  0
CIRCLE
  5
165A
330
2
100
AcDbEntity
  8
0
100
AcDbCircle
 10
132.2140666972736
 20
645.6773320481454
 30
0.0
 40
3.500000000000028
  0
LINE
  5
165B
330
2
100
AcDbEntity
  8
0
100
AcDbLine
 10
136.2140666972736
 20
645.6773320481454
 30
0.0
 11
136.2140666972736
 21
649.1771480481454
 31
0.0
  0
ARC
  5
165C
330
2
100
AcDbEntity
  8
0
100
AcDbCircle
 10
130.1843666972734
 20
647.7070320481454
 30
0.0
 40
1.742199999999999
100
AcDbArc
 50
269.9986903345067
 51
0.0013096654997424
  0
ARC
  5
165D
330
2
100
AcDbEntity
  8
0
100
AcDbCircle
 10
134.2437666972734
 20
647.7070320481454
 30
0.0
 40
1.742199999999999
100
AcDbArc
 50
179.9986903345002
 51
270.0013096654932
  0
ARC
  5
165E
330
2
100
AcDbEntity
  8
0
100
AcDbCircle
 10
132.2140666972736
 20
645.6773320481454
 30
0.0
 40
2.049999999999998
100
AcDbArc
 50
0.0
 51
8.061960083981649
  0
ARC
  5
165F
330
2
100
AcDbEntity
  8
0
100
AcDbCircle
 10
132.2140666972736
 20
645.6773320481454
 30
0.0
 40
2.049999999999998
100
AcDbArc
 50
351.9380399160183
 51
0.0
  0
ARC
  5
1660
330
2
100
AcDbEntity
  8
0
100
AcDbCircle
 10
132.2140666972736
 20
645.6773320481454
 30
0.0
 40
2.049999999999998
100
AcDbArc
 50
171.9380399160183
 51
180.0
  0
ARC
  5
1661
330
2
100
AcDbEntity
  8
0
100
AcDbCircle
 10
132.2140666972736
 20
645.6773320481454
 30
0.0
 40
2.049999999999998
100
AcDbArc
 50
180.0
 51
188.0619600839816
  0
ARC
  5
1662
330
2
100
AcDbEntity
  8
0
100
AcDbCircle
 10
132.2140666972736
 20
645.6773320481454
 30
0.0
 40
2.049999999999998
100
AcDbArc
 50
261.9380399160178
 51
270.0
  0
ARC
  5
1663
330
2
100
AcDbEntity
  8
0
100
AcDbCircle
 10
130.1843666972734
 20
643.6476320481453
 30
0.0
 40
1.742199999999999
100
AcDbArc
 50
359.9986903345002
 51
90.00130966549322
  0
ARC
  5
1664
330
2
100
AcDbEntity
  8
0
100
AcDbCircle
 10
132.2140666972736
 20
645.6773320481454
 30
0.0
 40
2.049999999999998
100
AcDbArc
 50
270.0
 51
278.061960083982
  0
ARC
  5
1665
330
2
100
AcDbEntity
  8
0
100
AcDbCircle
 10
134.2437666972734
 20
643.6476320481453
 30
0.0
 40
1.742199999999999
100
AcDbArc
 50
89.99869033449375
 51
180.0013096654997
  0
ARC
  5
1666
330
2
100
AcDbEntity
  8
0
100
AcDbCircle
 10
132.2140666972736
 20
645.6773320481454
 30
0.0
 40
4.0
100
AcDbArc
 50
270.0
 51
0.0
  0
ARC
  5
1667
330
2
100
AcDbEntity
  8
0
100
AcDbCircle
 10
132.2140666972736
 20
645.6773320481454
 30
0.0
 40
2.049999999999998
100
AcDbArc
 50
90.0
 51
98.06196008398211
  0
ARC
  5
1668
330
2
100
AcDbEntity
  8
0
100
AcDbCircle
 10
132.2140666972736
 20
645.6773320481454
 30
0.0
 40
2.049999999999998
100
AcDbArc
 50
81.93803991601789
 51
90.0
  0
LINE
  5
1669
330
2
100
AcDbEntity
  8
0
100
AcDbLine
 10
176.7139756972735
 20
641.6773320481454
 30
0.0
 11
176.7139756972735
 21
606.6773320481454
 31
0.0
  0
LINE
  5
166A
330
2
100
AcDbEntity
  8
0
100
AcDbLine
 10
178.7141736972735
 20
647.1773320481454
 30
0.0
 11
178.7139756972735
 21
601.1773320481454
 31
0.0
  0
LINE
  5
1677
330
2
100
AcDbEntity
  8
0
100
AcDbLine
 10
178.7141736972735
 20
296.6380901086554
 30
0.0
 11
178.7141736972735
 21
254.6380751086554
 31
0.0
  0
LINE
  5
1678
330
2
100
AcDbEntity
  8
0
100
AcDbLine
 10
176.7141736972735
 20
252.6380751086554
 30
0.0
 11
178.7141736972735
 21
254.6380751086554
 31
0.0
  0
LINE
  5
1679
330
2
100
AcDbEntity
  8
0
100
AcDbLine
 10
176.2141736972735
 20
252.6380751086554
 30
0.0
 11
176.2141736972735
 21
251.1380751086554
 31
0.0
  0
LINE
  5
167C
330
2
100
AcDbEntity
  8
0
100
AcDbLine
 10
178.7141736972735
 20
295.1380901086555
 30
0.0
 11
178.6162375583858
 21
296.2575052984738
 31
0.0
  0
LINE
  5
167D
330
2
100
AcDbEntity
  8
0
100
AcDbLine
 10
171.7141736972735
 20
295.1380901086555
 30
0.0
 11
171.8121098361614
 21
296.2575052984738
 31
0.0
  0
LINE
  5
167E
330
2
100
AcDbEntity
  8
0
100
AcDbLine
 10
171.2141736972735
 20
295.1380901086554
 30
0.0
 11
171.2141736972735
 21
297.1380901086555
 31
0.0
  0
LINE
  5
167F
330
2
100
AcDbEntity
  8
0
100
AcDbLine
 10
171.2141736972735
 20
295.1380901086554
 30
0.0
 11
178.7141736972735
 21
295.1380901086555
 31
0.0
  0
SPLINE
  5
1680
330
2
100
AcDbEntity
  8
0
100
AcDbSpline
210
0.0
220
0.0
230
1.0
 70
     8
 71
     3
 72
    11
 73
     7
 74
     0
 42
0.0000000001
 43
0.0000000001
 40
0.0
 40
0.0
 40
0.0
 40
0.0
 40
0.4601364636755307
 40
1.04988694485363
 40
1.713742833862792
 40
2.320347933405154
 40
2.320347933405154
 40
2.320347933405154
 40
2.320347933405179
 10
174.9266736968186
 20
296.2210901086555
 30
0.0
 10
174.9042560397106
 20
296.3761135483354
 30
0.0
 10
174.8531059844774
 20
296.7298283662529
 30
0.0
 10
174.4172208229438
 20
297.1545560378546
 30
0.0
 10
173.8121701079364
 20
297.3737432178204
 30
0.0
 10
173.3869854837605
 20
297.3047519182098
 30
0.0
 10
173.1844338741095
 20
297.2905316460331
 30
0.0
  0
ARC
  5
1681
330
2
100
AcDbEntity
  8
0
100
AcDbCircle
 10
175.2141736972735
 20
288.7380901086555
 30
0.0
 40
9.0
100
AcDbArc
 50
74.11914999172198
 51
105.880850008278
  0
LINE
  5
1682
330
2
100
AcDbEntity
  8
0
100
AcDbLine
 10
173.1844338741095
 20
297.2905316460331
 30
0.0
 11
173.1641736972735
 21
297.5015083914947
 31
0.0
  0
LINE
  5
1683
330
2
100
AcDbEntity
  8
0
100
AcDbLine
 10
170.7141736972735
 20
297.6380901086554
 30
0.0
 11
171.2141736972735
 21
297.1380901086554
 31
0.0
  0
ARC
  5
1684
330
2
100
AcDbEntity
  8
0
100
AcDbCircle
 10
173.1071629436805
 20
296.1442028329019
 30
0.0
 40
1.3
100
AcDbArc
 50
105.880850008278
 51
174.9999999999999
  0
LINE
  5
1685
330
2
100
AcDbEntity
  8
0
100
AcDbLine
 10
171.2141736972735
 20
297.1380901086554
 30
0.0
 11
172.2691963076531
 21
297.1380901086554
 31
0.0
  0
ARC
  5
1686
330
2
100
AcDbEntity
  8
0
100
AcDbCircle
 10
177.3211844508664
 20
296.1442028329019
 30
0.0
 40
1.3
100
AcDbArc
 50
5.000000000000026
 51
74.11914999172198
  0
LINE
  5
1687
330
2
100
AcDbEntity
  8
0
100
AcDbLine
 10
177.7141736972735
 20
297.6380901086554
 30
0.0
 11
178.7141736972735
 21
296.6380901086554
 31
0.0
  0
LINE
  5
1688
330
2
100
AcDbEntity
  8
0
100
AcDbLine
 10
177.2439135204376
 20
297.2905316460331
 30
0.0
 11
177.2641736972737
 21
297.5015083914947
 31
0.0
  0
LINE
  5
1689
330
2
100
AcDbEntity
  8
0
100
AcDbLine
 10
175.5016736977286
 20
296.2210901086555
 30
0.0
 11
174.9266736968186
 21
296.2210901086555
 31
0.0
  0
SPLINE
  5
168A
330
2
100
AcDbEntity
  8
0
100
AcDbSpline
210
0.0
220
0.0
230
1.0
 70
     8
 71
     3
 72
    11
 73
     7
 74
     0
 42
0.0000000001
 43
0.0000000001
 40
0.0
 40
0.0
 40
0.0
 40
0.0
 40
0.4601364636755307
 40
1.04988694485363
 40
1.713742833862792
 40
2.320347933405154
 40
2.320347933405154
 40
2.320347933405154
 40
2.320347933405179
 10
175.5016736977286
 20
296.2210901086555
 30
0.0
 10
175.5240913548363
 20
296.3761135483354
 30
0.0
 10
175.5752414100697
 20
296.7298283662529
 30
0.0
 10
176.0111265716034
 20
297.1545560378546
 30
0.0
 10
176.6161772866107
 20
297.3737432178204
 30
0.0
 10
177.0413619107866
 20
297.3047519182098
 30
0.0
 10
177.2439135204376
 20
297.2905316460331
 30
0.0
  0
LINE
  5
168B
330
2
100
AcDbEntity
  8
0
100
AcDbLine
 10
176.5520825133001
 20
297.6380901086554
 30
0.0
 11
177.7141736972735
 21
297.6380901086554
 31
0.0
  0
ARC
  5
16B0
330
2
100
AcDbEntity
  8
0
100
AcDbCircle
 10
175.2141736972735
 20
602.6772400481454
 30
0.0
 40
4.0
100
AcDbArc
 50
90.0
 51
180.0
  0
ARC
  5
16B1
330
2
100
AcDbEntity
  8
0
100
AcDbCircle
 10
173.1844736972734
 20
604.7069400481453
 30
0.0
 40
1.742199999999999
100
AcDbArc
 50
269.9986903345067
 51
0.0013096654997424
  0
ARC
  5
16B2
330
2
100
AcDbEntity
  8
0
100
AcDbCircle
 10
173.1844736972734
 20
600.6475400481454
 30
0.0
 40
1.742199999999999
100
AcDbArc
 50
359.9986903345002
 51
90.00130966549322
  0
ARC
  5
16B3
330
2
100
AcDbEntity
  8
0
100
AcDbCircle
 10
175.2141736972735
 20
602.6772400481454
 30
0.0
 40
2.049999999999998
100
AcDbArc
 50
171.9380399160183
 51
180.0
  0
ARC
  5
16B4
330
2
100
AcDbEntity
  8
0
100
AcDbCircle
 10
175.2141736972735
 20
602.6772400481454
 30
0.0
 40
2.049999999999998
100
AcDbArc
 50
180.0
 51
188.0619600839816
  0
LINE
  5
16B5
330
2
100
AcDbEntity
  8
0
100
AcDbLine
 10
175.2139756972735
 20
606.6773320481454
 30
0.0
 11
178.7139756972735
 21
606.6773320481454
 31
0.0
  0
ARC
  5
16B6
330
2
100
AcDbEntity
  8
0
100
AcDbCircle
 10
175.2141736972735
 20
602.6772400481454
 30
0.0
 40
2.049999999999998
100
AcDbArc
 50
0.0
 51
8.061960083981649
  0
ARC
  5
16B7
330
2
100
AcDbEntity
  8
0
100
AcDbCircle
 10
177.2438736972735
 20
604.7069400481453
 30
0.0
 40
1.742199999999999
100
AcDbArc
 50
179.9986903345002
 51
270.0013096654932
  0
ARC
  5
16B8
330
2
100
AcDbEntity
  8
0
100
AcDbCircle
 10
177.2438736972735
 20
600.6475400481454
 30
0.0
 40
1.742199999999999
100
AcDbArc
 50
89.99869033449375
 51
180.0013096654997
  0
ARC
  5
16B9
330
2
100
AcDbEntity
  8
0
100
AcDbCircle
 10
175.2141736972735
 20
602.6772400481454
 30
0.0
 40
2.049999999999998
100
AcDbArc
 50
270.0
 51
278.061960083982
  0
ARC
  5
16BA
330
2
100
AcDbEntity
  8
0
100
AcDbCircle
 10
175.2141736972735
 20
602.6772400481454
 30
0.0
 40
2.049999999999998
100
AcDbArc
 50
261.9380399160178
 51
270.0
  0
ARC
  5
16BB
330
2
100
AcDbEntity
  8
0
100
AcDbCircle
 10
175.2141736972735
 20
602.6772400481454
 30
0.0
 40
2.049999999999998
100
AcDbArc
 50
351.9380399160183
 51
0.0
  0
ARC
  5
16BC
330
2
100
AcDbEntity
  8
0
100
AcDbCircle
 10
175.2141736972735
 20
602.6772400481454
 30
0.0
 40
2.049999999999998
100
AcDbArc
 50
81.93803991601789
 51
90.0
  0
ARC
  5
16BD
330
2
100
AcDbEntity
  8
0
100
AcDbCircle
 10
175.2141736972735
 20
602.6772400481454
 30
0.0
 40
2.049999999999998
100
AcDbArc
 50
90.0
 51
98.06196008398211
  0
CIRCLE
  5
16BE
330
2
100
AcDbEntity
  8
0
100
AcDbCircle
 10
175.2141736972735
 20
602.6772400481454
 30
0.0
 40
3.500000000000028
  0
LINE
  5
16BF
330
2
100
AcDbEntity
  8
0
100
AcDbLine
 10
171.2139756972735
 20
602.6772400481454
 30
0.0
 11
171.2139756972735
 21
599.1773320481454
 31
0.0
  0
LINE
  5
16C0
330
2
100
AcDbEntity
  8
0
100
AcDbLine
 10
178.7139756972735
 20
601.1773320481454
 30
0.0
 11
176.7139756972735
 21
599.1773320481454
 31
0.0
  0
LINE
  5
16C1
330
2
100
AcDbEntity
  8
0
100
AcDbLine
 10
176.7139756972735
 20
599.1773320481454
 30
0.0
 11
178.7139756972735
 21
601.1773320481454
 31
0.0
  0
CIRCLE
  5
16F2
330
2
100
AcDbEntity
  8
0
100
AcDbCircle
 10
175.2141736972735
 20
645.6773320481454
 30
0.0
 40
3.500000000000028
  0
ARC
  5
16F3
330
2
100
AcDbEntity
  8
0
100
AcDbCircle
 10
173.1844736972734
 20
647.7070320481454
 30
0.0
 40
1.742199999999999
100
AcDbArc
 50
269.9986903345067
 51
0.0013096654997424
  0
LINE
  5
16F4
330
2
100
AcDbEntity
  8
0
100
AcDbLine
 10
171.2139756972735
 20
645.6773320481454
 30
0.0
 11
171.2139756972735
 21
649.1771480481454
 31
0.0
  0
ARC
  5
16F5
330
2
100
AcDbEntity
  8
0
100
AcDbCircle
 10
177.2438736972735
 20
647.7070320481454
 30
0.0
 40
1.742199999999999
100
AcDbArc
 50
179.9986903345002
 51
270.0013096654932
  0
ARC
  5
16F6
330
2
100
AcDbEntity
  8
0
100
AcDbCircle
 10
175.2141736972735
 20
645.6773320481454
 30
0.0
 40
4.0
100
AcDbArc
 50
180.0
 51
270.0
  0
ARC
  5
16F7
330
2
100
AcDbEntity
  8
0
100
AcDbCircle
 10
173.1844736972734
 20
643.6476320481453
 30
0.0
 40
1.742199999999999
100
AcDbArc
 50
359.9986903345002
 51
90.00130966549322
  0
ARC
  5
16F8
330
2
100
AcDbEntity
  8
0
100
AcDbCircle
 10
175.2141736972735
 20
645.6773320481454
 30
0.0
 40
2.049999999999998
100
AcDbArc
 50
171.9380399160183
 51
180.0
  0
ARC
  5
16F9
330
2
100
AcDbEntity
  8
0
100
AcDbCircle
 10
175.2141736972735
 20
645.6773320481454
 30
0.0
 40
2.049999999999998
100
AcDbArc
 50
180.0
 51
188.0619600839816
  0
ARC
  5
16FA
330
2
100
AcDbEntity
  8
0
100
AcDbCircle
 10
175.2141736972735
 20
645.6773320481454
 30
0.0
 40
2.049999999999998
100
AcDbArc
 50
0.0
 51
8.061960083981649
  0
ARC
  5
16FB
330
2
100
AcDbEntity
  8
0
100
AcDbCircle
 10
175.2141736972735
 20
645.6773320481454
 30
0.0
 40
2.049999999999998
100
AcDbArc
 50
351.9380399160183
 51
0.0
  0
ARC
  5
16FC
330
2
100
AcDbEntity
  8
0
100
AcDbCircle
 10
175.2141736972735
 20
645.6773320481454
 30
0.0
 40
2.049999999999998
100
AcDbArc
 50
270.0
 51
278.061960083982
  0
ARC
  5
16FD
330
2
100
AcDbEntity
  8
0
100
AcDbCircle
 10
175.2141736972735
 20
645.6773320481454
 30
0.0
 40
2.049999999999998
100
AcDbArc
 50
261.9380399160178
 51
270.0
  0
LINE
  5
16FE
330
2
100
AcDbEntity
  8
0
100
AcDbLine
 10
175.2139756972735
 20
641.6773320481454
 30
0.0
 11
178.7139756972735
 21
641.6773320481454
 31
0.0
  0
ARC
  5
16FF
330
2
100
AcDbEntity
  8
0
100
AcDbCircle
 10
177.2438736972735
 20
643.6476320481453
 30
0.0
 40
1.742199999999999
100
AcDbArc
 50
89.99869033449375
 51
180.0013096654997
  0
ARC
  5
1700
330
2
100
AcDbEntity
  8
0
100
AcDbCircle
 10
175.2141736972735
 20
645.6773320481454
 30
0.0
 40
2.049999999999998
100
AcDbArc
 50
81.93803991601789
 51
90.0
  0
ARC
  5
1701
330
2
100
AcDbEntity
  8
0
100
AcDbCircle
 10
175.2141736972735
 20
645.6773320481454
 30
0.0
 40
2.049999999999998
100
AcDbArc
 50
90.0
 51
98.06196008398211
  0
LINE
  5
1702
330
2
100
AcDbEntity
  8
0
100
AcDbLine
 10
178.7139756972735
 20
647.1773320481454
 30
0.0
 11
176.7139756972735
 21
649.1773320481454
 31
0.0
  0
LINE
  5
1703
330
2
100
AcDbEntity
  8
0
100
AcDbLine
 10
178.7139756972735
 20
647.1773320481454
 30
0.0
 11
176.7139756972735
 21
649.1773320481454
 31
0.0
  0
LINE
  5
1704
330
2
100
AcDbEntity
  8
0
100
AcDbLine
 10
178.7141736972735
 20
647.1773320481454
 30
0.0
 11
176.7139756972735
 21
649.1773320481454
 31
0.0
  0
LINE
  5
1781
330
2
100
AcDbEntity
  8
0
100
AcDbLine
 10
129.2141316972733
 20
600.6772670481457
 30
0.0
 11
129.2141316972733
 21
569.1773320481454
 31
0.0
  0
ENDSEC
  0
SECTION
  2
OBJECTS
  0
DICTIONARY
  5
7
330
0
100
AcDbDictionary
  3
ACAD_GROUP
350
75
  3
ACAD_LAYOUT
350
61
  3
ACAD_MLINESTYLE
350
76
  3
ACAD_PLOTSETTINGS
350
77
  3
ACAD_PLOTSTYLENAME
350
6
  3
ACADDIM
350
10DE
  3
ACDBHEADERROUNDTRIPXREC
350
17DC
  3
ACDBVARIABLEDICTIONARY
350
102
  3
DWGPROPS
350
3D2
  0
DICTIONARY
  5
17FD
330
2
100
AcDbDictionary
280
     1
  3
ACAD_LAYOUTSELFREF
360
17FE
  0
DICTIONARY
  5
17FF
330
17D6
100
AcDbDictionary
280
     1
  3
ACAD_LAYOUTSELFREF
360
1800
  0
DICTIONARY
  5
75
102
{ACAD_REACTORS
330
7
102
}
330
7
100
AcDbDictionary
  0
DICTIONARY
  5
61
102
{ACAD_REACTORS
330
7
102
}
330
7
100
AcDbDictionary
  0
DICTIONARY
  5
76
102
{ACAD_REACTORS
330
7
102
}
330
7
100
AcDbDictionary
  3
STANDARD
350
78
  0
DICTIONARY
  5
77
102
{ACAD_REACTORS
330
7
102
}
330
7
100
AcDbDictionary
  0
ACDBDICTIONARYWDFLT
  5
6
102
{ACAD_REACTORS
330
7
102
}
330
7
100
AcDbDictionary
281
     1
  3
Normal
350
5
100
AcDbDictionaryWithDefault
340
5
  0
XRECORD
  5
10DE
102
{ACAD_REACTORS
330
7
102
}
330
7
100
AcDbXrecord
 90
   990106
  3

 60
     0
 61
     0
 62
     4
 63
     4
 64
     1
 65
     0
 66
     0
 67
     3
 68
     1
 69
     0
 70
     0
 71
     0
 72
     0
 40
0.0
170
     2
  0
DICTIONARY
  5
17DC
102
{ACAD_REACTORS
330
7
102
}
330
7
100
AcDbDictionary
  3
CEPSNTYPE
350
17E6
  3
DIMSTYLEDATA
350
17EA
  3
FINGERPRINTGUID
350
17E7
  3
HYPERLINKBASE
350
17DF
  3
INSUNITS
350
17E5
  3
LAYOUTDICT
350
17E1
  3
LWETCUNION
350
17E4
  3
PLOTSETDICT
350
17E2
  3
PLOTSTYLNAMDICT
350
17E3
  3
PSVPSCALE
350
17E9
  3
PUCSBASE
350
17ED
  3
PUCSORGBACK
350
17F3
  3
PUCSORGBOTTOM
350
17EF
  3
PUCSORGFRONT
350
17F2
  3
PUCSORGLEFT
350
17F0
  3
PUCSORGRIGHT
350
17F1
  3
PUCSORGTOP
350
17EE
  3
PUCSORTHOREF
350
17EB
  3
PUCSORTHOVIEW
350
17EC
  3
STYLESHEET
350
17E0
  3
TSTACKALIGN
350
17DD
  3
TSTACKSIZE
350
17DE
  3
UCSBASE
350
17F6
  3
UCSORGBACK
350
17FC
  3
UCSORGBOTTOM
350
17F8
  3
UCSORGFRONT
350
17FB
  3
UCSORGLEFT
350
17F9
  3
UCSORGRIGHT
350
17FA
  3
UCSORGTOP
350
17F7
  3
UCSORTHOREF
350
17F4
  3
UCSORTHOVIEW
350
17F5
  3
VERSIONGUID
350
17E8
  0
DICTIONARY
  5
102
102
{ACAD_REACTORS
330
7
102
}
330
7
100
AcDbDictionary
  3
DIMASSOC
350
103
  0
XRECORD
  5
3D2
102
{ACAD_REACTORS
330
7
102
}
330
7
100
AcDbXrecord
  1
DWGPROPS COOKIE
  2

  3

  4

  6

  7

  8

  9

300
=
301
=
302
=
303
=
304
=
305
=
306
=
307
=
308
=
309
=
 40
0.5353330671296296
 41
2452052.431989363
 42
2453406.550756377
  1

 90
        0
  0
XRECORD
  5
17FE
102
{ACAD_REACTORS
330
17FD
102
}
330
17FD
100
AcDbXrecord
340
2
  0
XRECORD
  5
1800
102
{ACAD_REACTORS
330
17FF
102
}
330
17FF
100
AcDbXrecord
340
17D6
  0
MLINESTYLE
  5
78
102
{ACAD_REACTORS
330
76
102
}
330
76
100
AcDbMlineStyle
  2
STANDARD
 70
     0
  3

 62
     0
 51
90.0
 52
90.0
 71
     2
 49
0.5
 62
   256
  6
BYLAYER
 49
-0.5
 62
   256
  6
BYLAYER
  0
ACDBPLACEHOLDER
  5
5
102
{ACAD_REACTORS
330
6
102
}
330
6
100
AcDbPlaceHolder
280
     0
  0
XRECORD
  5
17E6
102
{ACAD_REACTORS
330
17DC
102
}
330
17DC
100
AcDbXrecord
 90
        0
  0
XRECORD
  5
17EA
102
{ACAD_REACTORS
330
17DC
102
}
330
17DC
100
AcDbXrecord
1000
DSTYLE
1002
{
1070
   179
 70
     2
1070
   277
 70
     6
1002
}
  0
XRECORD
  5
17E7
102
{ACAD_REACTORS
330
17DC
102
}
330
17DC
100
AcDbXrecord
  1
{6385560B-F4B1-4644-A7C2-A3E32AC3D232}
  0
XRECORD
  5
17DF
102
{ACAD_REACTORS
330
17DC
102
}
330
17DC
100
AcDbXrecord
  1

  0
XRECORD
  5
17E5
102
{ACAD_REACTORS
330
17DC
102
}
330
17DC
100
AcDbXrecord
 90
        0
  0
XRECORD
  5
17E1
102
{ACAD_REACTORS
330
17DC
102
}
330
17DC
100
AcDbXrecord
340
61
  0
XRECORD
  5
17E4
102
{ACAD_REACTORS
330
17DC
102
}
330
17DC
100
AcDbXrecord
 90
    10781
  0
XRECORD
  5
17E2
102
{ACAD_REACTORS
330
17DC
102
}
330
17DC
100
AcDbXrecord
340
77
  0
XRECORD
  5
17E3
102
{ACAD_REACTORS
330
17DC
102
}
330
17DC
100
AcDbXrecord
340
6
  0
XRECORD
  5
17E9
102
{ACAD_REACTORS
330
17DC
102
}
330
17DC
100
AcDbXrecord
 40
0.0
  0
XRECORD
  5
17ED
102
{ACAD_REACTORS
330
17DC
102
}
330
17DC
100
AcDbXrecord
340
0
  0
XRECORD
  5
17F3
102
{ACAD_REACTORS
330
17DC
102
}
330
17DC
100
AcDbXrecord
 10
0.0
 20
0.0
 30
0.0
  0
XRECORD
  5
17EF
102
{ACAD_REACTORS
330
17DC
102
}
330
17DC
100
AcDbXrecord
 10
0.0
 20
0.0
 30
0.0
  0
XRECORD
  5
17F2
102
{ACAD_REACTORS
330
17DC
102
}
330
17DC
100
AcDbXrecord
 10
0.0
 20
0.0
 30
0.0
  0
XRECORD
  5
17F0
102
{ACAD_REACTORS
330
17DC
102
}
330
17DC
100
AcDbXrecord
 10
0.0
 20
0.0
 30
0.0
  0
XRECORD
  5
17F1
102
{ACAD_REACTORS
330
17DC
102
}
330
17DC
100
AcDbXrecord
 10
0.0
 20
0.0
 30
0.0
  0
XRECORD
  5
17EE
102
{ACAD_REACTORS
330
17DC
102
}
330
17DC
100
AcDbXrecord
 10
0.0
 20
0.0
 30
0.0
  0
XRECORD
  5
17EB
102
{ACAD_REACTORS
330
17DC
102
}
330
17DC
100
AcDbXrecord
340
0
  0
XRECORD
  5
17EC
102
{ACAD_REACTORS
330
17DC
102
}
330
17DC
100
AcDbXrecord
 70
     0
  0
XRECORD
  5
17E0
102
{ACAD_REACTORS
330
17DC
102
}
330
17DC
100
AcDbXrecord
  1
Sekkei.ctb
  0
XRECORD
  5
17DD
102
{ACAD_REACTORS
330
17DC
102
}
330
17DC
100
AcDbXrecord
 90
        1
  0
XRECORD
  5
17DE
102
{ACAD_REACTORS
330
17DC
102
}
330
17DC
100
AcDbXrecord
 90
       70
  0
XRECORD
  5
17F6
102
{ACAD_REACTORS
330
17DC
102
}
330
17DC
100
AcDbXrecord
340
0
  0
XRECORD
  5
17FC
102
{ACAD_REACTORS
330
17DC
102
}
330
17DC
100
AcDbXrecord
 10
0.0
 20
0.0
 30
0.0
  0
XRECORD
  5
17F8
102
{ACAD_REACTORS
330
17DC
102
}
330
17DC
100
AcDbXrecord
 10
0.0
 20
0.0
 30
0.0
  0
XRECORD
  5
17FB
102
{ACAD_REACTORS
330
17DC
102
}
330
17DC
100
AcDbXrecord
 10
0.0
 20
0.0
 30
0.0
  0
XRECORD
  5
17F9
102
{ACAD_REACTORS
330
17DC
102
}
330
17DC
100
AcDbXrecord
 10
0.0
 20
0.0
 30
0.0
  0
XRECORD
  5
17FA
102
{ACAD_REACTORS
330
17DC
102
}
330
17DC
100
AcDbXrecord
 10
0.0
 20
0.0
 30
0.0
  0
XRECORD
  5
17F7
102
{ACAD_REACTORS
330
17DC
102
}
330
17DC
100
AcDbXrecord
 10
0.0
 20
0.0
 30
0.0
  0
XRECORD
  5
17F4
102
{ACAD_REACTORS
330
17DC
102
}
330
17DC
100
AcDbXrecord
340
0
  0
XRECORD
  5
17F5
102
{ACAD_REACTORS
330
17DC
102
}
330
17DC
100
AcDbXrecord
 70
     0
  0
XRECORD
  5
17E8
102
{ACAD_REACTORS
330
17DC
102
}
330
17DC
100
AcDbXrecord
  1
{475EC17B-E12D-4367-BB6E-82F94B792DC3}
  0
DICTIONARYVAR
  5
103
102
{ACAD_REACTORS
330
102
102
}
330
102
100
DictionaryVariables
280
     0
  1
1
  0
ENDSEC
  0
EOF
