  0
SECTION
  2
HEADER
  9
$CLAYER
  8
1
  9
$LTSCALE
 40
3.0
  0
ENDSEC
  0
SECTION
  2
TABLES
  0
TABLE
  2
LTYPE
 70
     4
  0
LTYPE
  2
CONTINUOUS
  3
solid line
 70
    64
 72
    65
 73
     0
 40
0.0
  0
LTYPE
  2
DASHED
  3
__ __ __ __ __ __ __ __ __ __ __ __ __ __ __
 70
    64
 72
    65
 73
     2
 40
0.75
 49
0.5
 49
-0.25
  0
LTYPE
  2
CENTER
  3
____ _ ____ _ ____ _ ____ _ ____ _ ____ _ ____
 70
    64
 72
    65
 73
     4
 40
2.0
 49
1.25
 49
-0.25
 49
0.25
 49
-0.25
  0
LTYPE
  2
PHANTOM
  3
_____ _ _ _____ _ _ _____ _ _ _____ _ _ ____
 70
    64
 72
    65
 73
     6
 40
2.5
 49
1.25
 49
-0.25
 49
0.25
 49
-0.25
 49
0.25
 49
-0.25
  0
ENDTAB
  0
TABLE
  2
LAYER
 70
     1
  0
LAYER
  2
0
 70
    64
 62
     7
  6
CONTINUOUS
  0
ENDTAB
  0
TABLE
  2
STYLE
 70
     1
  0
STYLE
  2
STANDARD
 70
     0
 40
0.000000
 41
1.000000
 50
0.000000
 71
     0
 42
3.000000
  3
txt
  4
BIGFONT
  0
ENDTAB
  0
ENDSEC
  0
SECTION
  2
BLOCKS
  0
ENDSEC
  0
SECTION
  2
ENTITIES
  0
LINE
  8
0
  6
CONTINUOUS
 10
248.917389
 20
57.910000
 11
248.917389
 21
199.910004
  0
LINE
  8
0
  6
CENTER
 10
149.300003
 20
128.910004
 11
295.407379
 21
128.910004
  0
LINE
  8
0
  6
CENTER
 10
351.917389
 20
272.265015
 11
351.917389
 21
3.270000
  0
LINE
  8
0
  6
CENTER
 10
277.225006
 20
182.410004
 11
426.929993
 21
182.410004
  0
LINE
  8
0
  6
CONTINUOUS
 10
261.917389
 20
17.410000
 11
441.917389
 21
17.410000
  0
LINE
  8
0
  6
CONTINUOUS
 10
261.917389
 20
37.410000
 11
441.917389
 21
37.410000
  0
LINE
  8
0
  6
CONTINUOUS
 10
320.102997
 20
259.910004
 11
383.731781
 21
259.910004
  0
LINE
  8
0
  6
CONTINUOUS
 10
441.917389
 20
215.742004
 11
441.917389
 21
17.410000
  0
LINE
  8
0
  6
CONTINUOUS
 10
261.917389
 20
215.742004
 11
261.917389
 21
17.410000
  0
LINE
  8
0
  6
CONTINUOUS
 10
248.917389
 20
199.910004
 11
256.917389
 21
199.910004
  0
LINE
  8
0
  6
CONTINUOUS
 10
248.917389
 20
57.910000
 11
256.917389
 21
57.910000
  0
LINE
  8
0
  6
CONTINUOUS
 10
389.515991
 20
258.067352
 11
437.701782
 21
223.899323
  0
LINE
  8
0
  6
CONTINUOUS
 10
266.133179
 20
223.899323
 11
314.318787
 21
258.067352
  0
ARC
  8
0
  6
CONTINUOUS
 10
431.917389
 20
215.741959
 40
10.000000
 50
0.000000
 51
54.660099
  0
ARC
  8
0
  6
CONTINUOUS
 10
383.731781
 20
249.910004
 40
10.000000
 50
54.659950
 51
90.000000
  0
ARC
  8
0
  6
CONTINUOUS
 10
320.102997
 20
249.910004
 40
10.000000
 50
90.000000
 51
125.340302
  0
ARC
  8
0
  6
CONTINUOUS
 10
271.917389
 20
215.742035
 40
10.000000
 50
125.340500
 51
180.000000
  0
ARC
  8
0
  6
CONTINUOUS
 10
256.917389
 20
204.910004
 40
5.000000
 50
-90.000000
 51
0.000000
  0
ARC
  8
0
  6
CONTINUOUS
 10
256.917389
 20
52.909981
 40
5.000000
 50
0.000000
 51
90.000000
  0
LINE
  8
0
  6
CENTER
 10
411.917389
 20
43.165001
 11
411.917389
 21
9.195000
  0
LINE
  8
0
  6
CENTER
 10
291.917389
 20
44.349998
 11
291.917389
 21
9.590000
  0
LINE
  8
0
  6
DASHED
 10
404.417389
 20
37.410000
 11
404.417389
 21
17.410000
  0
LINE
  8
0
  6
DASHED
 10
419.417389
 20
37.410000
 11
419.417389
 21
17.410000
  0
LINE
  8
0
  6
DASHED
 10
299.417389
 20
37.410000
 11
299.417389
 21
17.410000
  0
LINE
  8
0
  6
DASHED
 10
284.417389
 20
37.410000
 11
284.417389
 21
17.410000
  0
LINE
  8
0
  6
CONTINUOUS
 10
427.917389
 20
34.724682
 11
427.917389
 21
17.410000
  0
LINE
  8
0
  6
CONTINUOUS
 10
275.917389
 20
34.724682
 11
275.917389
 21
17.410000
  0
LINE
  8
0
  6
CONTINUOUS
 10
385.674774
 20
42.410000
 11
318.159973
 21
42.410000
  0
LINE
  8
0
  6
CONTINUOUS
 10
316.917389
 20
41.273121
 11
316.917389
 21
38.410000
  0
LINE
  8
0
  6
CONTINUOUS
 10
386.917389
 20
41.273121
 11
386.917389
 21
38.410000
  0
LINE
  8
0
  6
CONTINUOUS
 10
387.795990
 20
41.531319
 11
390.452972
 21
38.874439
  0
LINE
  8
0
  6
CONTINUOUS
 10
316.038788
 20
41.531319
 11
313.381775
 21
38.874500
  0
ARC
  8
0
  6
CONTINUOUS
 10
309.846375
 20
42.410000
 40
5.000000
 50
270.000000
 51
315.000092
  0
ARC
  8
0
  6
CONTINUOUS
 10
393.988373
 20
42.410000
 40
5.000000
 50
225.000107
 51
270.000000
  0
ARC
  8
0
  6
CONTINUOUS
 10
318.159973
 20
39.410000
 40
3.000000
 50
90.000000
 51
135.000397
  0
ARC
  8
0
  6
CONTINUOUS
 10
385.674774
 20
39.410000
 40
3.000000
 50
45.000259
 51
90.000000
  0
ARC
  8
0
  6
CONTINUOUS
 10
315.917389
 20
38.410000
 40
1.000000
 50
-90.000000
 51
0.000000
  0
ARC
  8
0
  6
CONTINUOUS
 10
387.917389
 20
38.410000
 40
1.000000
 50
180.000000
 51
270.000000
  0
CIRCLE
  8
0
  6
CONTINUOUS
 10
351.917389
 20
182.410004
 40
46.000000
  0
ARC
  8
0
  6
CONTINUOUS
 10
351.917389
 20
182.410004
 40
52.000000
 50
12.522720
 51
167.477402
  0
ARC
  8
0
  6
CONTINUOUS
 10
351.917389
 20
182.410004
 40
48.000000
 50
-192.522598
 51
12.522720
  0
ARC
  8
0
  6
CONTINUOUS
 10
321.917389
 20
111.910004
 40
34.000000
 50
167.477402
 51
270.000000
  0
ARC
  8
0
  6
CONTINUOUS
 10
321.917389
 20
111.910004
 40
38.000000
 50
167.477402
 51
270.000000
  0
ARC
  8
0
  6
CONTINUOUS
 10
381.917389
 20
111.910004
 40
34.000000
 50
-90.000000
 51
12.522730
  0
ARC
  8
0
  6
CONTINUOUS
 10
381.917389
 20
111.910004
 40
38.000000
 50
-90.000000
 51
12.522720
  0
LINE
  8
0
  6
CONTINUOUS
 10
284.821381
 20
120.149361
 11
301.154388
 21
193.684906
  0
LINE
  8
0
  6
CONTINUOUS
 10
402.680389
 20
193.684998
 11
419.013397
 21
120.149429
  0
LINE
  8
0
  6
CONTINUOUS
 10
398.775391
 20
192.817673
 11
415.108582
 21
119.282120
  0
LINE
  8
0
  6
CONTINUOUS
 10
288.726196
 20
119.282066
 11
305.059387
 21
192.817627
  0
LINE
  8
0
  6
CONTINUOUS
 10
321.917389
 20
77.910004
 11
381.917389
 21
77.910004
  0
LINE
  8
0
  6
CONTINUOUS
 10
321.917389
 20
73.910004
 11
381.917389
 21
73.910004
  0
LINE
  8
0
  6
CONTINUOUS
 10
339.690369
 20
95.910004
 11
334.749969
 21
95.910004
  0
LINE
  8
0
  6
CONTINUOUS
 10
342.417389
 20
104.185402
 11
342.417389
 21
95.910004
  0
LINE
  8
0
  6
CONTINUOUS
 10
347.167389
 20
107.191238
 11
347.167389
 21
110.160004
  0
LINE
  8
0
  6
CONTINUOUS
 10
356.667389
 20
107.191238
 11
356.667389
 21
110.160004
  0
LINE
  8
0
  6
CONTINUOUS
 10
350.989594
 20
108.415863
 11
350.989594
 21
97.468597
  0
LINE
  8
0
  6
CONTINUOUS
 10
352.770996
 20
108.415863
 11
352.770996
 21
97.468597
  0
LINE
  8
0
  6
CONTINUOUS
 10
362.122589
 20
108.415863
 11
362.122589
 21
97.394379
  0
LINE
  8
0
  6
CONTINUOUS
 10
363.755371
 20
102.571136
 11
363.755371
 21
97.394379
  0
LINE
  8
0
  6
CONTINUOUS
 10
340.163391
 20
108.267418
 11
335.585785
 21
108.267418
  0
LINE
  8
0
  6
CONTINUOUS
 10
335.585785
 20
108.267418
 11
334.513184
 21
106.937424
  0
LINE
  8
0
  6
CONTINUOUS
 10
334.642181
 20
110.160004
 11
332.917389
 21
107.951538
  0
LINE
  8
0
  6
CONTINUOUS
 10
334.513184
 20
98.727837
 11
335.602997
 21
97.579918
  0
LINE
  8
0
  6
CONTINUOUS
 10
332.917389
 20
97.759117
 11
334.749969
 21
95.910004
  0
LINE
  8
0
  6
CONTINUOUS
 10
332.917389
 20
107.951538
 11
332.917389
 21
97.759117
  0
LINE
  8
0
  6
CONTINUOUS
 10
334.513184
 20
106.937424
 11
334.513184
 21
98.727837
  0
LINE
  8
0
  6
CONTINUOUS
 10
341.044373
 20
107.415863
 11
340.145386
 21
108.267418
  0
LINE
  8
0
  6
CONTINUOUS
 10
341.029968
 20
110.160004
 11
342.417389
 21
108.620422
  0
LINE
  8
0
  6
CONTINUOUS
 10
341.044373
 20
107.191238
 11
342.417389
 21
107.191238
  0
LINE
  8
0
  6
CONTINUOUS
 10
334.642181
 20
110.160004
 11
341.029968
 21
110.160004
  0
LINE
  8
0
  6
CONTINUOUS
 10
338.557983
 20
104.185402
 11
342.417389
 21
104.185402
  0
LINE
  8
0
  6
CONTINUOUS
 10
341.044373
 20
102.626801
 11
338.557983
 21
102.626801
  0
LINE
  8
0
  6
CONTINUOUS
 10
338.075592
 20
97.579918
 11
335.602997
 21
97.579918
  0
LINE
  8
0
  6
CONTINUOUS
 10
341.044373
 20
101.142418
 11
341.044373
 21
102.329918
  0
ARC
  8
0
  6
CONTINUOUS
 10
338.075592
 20
100.548660
 40
2.968750
 50
-89.999786
 51
0.000109
  0
LINE
  8
0
  6
CONTINUOUS
 10
341.044373
 20
97.045921
 11
341.044373
 21
95.910004
  0
LINE
  8
0
  6
CONTINUOUS
 10
342.417389
 20
108.620422
 11
342.417389
 21
107.191238
  0
LINE
  8
0
  6
CONTINUOUS
 10
341.044373
 20
102.626801
 11
341.044373
 21
100.548660
  0
LINE
  8
0
  6
CONTINUOUS
 10
338.557983
 20
104.185402
 11
338.557983
 21
102.626801
  0
LINE
  8
0
  6
CONTINUOUS
 10
341.044373
 20
95.910004
 11
342.417389
 21
95.910004
  0
LINE
  8
0
  6
CONTINUOUS
 10
341.044373
 20
97.045921
 11
339.690369
 21
95.910004
  0
LINE
  8
0
  6
CONTINUOUS
 10
352.770996
 20
97.468597
 11
353.364594
 21
97.468597
  0
LINE
  8
0
  6
CONTINUOUS
 10
350.284576
 20
97.468597
 11
350.284576
 21
95.910004
  0
LINE
  8
0
  6
CONTINUOUS
 10
353.364594
 20
97.468597
 11
353.364594
 21
95.910004
  0
LINE
  8
0
  6
CONTINUOUS
 10
355.676392
 20
107.191238
 11
356.667389
 21
107.191238
  0
LINE
  8
0
  6
CONTINUOUS
 10
347.167389
 20
107.191238
 11
348.221985
 21
107.191238
  0
LINE
  8
0
  6
CONTINUOUS
 10
347.167389
 20
110.160004
 11
356.667389
 21
110.160004
  0
LINE
  8
0
  6
CONTINUOUS
 10
350.284576
 20
95.910004
 11
353.364594
 21
95.910004
  0
LINE
  8
0
  6
CONTINUOUS
 10
350.284576
 20
97.468597
 11
350.989594
 21
97.468597
  0
ARC
  8
0
  6
CONTINUOUS
 10
367.113586
 20
106.356277
 40
3.803712
 50
-73.981873
 51
90.003510
  0
ARC
  8
0
  6
CONTINUOUS
 10
367.113586
 20
106.356277
 40
2.320524
 50
-82.585274
 51
62.411850
  0
LINE
  8
0
  6
CONTINUOUS
 10
361.417389
 20
110.160004
 11
367.113586
 21
110.160004
  0
LINE
  8
0
  6
CONTINUOUS
 10
367.413177
 20
104.055161
 11
363.755371
 21
104.055161
  0
LINE
  8
0
  6
CONTINUOUS
 10
361.417389
 20
110.160004
 11
361.417389
 21
108.415863
  0
LINE
  8
0
  6
CONTINUOUS
 10
363.755371
 20
108.415863
 11
363.755371
 21
104.055161
  0
LINE
  8
0
  6
CONTINUOUS
 10
368.163177
 20
102.700256
 11
370.517578
 21
97.394379
  0
LINE
  8
0
  6
CONTINUOUS
 10
366.795990
 20
102.571136
 11
369.023773
 21
97.394379
  0
LINE
  8
0
  6
CONTINUOUS
 10
361.417389
 20
97.394379
 11
362.122589
 21
97.394379
  0
LINE
  8
0
  6
CONTINUOUS
 10
363.755371
 20
97.394379
 11
364.404785
 21
97.394379
  0
LINE
  8
0
  6
CONTINUOUS
 10
364.404785
 20
95.910004
 11
361.417389
 21
95.910004
  0
LINE
  8
0
  6
CONTINUOUS
 10
368.727997
 20
97.394379
 11
369.023773
 21
97.394379
  0
LINE
  8
0
  6
CONTINUOUS
 10
370.517578
 20
97.394379
 11
370.917389
 21
97.394379
  0
LINE
  8
0
  6
CONTINUOUS
 10
368.727997
 20
95.910004
 11
370.917389
 21
95.910004
  0
LINE
  8
0
  6
CONTINUOUS
 10
370.917389
 20
97.394379
 11
370.917389
 21
95.910004
  0
LINE
  8
0
  6
CONTINUOUS
 10
368.727997
 20
97.394379
 11
368.727997
 21
95.910004
  0
LINE
  8
0
  6
CONTINUOUS
 10
364.404785
 20
97.394379
 11
364.404785
 21
95.910004
  0
LINE
  8
0
  6
CONTINUOUS
 10
361.417389
 20
97.394379
 11
361.417389
 21
95.910004
  0
LINE
  8
0
  6
CONTINUOUS
 10
348.732178
 20
108.415863
 11
348.221985
 21
107.191238
  0
LINE
  8
0
  6
CONTINUOUS
 10
355.246185
 20
108.415863
 11
355.676392
 21
107.191238
  0
LINE
  8
0
  6
CONTINUOUS
 10
352.770996
 20
108.415863
 11
355.246185
 21
108.415863
  0
LINE
  8
0
  6
CONTINUOUS
 10
350.989594
 20
108.415863
 11
348.732178
 21
108.415863
  0
LINE
  8
0
  6
CONTINUOUS
 10
363.755371
 20
102.571136
 11
366.795990
 21
102.571136
  0
LINE
  8
0
  6
CONTINUOUS
 10
361.417389
 20
108.415863
 11
362.122589
 21
108.415863
  0
LINE
  8
0
  6
CONTINUOUS
 10
363.755371
 20
108.415863
 11
368.188385
 21
108.412979
  0
LINE
  8
0
  6
CONTINUOUS
 10
341.044373
 20
107.415863
 11
341.044373
 21
107.191238
  0
ARC
  8
0
  6
CONTINUOUS
 10
471.598969
 20
128.910004
 40
215.181595
 50
167.017899
 51
192.982101
  0
LINE
  8
0
  6
CONTINUOUS
 10
62.417381
 20
166.910004
 11
192.417389
 21
166.910004
  0
LINE
  8
0
  6
CONTINUOUS
 10
62.417381
 20
60.910000
 11
192.417389
 21
60.910000
  0
LINE
  8
0
  6
CONTINUOUS
 10
62.417381
 20
156.533340
 11
181.079147
 21
156.533340
  0
LINE
  8
0
  6
CONTINUOUS
 10
62.417381
 20
71.286636
 11
181.079147
 21
71.286636
  0
LINE
  8
0
  6
CONTINUOUS
 10
182.417389
 20
164.910004
 11
182.417389
 21
62.909981
  0
ARC
  8
0
  6
CONTINUOUS
 10
184.417389
 20
164.910019
 40
2.000000
 50
90.000000
 51
180.000000
  0
ARC
  8
0
  6
CONTINUOUS
 10
184.417389
 20
62.910000
 40
2.000000
 50
180.000000
 51
270.000000
  0
LINE
  8
0
  6
CENTER
 10
693.074097
 20
0.900000
 11
693.074097
 21
273.054993
  0
LINE
  8
0
  6
CENTER
 10
592.271729
 20
128.910004
 11
788.981689
 21
128.910004
  0
LINE
  8
0
  6
CENTER
 10
537.262512
 20
182.410004
 11
850.510925
 21
182.410004
  0
LINE
  8
0
  6
CENTER
 10
623.074097
 20
49.090000
 11
623.074097
 21
10.380000
  0
LINE
  8
0
  6
CENTER
 10
763.074097
 20
46.325001
 11
763.074097
 21
9.590000
  0
LINE
  8
0
  6
DASHED
 10
755.574097
 20
37.410000
 11
755.574097
 21
17.410000
  0
LINE
  8
0
  6
DASHED
 10
770.574097
 20
37.410000
 11
770.574097
 21
17.410000
  0
LINE
  8
0
  6
DASHED
 10
630.574097
 20
37.410000
 11
630.574097
 21
17.410000
  0
LINE
  8
0
  6
DASHED
 10
615.574097
 20
37.410000
 11
615.574097
 21
17.410000
  0
LINE
  8
0
  6
CONTINUOUS
 10
603.074097
 20
17.410000
 11
658.074097
 21
17.410000
  0
LINE
  8
0
  6
CONTINUOUS
 10
728.074097
 20
17.410000
 11
783.074097
 21
17.410000
  0
LINE
  8
0
  6
CONTINUOUS
 10
750.074097
 20
37.410000
 11
780.074097
 21
37.410000
  0
LINE
  8
0
  6
CONTINUOUS
 10
606.074097
 20
37.410000
 11
636.074097
 21
37.410000
  0
LINE
  8
0
  6
CONTINUOUS
 10
603.074097
 20
34.778881
 11
603.074097
 21
17.410021
  0
LINE
  8
0
  6
CONTINUOUS
 10
783.074097
 20
34.778881
 11
783.074097
 21
17.410000
  0
LINE
  8
0
  6
CONTINUOUS
 10
745.074097
 20
239.690094
 11
745.074097
 21
255.071762
  0
LINE
  8
0
  6
CONTINUOUS
 10
641.074097
 20
255.071381
 11
641.074097
 21
17.410000
  0
LINE
  8
0
  6
CONTINUOUS
 10
659.574097
 20
18.910000
 11
726.574097
 21
18.910000
  0
LINE
  8
0
  6
CONTINUOUS
 10
645.518677
 20
220.910004
 11
741.305908
 21
220.910004
  0
LINE
  8
0
  6
CONTINUOUS
 10
741.143921
 20
259.071136
 11
693.074097
 21
259.910034
  0
LINE
  8
0
  6
CONTINUOUS
 10
645.004272
 20
259.070770
 11
693.074097
 21
259.910034
  0
LINE
  8
0
  6
CONTINUOUS
 10
620.074097
 20
141.690109
 11
620.074097
 21
223.129883
  0
LINE
  8
0
  6
CONTINUOUS
 10
766.074097
 20
141.690109
 11
766.074097
 21
223.129883
  0
LINE
  8
0
  6
CONTINUOUS
 10
627.074097
 20
83.190102
 11
627.074097
 21
186.550278
  0
LINE
  8
0
  6
CONTINUOUS
 10
759.074097
 20
83.190117
 11
759.074097
 21
186.550278
  0
ARC
  8
0
  6
CONTINUOUS
 10
645.074097
 20
255.071396
 40
4.000000
 50
91.000580
 51
180.000000
  0
ARC
  8
0
  6
CONTINUOUS
 10
741.074097
 20
255.071747
 40
4.000000
 50
0.000000
 51
89.000359
  0
LINE
  8
0
  6
CONTINUOUS
 10
625.151123
 20
229.860565
 11
635.997070
 21
232.959442
  0
LINE
  8
0
  6
CONTINUOUS
 10
750.151123
 20
232.959442
 11
760.997070
 21
229.860565
  0
LINE
  8
0
  6
CONTINUOUS
 10
632.151123
 20
76.459442
 11
635.997070
 21
75.360558
  0
LINE
  8
0
  6
CONTINUOUS
 10
753.997070
 20
76.459442
 11
750.151123
 21
75.360558
  0
LINE
  8
0
  6
CONTINUOUS
 10
780.465515
 20
37.753239
 11
747.682678
 21
42.066761
  0
LINE
  8
0
  6
CONTINUOUS
 10
605.682678
 20
37.753239
 11
638.465515
 21
42.066780
  0
ARC
  8
0
  6
CONTINUOUS
 10
627.074097
 20
223.129913
 40
7.000000
 50
105.945801
 51
180.000000
  0
ARC
  8
0
  6
CONTINUOUS
 10
627.074097
 20
141.690155
 40
7.000000
 50
180.000000
 51
240.000198
  0
ARC
  8
0
  6
CONTINUOUS
 10
759.074097
 20
223.129868
 40
7.000000
 50
0.000000
 51
74.054764
  0
ARC
  8
0
  6
CONTINUOUS
 10
759.074097
 20
141.690094
 40
7.000000
 50
-59.999882
 51
0.000000
  0
ARC
  8
0
  6
CONTINUOUS
 10
634.074097
 20
83.190163
 40
7.000000
 50
180.000000
 51
254.054901
  0
ARC
  8
0
  6
CONTINUOUS
 10
752.074097
 20
83.190102
 40
7.000000
 50
-74.054497
 51
0.000000
  0
LINE
  8
0
  6
CONTINUOUS
 10
745.074097
 20
42.410000
 11
745.074097
 21
239.690094
  0
ARC
  8
0
  6
CONTINUOUS
 10
752.074097
 20
239.690155
 40
7.000000
 50
180.000000
 51
254.054901
  0
ARC
  8
0
  6
CONTINUOUS
 10
752.074097
 20
68.629936
 40
7.000000
 50
105.945801
 51
180.000000
  0
ARC
  8
0
  6
CONTINUOUS
 10
766.074097
 20
129.565750
 40
7.000000
 50
120.000099
 51
180.000000
  0
ARC
  8
0
  6
CONTINUOUS
 10
748.074097
 20
45.041142
 40
3.000000
 50
180.000000
 51
262.504395
  0
ARC
  8
0
  6
CONTINUOUS
 10
780.074097
 20
34.410000
 40
3.000000
 50
0.000000
 51
90.000000
  0
ARC
  8
0
  6
CONTINUOUS
 10
780.074097
 20
34.778858
 40
3.000000
 50
0.000000
 51
82.504204
  0
LINE
  8
0
  6
CONTINUOUS
 10
745.074097
 20
42.410000
 11
745.074097
 21
17.410000
  0
ARC
  8
0
  6
CONTINUOUS
 10
750.074097
 20
42.410019
 40
5.000000
 50
180.000000
 51
270.000000
  0
ARC
  8
0
  6
CONTINUOUS
 10
638.074097
 20
45.041142
 40
3.000000
 50
-82.503883
 51
0.000000
  0
ARC
  8
0
  6
CONTINUOUS
 10
636.074097
 20
42.410000
 40
5.000000
 50
-90.000000
 51
0.000000
  0
ARC
  8
0
  6
CONTINUOUS
 10
606.074097
 20
34.410019
 40
3.000000
 50
90.000000
 51
180.000000
  0
ARC
  8
0
  6
CONTINUOUS
 10
606.074097
 20
34.778900
 40
3.000000
 50
97.496292
 51
180.000000
  0
LINE
  8
0
  6
CONTINUOUS
 10
658.074097
 20
17.410000
 11
659.574097
 21
18.910000
  0
LINE
  8
0
  6
CONTINUOUS
 10
728.074097
 20
17.410000
 11
726.574097
 21
18.910000
  0
ARC
  8
0
  6
CONTINUOUS
 10
634.074097
 20
68.629860
 40
7.000000
 50
0.000000
 51
74.054688
  0
ARC
  8
0
  6
CONTINUOUS
 10
620.074097
 20
129.565781
 40
7.000000
 50
0.000000
 51
60.000092
  0
ARC
  8
0
  6
CONTINUOUS
 10
634.074097
 20
239.690094
 40
7.000000
 50
-74.054443
 51
0.000000
  0
ARC
  8
0
  6
CONTINUOUS
 10
693.074097
 20
128.910004
 40
71.000000
 50
-21.630920
 51
6.068256
  0
ARC
  8
0
  6
CONTINUOUS
 10
693.074097
 20
128.910004
 40
71.000000
 50
173.931793
 51
201.630905
  0
LINE
  8
0
  6
CONTINUOUS
 10
746.074097
 20
72.235481
 11
746.074097
 21
65.910004
  0
LINE
  8
0
  6
CONTINUOUS
 10
640.074097
 20
65.910004
 11
640.074097
 21
72.098999
  0
ARC
  8
0
  6
CONTINUOUS
 10
741.074097
 20
65.910004
 40
5.000000
 50
-36.869869
 51
0.000000
  0
ARC
  8
0
  6
CONTINUOUS
 10
645.074097
 20
65.910004
 40
5.000000
 50
180.000000
 51
216.865204
  0
LINE
  8
0
  6
CONTINUOUS
 10
366.917389
 20
176.410065
 11
366.917389
 21
188.410065
  0
LINE
  8
0
  6
CONTINUOUS
 10
374.917389
 20
176.410080
 11
374.917389
 21
188.410080
  0
LINE
  8
0
  6
CONTINUOUS
 10
374.917389
 20
176.410080
 11
366.917389
 21
176.410065
  0
LINE
  8
0
  6
CONTINUOUS
 10
374.917389
 20
188.410080
 11
366.917389
 21
188.410065
  0
ARC
  8
0
  6
CONTINUOUS
 10
351.917389
 20
182.410004
 40
20.000000
 50
17.457600
 51
342.542389
  0
LINE
  8
0
  6
CONTINUOUS
 10
553.074097
 20
162.410004
 11
553.074097
 21
202.410004
  0
LINE
  8
0
  6
CONTINUOUS
 10
618.074097
 20
202.410004
 11
553.074097
 21
202.410004
  0
LINE
  8
0
  6
CONTINUOUS
 10
618.074097
 20
162.410004
 11
553.074097
 21
162.410004
  0
LINE
  8
0
  6
CONTINUOUS
 10
618.074097
 20
204.910004
 11
618.074097
 21
159.910004
  0
LINE
  8
0
  6
CONTINUOUS
 10
620.074097
 20
204.910004
 11
618.074097
 21
204.910004
  0
LINE
  8
0
  6
CONTINUOUS
 10
620.074097
 20
159.910004
 11
618.074097
 21
159.910004
  0
ARC
  8
0
  6
CONTINUOUS
 10
607.074097
 20
182.410004
 40
6.000000
 50
-90.000000
 51
90.000000
  0
LINE
  8
0
  6
CONTINUOUS
 10
607.074097
 20
188.410004
 11
553.074097
 21
188.410004
  0
LINE
  8
0
  6
CONTINUOUS
 10
607.074097
 20
176.410004
 11
553.074097
 21
176.410004
  0
LINE
  8
0
  6
CONTINUOUS
 10
833.074097
 20
162.410004
 11
833.074097
 21
202.410004
  0
LINE
  8
0
  6
CONTINUOUS
 10
768.074097
 20
202.410004
 11
833.074097
 21
202.410004
  0
LINE
  8
0
  6
CONTINUOUS
 10
768.074097
 20
162.410004
 11
833.074097
 21
162.410004
  0
LINE
  8
0
  6
CONTINUOUS
 10
768.074097
 20
204.910004
 11
768.074097
 21
159.910004
  0
LINE
  8
0
  6
CONTINUOUS
 10
766.074097
 20
204.910004
 11
768.074097
 21
204.910004
  0
LINE
  8
0
  6
CONTINUOUS
 10
766.074097
 20
159.910004
 11
768.074097
 21
159.910004
  0
ARC
  8
0
  6
CONTINUOUS
 10
779.074097
 20
182.410004
 40
6.000000
 50
90.000000
 51
270.000000
  0
LINE
  8
0
  6
CONTINUOUS
 10
779.074097
 20
188.410004
 11
833.074097
 21
188.410004
  0
LINE
  8
0
  6
CONTINUOUS
 10
779.074097
 20
176.410004
 11
833.074097
 21
176.410004
  0
LINE
  8
0
  6
CONTINUOUS
 10
239.917389
 20
83.666000
 11
239.917389
 21
197.910004
  0
LINE
  8
0
  6
CENTER
 10
-16.145000
 20
113.910004
 11
295.407379
 21
113.910004
  0
LINE
  8
0
  6
CONTINUOUS
 10
241.917389
 20
199.910004
 11
248.917389
 21
199.910004
  0
LINE
  8
0
  6
CONTINUOUS
 10
241.917389
 20
57.910019
 11
248.917389
 21
57.910019
  0
LINE
  8
0
  6
CONTINUOUS
 10
220.917389
 20
60.910000
 11
192.417389
 21
60.910000
  0
LINE
  8
0
  6
CONTINUOUS
 10
192.417389
 20
166.910004
 11
236.917358
 21
166.910004
  0
LINE
  8
0
  6
CONTINUOUS
 10
238.417389
 20
178.043976
 11
219.829117
 21
167.311920
  0
ARC
  8
0
  6
CONTINUOUS
 10
241.917404
 20
197.910004
 40
2.000000
 50
90.000000
 51
180.000000
  0
ARC
  8
0
  6
CONTINUOUS
 10
241.917389
 20
59.910000
 40
2.000000
 50
194.477707
 51
270.000000
  0
LINE
  8
0
  6
CONTINUOUS
 10
220.917389
 20
62.910000
 11
220.917389
 21
79.666000
  0
LINE
  8
0
  6
CONTINUOUS
 10
237.917389
 20
81.666000
 11
222.917389
 21
81.666000
  0
ARC
  8
0
  6
CONTINUOUS
 10
222.917389
 20
79.666023
 40
2.000000
 50
90.000000
 51
180.000000
  0
ARC
  8
0
  6
CONTINUOUS
 10
238.044403
 20
58.910000
 40
2.000000
 50
14.477280
 51
90.000000
  0
ARC
  8
0
  6
CONTINUOUS
 10
237.917389
 20
83.666000
 40
2.000000
 50
-90.000000
 51
0.000000
  0
LINE
  8
0
  6
CONTINUOUS
 10
220.917389
 20
60.910000
 11
238.044403
 21
60.910000
  0
ARC
  8
0
  6
CONTINUOUS
 10
218.917389
 20
62.910000
 40
2.000000
 50
-90.000000
 51
0.000000
  0
ARC
  8
0
  6
CONTINUOUS
 10
236.917389
 20
169.910004
 40
3.000000
 50
-90.000000
 51
0.000000
  0
ARC
  8
0
  6
CONTINUOUS
 10
236.917389
 20
180.642044
 40
3.000000
 50
-59.999660
 51
0.000000
  0
ARC
  8
0
  6
CONTINUOUS
 10
218.329102
 20
169.910004
 40
3.000000
 50
270.000000
 51
300.000305
  0
LINE
  8
0
  6
CONTINUOUS
 10
192.417389
 20
166.910004
 11
192.417389
 21
60.910000
  0
LINE
  8
0
  6
CONTINUOUS
 10
420.786499
 20
597.094177
 11
374.917389
 21
597.094238
  0
LINE
  8
0
  6
CONTINUOUS
 10
420.785889
 20
417.094177
 11
374.917389
 21
417.094269
  0
LINE
  8
0
  6
CENTER
 10
351.917389
 20
352.705353
 11
351.918030
 21
672.172241
  0
LINE
  8
0
  6
CENTER
 10
426.771210
 20
577.095032
 11
398.403137
 21
577.095032
  0
LINE
  8
0
  6
CONTINUOUS
 10
441.917694
 20
507.094238
 11
441.009705
 21
455.094208
  0
LINE
  8
0
  6
CONTINUOUS
 10
430.240509
 20
423.836761
 11
441.009705
 21
455.094208
  0
ARC
  8
0
  6
CONTINUOUS
 10
420.786102
 20
427.094238
 40
10.000000
 50
-90.000000
 51
-19.010900
  0
ARC
  8
0
  6
CONTINUOUS
 10
411.917694
 20
577.095032
 40
7.500000
 50
-46.074883
 51
212.226791
  0
LINE
  8
0
  6
CONTINUOUS
 10
441.917694
 20
507.094238
 11
441.009888
 21
559.094177
  0
LINE
  8
0
  6
CONTINUOUS
 10
430.240906
 20
590.351562
 11
441.009888
 21
559.094177
  0
ARC
  8
0
  6
CONTINUOUS
 10
420.786499
 20
587.094177
 40
10.000000
 50
19.010900
 51
90.000000
  0
LINE
  8
0
  6
CONTINUOUS
 10
261.917694
 20
507.094421
 11
262.825500
 21
455.094482
  0
LINE
  8
0
  6
CONTINUOUS
 10
273.594482
 20
423.837036
 11
262.825500
 21
455.094482
  0
ARC
  8
0
  6
CONTINUOUS
 10
283.049103
 20
427.094482
 40
10.000000
 50
199.010895
 51
270.000000
  0
LINE
  8
0
  6
CONTINUOUS
 10
261.917694
 20
507.094421
 11
262.774231
 21
556.147034
  0
LINE
  8
0
  6
CONTINUOUS
 10
273.594910
 20
590.351807
 11
263.172516
 21
560.101013
  0
LINE
  8
0
  6
CONTINUOUS
 10
250.955490
 20
578.094360
 11
248.917892
 21
578.094360
  0
LINE
  8
0
  6
CONTINUOUS
 10
248.917892
 20
578.094360
 11
248.917496
 21
436.094482
  0
LINE
  8
0
  6
CONTINUOUS
 10
260.027496
 20
564.282593
 11
257.716888
 21
572.906189
  0
ARC
  8
0
  6
CONTINUOUS
 10
250.955490
 20
571.094360
 40
7.000000
 50
14.999900
 51
90.000000
  0
ARC
  8
0
  6
CONTINUOUS
 10
266.789093
 20
566.094360
 40
7.000000
 50
-165.000305
 51
-90.000000
  0
LINE
  8
0
  6
CONTINUOUS
 10
250.955093
 20
436.094482
 11
248.917496
 21
436.094482
  0
LINE
  8
0
  6
CONTINUOUS
 10
260.027283
 20
449.906311
 11
257.716705
 21
441.282715
  0
ARC
  8
0
  6
CONTINUOUS
 10
250.955093
 20
443.094513
 40
7.000000
 50
-90.000000
 51
-14.999900
  0
ARC
  8
0
  6
CONTINUOUS
 10
266.788910
 20
448.094482
 40
7.000000
 50
121.109207
 51
165.000336
  0
ARC
  8
0
  6
CONTINUOUS
 10
283.049103
 20
587.094849
 40
10.000000
 50
90.000000
 51
160.989105
  0
ARC
  8
0
  6
CONTINUOUS
 10
291.917511
 20
577.095703
 40
7.500000
 50
-32.232941
 51
238.076355
  0
LINE
  8
0
  6
CENTER
 10
411.917419
 20
565.293396
 11
411.917908
 21
589.169800
  0
LINE
  8
0
  6
CENTER
 10
304.928101
 20
577.095154
 11
279.350342
 21
577.095154
  0
LINE
  8
0
  6
CENTER
 10
291.917694
 20
565.293396
 11
291.917908
 21
589.170044
  0
LINE
  8
0
  6
CONTINUOUS
 10
438.061798
 20
559.094666
 11
265.773773
 21
559.094666
  0
LINE
  8
0
  6
CONTINUOUS
 10
309.136932
 20
580.094666
 11
394.697845
 21
580.094666
  0
ARC
  8
0
  6
CONTINUOUS
 10
438.061798
 20
556.094666
 40
3.000000
 50
1.000152
 51
90.000000
  0
ARC
  8
0
  6
CONTINUOUS
 10
265.773773
 20
556.094666
 40
3.000000
 50
90.000000
 51
178.999634
  0
LINE
  8
0
  6
CONTINUOUS
 10
438.061798
 20
455.094635
 11
265.773773
 21
455.094635
  0
ARC
  8
0
  6
CONTINUOUS
 10
438.061798
 20
458.094635
 40
3.000000
 50
270.000000
 51
358.999847
  0
ARC
  8
0
  6
CONTINUOUS
 10
265.773773
 20
458.094635
 40
3.000000
 50
181.000366
 51
270.000000
  0
LINE
  8
0
  6
CONTINUOUS
 10
386.917603
 20
460.094635
 11
386.917603
 21
554.094666
  0
LINE
  8
0
  6
CONTINUOUS
 10
316.917603
 20
460.094635
 11
316.917603
 21
554.094666
  0
LINE
  8
0
  6
CONTINUOUS
 10
293.197601
 20
573.094666
 11
299.917389
 21
573.094666
  0
LINE
  8
0
  6
CONTINUOUS
 10
412.917511
 20
573.094666
 11
403.917389
 21
573.094666
  0
ARC
  8
0
  6
CONTINUOUS
 10
412.917511
 20
566.094666
 40
7.000000
 50
0.000000
 51
90.000000
  0
ARC
  8
0
  6
CONTINUOUS
 10
426.917511
 20
566.094666
 40
7.000000
 50
180.000000
 51
270.000000
  0
LINE
  8
0
  6
CENTER
 10
426.771210
 20
437.095093
 11
398.403137
 21
437.095093
  0
ARC
  8
0
  6
CONTINUOUS
 10
411.917694
 20
437.095093
 40
7.500000
 50
-212.226791
 51
46.074883
  0
ARC
  8
0
  6
CONTINUOUS
 10
291.917511
 20
437.094421
 40
7.500000
 50
-226.078156
 51
32.232941
  0
LINE
  8
0
  6
CENTER
 10
411.917419
 20
448.896698
 11
411.917908
 21
425.020294
  0
LINE
  8
0
  6
CENTER
 10
304.928101
 20
437.095001
 11
279.350342
 21
437.095001
  0
LINE
  8
0
  6
CENTER
 10
291.917694
 20
448.896698
 11
291.917908
 21
425.020111
  0
LINE
  8
0
  6
CONTINUOUS
 10
309.136932
 20
434.094635
 11
394.697845
 21
434.094635
  0
LINE
  8
0
  6
CONTINUOUS
 10
290.917511
 20
441.094635
 11
299.917389
 21
441.094574
  0
ARC
  8
0
  6
CONTINUOUS
 10
290.917511
 20
448.094635
 40
7.000000
 50
180.000000
 51
270.000000
  0
ARC
  8
0
  6
CONTINUOUS
 10
276.917511
 20
448.094635
 40
7.000000
 50
0.000000
 51
90.000000
  0
LINE
  8
0
  6
CONTINUOUS
 10
412.917511
 20
441.094635
 11
403.917389
 21
441.094574
  0
ARC
  8
0
  6
CONTINUOUS
 10
412.917511
 20
448.094635
 40
7.000000
 50
-90.000000
 51
0.000000
  0
ARC
  8
0
  6
CONTINUOUS
 10
426.917511
 20
448.094635
 40
7.000000
 50
90.000000
 51
180.000000
  0
LINE
  8
0
  6
CONTINUOUS
 10
286.466949
 20
568.017700
 11
285.368042
 21
564.171570
  0
ARC
  8
0
  6
CONTINUOUS
 10
293.197601
 20
566.094666
 40
7.000000
 50
90.000000
 51
164.054611
  0
ARC
  8
0
  6
CONTINUOUS
 10
278.637390
 20
566.094666
 40
7.000000
 50
-90.000000
 51
-15.945396
  0
LINE
  8
0
  6
CONTINUOUS
 10
331.917694
 20
367.094421
 11
374.917389
 21
367.094421
  0
LINE
  8
0
  6
CONTINUOUS
 10
371.917694
 20
432.094421
 11
371.917694
 21
427.094879
  0
LINE
  8
0
  6
CONTINUOUS
 10
331.917694
 20
432.094421
 11
331.917694
 21
367.094421
  0
LINE
  8
0
  6
CONTINUOUS
 10
374.417694
 20
432.094421
 11
329.417694
 21
432.094421
  0
LINE
  8
0
  6
CONTINUOUS
 10
374.417694
 20
434.094421
 11
374.417694
 21
432.094421
  0
LINE
  8
0
  6
CONTINUOUS
 10
329.417694
 20
434.094421
 11
329.417694
 21
432.094421
  0
LINE
  8
0
  6
CONTINUOUS
 10
331.917694
 20
647.094421
 11
374.917389
 21
647.094421
  0
LINE
  8
0
  6
CONTINUOUS
 10
371.917694
 20
582.094421
 11
371.917694
 21
587.094421
  0
LINE
  8
0
  6
CONTINUOUS
 10
331.917694
 20
582.094421
 11
331.917694
 21
647.094421
  0
LINE
  8
0
  6
CONTINUOUS
 10
374.417694
 20
582.094421
 11
329.417694
 21
582.094421
  0
LINE
  8
0
  6
CONTINUOUS
 10
374.417694
 20
580.094421
 11
374.417694
 21
582.094421
  0
LINE
  8
0
  6
CONTINUOUS
 10
329.417694
 20
580.094421
 11
329.417694
 21
582.094421
  0
LINE
  8
0
  6
CONTINUOUS
 10
331.917694
 20
597.094299
 11
283.049500
 21
597.094360
  0
LINE
  8
0
  6
CONTINUOUS
 10
331.917694
 20
417.094330
 11
283.049103
 21
417.094421
  0
LINE
  8
0
  6
CONTINUOUS
 10
374.917389
 20
647.094421
 11
374.917389
 21
587.094421
  0
LINE
  8
0
  6
CONTINUOUS
 10
370.996368
 20
587.094421
 11
374.917389
 21
587.094421
  0
LINE
  8
0
  6
CONTINUOUS
 10
374.917389
 20
367.094879
 11
374.917389
 21
427.094879
  0
LINE
  8
0
  6
CONTINUOUS
 10
370.996368
 20
427.094879
 11
374.917389
 21
427.094879
  0
LINE
  8
0
  6
CONTINUOUS
 10
303.822144
 20
577.650208
 11
299.917389
 21
573.094666
  0
ARC
  8
0
  6
CONTINUOUS
 10
309.136932
 20
573.094666
 40
7.000000
 50
90.000000
 51
139.398712
  0
LINE
  8
0
  6
CONTINUOUS
 10
400.012634
 20
577.650208
 11
403.917389
 21
573.094666
  0
ARC
  8
0
  6
CONTINUOUS
 10
394.697845
 20
573.094666
 40
7.000000
 50
40.601295
 51
90.000000
  0
LINE
  8
0
  6
CONTINUOUS
 10
400.012634
 20
436.539032
 11
403.917389
 21
441.094574
  0
ARC
  8
0
  6
CONTINUOUS
 10
394.697845
 20
441.094574
 40
7.000000
 50
-90.000000
 51
-40.601295
  0
LINE
  8
0
  6
CONTINUOUS
 10
303.822144
 20
436.539032
 11
299.917389
 21
441.094574
  0
ARC
  8
0
  6
CONTINUOUS
 10
309.136932
 20
441.094574
 40
7.000000
 50
-139.398712
 51
-90.000000
  0
LINE
  8
0
  6
CONTINUOUS
 10
370.996368
 20
427.094879
 11
370.996368
 21
367.094421
  0
LINE
  8
0
  6
CONTINUOUS
 10
370.996368
 20
647.094421
 11
370.996368
 21
587.094421
  0
LINE
  8
0
  6
CENTER
 10
465.118622
 20
507.094421
 11
-16.145000
 21
507.094421
  0
LINE
  8
0
  6
CONTINUOUS
 10
241.917892
 20
578.094421
 11
248.917892
 21
578.094421
  0
LINE
  8
0
  6
CONTINUOUS
 10
239.917892
 20
438.094421
 11
239.917892
 21
576.094421
  0
LINE
  8
0
  6
CONTINUOUS
 10
241.917892
 20
436.094421
 11
248.917496
 21
436.094421
  0
LINE
  8
0
  6
CONTINUOUS
 10
192.417892
 20
560.094421
 11
239.917892
 21
560.094421
  0
LINE
  8
0
  6
CONTINUOUS
 10
192.417892
 20
454.094421
 11
239.917892
 21
454.094421
  0
LINE
  8
0
  6
CONTINUOUS
 10
192.417892
 20
560.094421
 11
192.417892
 21
454.094421
  0
ARC
  8
0
  6
CONTINUOUS
 10
241.917892
 20
576.094421
 40
2.000000
 50
90.000000
 51
180.000000
  0
ARC
  8
0
  6
CONTINUOUS
 10
241.917892
 20
438.094421
 40
2.000000
 50
180.000000
 51
270.000000
  0
ARC
  8
0
  6
CONTINUOUS
 10
239.132965
 20
507.094421
 40
20.000000
 50
141.561295
 51
180.000000
  0
LINE
  8
0
  6
CONTINUOUS
 10
239.917892
 20
540.254456
 11
223.467499
 21
519.527954
  0
ARC
  8
0
  6
CONTINUOUS
 10
239.132965
 20
507.094421
 40
20.000000
 50
-180.000000
 51
-141.561295
  0
LINE
  8
0
  6
CONTINUOUS
 10
239.917892
 20
473.934418
 11
223.467499
 21
494.660889
  0
LINE
  8
0
  6
CONTINUOUS
 10
62.417381
 20
560.094421
 11
192.417389
 21
560.094421
  0
LINE
  8
0
  6
CONTINUOUS
 10
62.417381
 20
454.094421
 11
192.417389
 21
454.094421
  0
LINE
  8
0
  6
CONTINUOUS
 10
62.417381
 20
538.594421
 11
182.417389
 21
538.594421
  0
LINE
  8
0
  6
CONTINUOUS
 10
62.417381
 20
475.594421
 11
182.417389
 21
475.594421
  0
LINE
  8
0
  6
CONTINUOUS
 10
182.417389
 20
558.094421
 11
182.417389
 21
538.594421
  0
ARC
  8
0
  6
CONTINUOUS
 10
184.417389
 20
558.094421
 40
2.000000
 50
90.000000
 51
180.000000
  0
ARC
  8
0
  6
CONTINUOUS
 10
184.417389
 20
456.094421
 40
2.000000
 50
180.000000
 51
270.000000
  0
LINE
  8
0
  6
CONTINUOUS
 10
53.917339
 20
560.094421
 11
62.417381
 21
560.094421
  0
LINE
  8
0
  6
CONTINUOUS
 10
53.917339
 20
454.094452
 11
62.417381
 21
454.094452
  0
LINE
  8
0
  6
CONTINUOUS
 10
62.417381
 20
538.594421
 11
53.917339
 21
538.594421
  0
LINE
  8
0
  6
CONTINUOUS
 10
62.417381
 20
475.594421
 11
53.917339
 21
475.594421
  0
LINE
  8
0
  6
CONTINUOUS
 10
62.417381
 20
454.094452
 11
62.417381
 21
476.094421
  0
LINE
  8
0
  6
CONTINUOUS
 10
62.417381
 20
538.094421
 11
62.417381
 21
560.094421
  0
LINE
  8
0
  6
CONTINUOUS
 10
53.917339
 20
562.094421
 11
53.917339
 21
536.594421
  0
LINE
  8
0
  6
CONTINUOUS
 10
14.917340
 20
562.094421
 11
53.917339
 21
562.094421
  0
LINE
  8
0
  6
CONTINUOUS
 10
14.917340
 20
452.094421
 11
53.917339
 21
452.094421
  0
LINE
  8
0
  6
CONTINUOUS
 10
4.917340
 20
462.094421
 11
4.917340
 21
552.094421
  0
LINE
  8
0
  6
CONTINUOUS
 10
9.917340
 20
537.594421
 11
53.917339
 21
537.594421
  0
LINE
  8
0
  6
CONTINUOUS
 10
9.917340
 20
476.594421
 11
53.917339
 21
476.594421
  0
ARC
  8
0
  6
CONTINUOUS
 10
14.917430
 20
552.094421
 40
10.000000
 50
90.000000
 51
180.000000
  0
ARC
  8
0
  6
CONTINUOUS
 10
14.917340
 20
462.094421
 40
10.000000
 50
180.000000
 51
270.000000
  0
LINE
  8
0
  6
CONTINUOUS
 10
53.917381
 20
168.910004
 11
53.917381
 21
58.910000
  0
LINE
  8
0
  6
CONTINUOUS
 10
53.917381
 20
166.910004
 11
62.417381
 21
166.910004
  0
LINE
  8
0
  6
CONTINUOUS
 10
53.917381
 20
60.910000
 11
62.417381
 21
60.910000
  0
LINE
  8
0
  6
CONTINUOUS
 10
53.917381
 20
156.472595
 11
62.417381
 21
156.472595
  0
LINE
  8
0
  6
CONTINUOUS
 10
53.917381
 20
71.225868
 11
62.417381
 21
71.225868
  0
LINE
  8
0
  6
CONTINUOUS
 10
14.917382
 20
168.910004
 11
53.917381
 21
168.910004
  0
LINE
  8
0
  6
CONTINUOUS
 10
14.917382
 20
58.910000
 11
53.917381
 21
58.910000
  0
LINE
  8
0
  6
CONTINUOUS
 10
4.917382
 20
68.910004
 11
4.917382
 21
158.910004
  0
LINE
  8
0
  6
CONTINUOUS
 10
9.917382
 20
144.410004
 11
53.917381
 21
144.410004
  0
LINE
  8
0
  6
CONTINUOUS
 10
9.917382
 20
83.410004
 11
53.917381
 21
83.410004
  0
ARC
  8
0
  6
CONTINUOUS
 10
14.917472
 20
158.910004
 40
10.000000
 50
90.000000
 51
180.000000
  0
ARC
  8
0
  6
CONTINUOUS
 10
14.917382
 20
68.910004
 40
10.000000
 50
180.000000
 51
270.000000
  0
LINE
  8
0
  6
CONTINUOUS
 10
62.417381
 20
60.910000
 11
62.417381
 21
166.910004
  0
LINE
  8
0
  6
CONTINUOUS
 10
53.417339
 20
536.094421
 11
53.417339
 21
478.094421
  0
LINE
  8
0
  6
CONTINUOUS
 10
115.417343
 20
478.094421
 11
115.417343
 21
536.094421
  0
LINE
  8
0
  6
CONTINUOUS
 10
55.417339
 20
538.094421
 11
113.417343
 21
538.094421
  0
LINE
  8
0
  6
CONTINUOUS
 10
55.417339
 20
476.094421
 11
113.417343
 21
476.094421
  0
LINE
  8
0
  6
CONTINUOUS
 10
113.417343
 20
538.094421
 11
115.417343
 21
536.094421
  0
LINE
  8
0
  6
CONTINUOUS
 10
115.417343
 20
478.094421
 11
113.417343
 21
476.094421
  0
LINE
  8
0
  6
CONTINUOUS
 10
53.417339
 20
478.094421
 11
55.417339
 21
476.094421
  0
LINE
  8
0
  6
CONTINUOUS
 10
53.417339
 20
536.094421
 11
55.417339
 21
538.094421
  0
LINE
  8
0
  6
CONTINUOUS
 10
107.417343
 20
533.094421
 11
107.417343
 21
538.094421
  0
LINE
  8
0
  6
CONTINUOUS
 10
110.417343
 20
530.094421
 11
115.417343
 21
530.094421
  0
CIRCLE
  8
0
  6
CONTINUOUS
 10
111.417343
 20
534.094421
 40
2.250000
  0
ARC
  8
0
  6
CONTINUOUS
 10
110.417343
 20
533.094421
 40
3.000000
 50
180.000000
 51
270.000000
  0
LINE
  8
0
  6
CONTINUOUS
 10
114.417343
 20
529.094421
 11
114.417343
 21
485.094421
  0
LINE
  8
0
  6
CONTINUOUS
 10
110.417343
 20
529.094421
 11
114.417343
 21
529.094421
  0
ARC
  8
0
  6
CONTINUOUS
 10
110.417343
 20
533.094421
 40
4.000000
 50
180.000000
 51
270.000000
  0
LINE
  8
0
  6
CONTINUOUS
 10
106.417343
 20
537.094421
 11
106.417343
 21
533.094421
  0
LINE
  8
0
  6
CONTINUOUS
 10
114.417343
 20
529.094421
 11
115.417343
 21
530.094421
  0
LINE
  8
0
  6
CONTINUOUS
 10
62.417339
 20
537.094421
 11
106.417343
 21
537.094421
  0
LINE
  8
0
  6
CONTINUOUS
 10
106.417343
 20
537.094421
 11
107.417343
 21
538.094421
  0
LINE
  8
0
  6
CONTINUOUS
 10
58.417339
 20
530.094421
 11
53.417339
 21
530.094421
  0
LINE
  8
0
  6
CONTINUOUS
 10
61.417339
 20
533.094421
 11
61.417339
 21
538.094421
  0
CIRCLE
  8
0
  6
CONTINUOUS
 10
57.417339
 20
534.094421
 40
2.250000
  0
ARC
  8
0
  6
CONTINUOUS
 10
58.417339
 20
533.094421
 40
3.000000
 50
-90.000000
 51
0.000000
  0
LINE
  8
0
  6
CONTINUOUS
 10
62.417339
 20
533.094421
 11
62.417339
 21
537.094421
  0
ARC
  8
0
  6
CONTINUOUS
 10
58.417339
 20
533.094421
 40
4.000000
 50
-90.000000
 51
0.000000
  0
LINE
  8
0
  6
CONTINUOUS
 10
54.417339
 20
529.094421
 11
58.417339
 21
529.094421
  0
LINE
  8
0
  6
CONTINUOUS
 10
62.417339
 20
537.094421
 11
61.417339
 21
538.094421
  0
LINE
  8
0
  6
CONTINUOUS
 10
54.417339
 20
529.094421
 11
53.417339
 21
530.094421
  0
LINE
  8
0
  6
CONTINUOUS
 10
61.417339
 20
481.094421
 11
61.417339
 21
476.094421
  0
LINE
  8
0
  6
CONTINUOUS
 10
58.417339
 20
484.094421
 11
53.417339
 21
484.094421
  0
CIRCLE
  8
0
  6
CONTINUOUS
 10
57.417339
 20
480.094421
 40
2.250000
  0
ARC
  8
0
  6
CONTINUOUS
 10
58.417339
 20
481.094421
 40
3.000000
 50
0.000000
 51
90.000000
  0
LINE
  8
0
  6
CONTINUOUS
 10
58.417339
 20
485.094421
 11
54.417339
 21
485.094421
  0
ARC
  8
0
  6
CONTINUOUS
 10
58.417339
 20
481.094421
 40
4.000000
 50
0.000000
 51
90.000000
  0
LINE
  8
0
  6
CONTINUOUS
 10
62.417339
 20
477.094421
 11
62.417339
 21
481.094421
  0
LINE
  8
0
  6
CONTINUOUS
 10
54.417339
 20
485.094421
 11
53.417339
 21
484.094421
  0
LINE
  8
0
  6
CONTINUOUS
 10
62.417339
 20
477.094421
 11
61.417339
 21
476.094421
  0
LINE
  8
0
  6
CONTINUOUS
 10
110.417343
 20
484.094421
 11
115.417343
 21
484.094421
  0
LINE
  8
0
  6
CONTINUOUS
 10
107.417343
 20
481.094421
 11
107.417343
 21
476.094421
  0
CIRCLE
  8
0
  6
CONTINUOUS
 10
111.417343
 20
480.094421
 40
2.250000
  0
ARC
  8
0
  6
CONTINUOUS
 10
110.417343
 20
481.094421
 40
3.000000
 50
90.000000
 51
180.000000
  0
LINE
  8
0
  6
CONTINUOUS
 10
106.417343
 20
481.094421
 11
106.417343
 21
477.094421
  0
ARC
  8
0
  6
CONTINUOUS
 10
110.417343
 20
481.094421
 40
4.000000
 50
90.000000
 51
180.000000
  0
LINE
  8
0
  6
CONTINUOUS
 10
114.417343
 20
485.094421
 11
110.417343
 21
485.094421
  0
LINE
  8
0
  6
CONTINUOUS
 10
106.417343
 20
477.094421
 11
107.417343
 21
476.094421
  0
LINE
  8
0
  6
CONTINUOUS
 10
114.417343
 20
485.094421
 11
115.417343
 21
484.094421
  0
LINE
  8
0
  6
CONTINUOUS
 10
62.417339
 20
477.094421
 11
106.417343
 21
477.094421
  0
LINE
  8
0
  6
CONTINUOUS
 10
54.417339
 20
529.094421
 11
54.417339
 21
485.094421
  0
LINE
  8
0
  6
CENTER
 10
84.417343
 20
543.340637
 11
84.417343
 21
470.647858
  0
LINE
  8
0
  6
CONTINUOUS
 10
53.917339
 20
452.094421
 11
53.917339
 21
477.594421
  0
LINE
  8
0
  6
CONTINUOUS
 10
54.917381
 20
168.410004
 11
113.417381
 21
168.410004
  0
LINE
  8
0
  6
CONTINUOUS
 10
54.917381
 20
168.410004
 11
54.917381
 21
166.910004
  0
LINE
  8
0
  6
CONTINUOUS
 10
100.917381
 20
168.410004
 11
100.917381
 21
166.910004
  0
LINE
  8
0
  6
CONTINUOUS
 10
53.417381
 20
217.410004
 11
53.417381
 21
170.410004
  0
LINE
  8
0
  6
CONTINUOUS
 10
115.417381
 20
217.410004
 11
115.417381
 21
170.410004
  0
LINE
  8
0
  6
CONTINUOUS
 10
115.417381
 20
170.410004
 11
113.417381
 21
168.410004
  0
LINE
  8
0
  6
CONTINUOUS
 10
53.417381
 20
170.410004
 11
55.417381
 21
168.410004
  0
LINE
  8
0
  6
CONTINUOUS
 10
53.417381
 20
170.410004
 11
115.417381
 21
170.410004
  0
LINE
  8
0
  6
CONTINUOUS
 10
53.417381
 20
180.410004
 11
115.417381
 21
180.410004
  0
LINE
  8
0
  6
CENTER
 10
84.417381
 20
225.923752
 11
84.417381
 21
163.815994
  0
LINE
  8
0
  6
CONTINUOUS
 10
53.417381
 20
181.410004
 11
115.417381
 21
181.410004
  0
LINE
  8
0
  6
CONTINUOUS
 10
54.417381
 20
218.410004
 11
114.417381
 21
218.410004
  0
LINE
  8
0
  6
CONTINUOUS
 10
114.417381
 20
218.410004
 11
115.417381
 21
217.410004
  0
LINE
  8
0
  6
CONTINUOUS
 10
53.417381
 20
217.410004
 11
54.417381
 21
218.410004
  0
LINE
  8
0
  6
CONTINUOUS
 10
53.417381
 20
217.410004
 11
115.417381
 21
217.410004
  0
LINE
  8
0
  6
CENTER
 10
50.792381
 20
201.410019
 11
56.542381
 21
201.410019
  0
LINE
  8
0
  6
CONTINUOUS
 10
52.292381
 20
211.910019
 11
55.417381
 21
211.910019
  0
LINE
  8
0
  6
CONTINUOUS
 10
52.292381
 20
190.910004
 11
55.417381
 21
190.910004
  0
LINE
  8
0
  6
CONTINUOUS
 10
182.417389
 20
475.594421
 11
182.417389
 21
456.094421
  0
TEXT
  8
0
 10
-16.000000
 20
0.000000
 40
4.000000
 41
1.000000
  1
HLMN-40T-1200~1800-T90C
 50
0.000000
  0
ENDSEC
  0
EOF
