  0
SECTION
  2
HEADER
  9
$CLAYER
  8
1
  9
$LTSCALE
 40
3.0
  0
ENDSEC
  0
SECTION
  2
TABLES
  0
TABLE
  2
LTYPE
 70
     4
  0
LTYPE
  2
CONTINUOUS
  3
solid line
 70
    64
 72
    65
 73
     0
 40
0.0
  0
LTYPE
  2
DASHED
  3
__ __ __ __ __ __ __ __ __ __ __ __ __ __ __
 70
    64
 72
    65
 73
     2
 40
0.75
 49
0.5
 49
-0.25
  0
LTYPE
  2
CENTER
  3
____ _ ____ _ ____ _ ____ _ ____ _ ____ _ ____
 70
    64
 72
    65
 73
     4
 40
2.0
 49
1.25
 49
-0.25
 49
0.25
 49
-0.25
  0
LTYPE
  2
PHANTOM
  3
_____ _ _ _____ _ _ _____ _ _ _____ _ _ ____
 70
    64
 72
    65
 73
     6
 40
2.5
 49
1.25
 49
-0.25
 49
0.25
 49
-0.25
 49
0.25
 49
-0.25
  0
ENDTAB
  0
TABLE
  2
LAYER
 70
     1
  0
LAYER
  2
0
 70
    64
 62
     7
  6
CONTINUOUS
  0
ENDTAB
  0
TABLE
  2
STYLE
 70
     1
  0
STYLE
  2
STANDARD
 70
     0
 40
0.000000
 41
1.000000
 50
0.000000
 71
     0
 42
3.000000
  3
txt
  4
BIGFONT
  0
ENDTAB
  0
ENDSEC
  0
SECTION
  2
BLOCKS
  0
ENDSEC
  0
SECTION
  2
ENTITIES
  0
LINE
  8
0
  6
CONTINUOUS
 10
242.774887
 20
41.669998
 11
242.774887
 21
183.669998
  0
LINE
  8
0
  6
CENTER
 10
143.157501
 20
112.669998
 11
289.264893
 21
112.669998
  0
LINE
  8
0
  6
CENTER
 10
345.774872
 20
256.024994
 11
345.774872
 21
-12.970000
  0
LINE
  8
0
  6
CENTER
 10
271.082489
 20
166.169998
 11
420.787506
 21
166.169998
  0
LINE
  8
0
  6
CONTINUOUS
 10
255.774887
 20
1.170000
 11
435.774872
 21
1.170000
  0
LINE
  8
0
  6
CONTINUOUS
 10
255.774887
 20
21.170000
 11
435.774872
 21
21.170000
  0
LINE
  8
0
  6
CONTINUOUS
 10
313.960480
 20
243.669998
 11
377.589294
 21
243.669998
  0
LINE
  8
0
  6
CONTINUOUS
 10
435.774872
 20
199.501999
 11
435.774872
 21
1.170000
  0
LINE
  8
0
  6
CONTINUOUS
 10
255.774887
 20
199.501999
 11
255.774887
 21
1.170000
  0
LINE
  8
0
  6
CONTINUOUS
 10
242.774887
 20
183.669998
 11
250.774887
 21
183.669998
  0
LINE
  8
0
  6
CONTINUOUS
 10
242.774887
 20
41.669998
 11
250.774887
 21
41.669998
  0
LINE
  8
0
  6
CONTINUOUS
 10
383.373474
 20
241.827347
 11
431.559296
 21
207.659317
  0
LINE
  8
0
  6
CONTINUOUS
 10
259.990692
 20
207.659317
 11
308.176270
 21
241.827347
  0
ARC
  8
0
  6
CONTINUOUS
 10
425.774872
 20
199.501953
 40
10.000000
 50
0.000000
 51
54.660099
  0
ARC
  8
0
  6
CONTINUOUS
 10
377.589294
 20
233.669998
 40
10.000000
 50
54.659950
 51
90.000000
  0
ARC
  8
0
  6
CONTINUOUS
 10
313.960480
 20
233.669998
 40
10.000000
 50
90.000000
 51
125.340302
  0
ARC
  8
0
  6
CONTINUOUS
 10
265.774872
 20
199.502045
 40
10.000000
 50
125.340500
 51
180.000000
  0
ARC
  8
0
  6
CONTINUOUS
 10
250.774887
 20
188.669998
 40
5.000000
 50
-90.000000
 51
0.000000
  0
ARC
  8
0
  6
CONTINUOUS
 10
250.774887
 20
36.669979
 40
5.000000
 50
0.000000
 51
90.000000
  0
LINE
  8
0
  6
CENTER
 10
405.774872
 20
26.924999
 11
405.774872
 21
-7.045000
  0
LINE
  8
0
  6
CENTER
 10
285.774872
 20
28.110001
 11
285.774872
 21
-6.650000
  0
LINE
  8
0
  6
DASHED
 10
398.274872
 20
21.170000
 11
398.274872
 21
1.170000
  0
LINE
  8
0
  6
DASHED
 10
413.274872
 20
21.170000
 11
413.274872
 21
1.170000
  0
LINE
  8
0
  6
DASHED
 10
293.274872
 20
21.170000
 11
293.274872
 21
1.170000
  0
LINE
  8
0
  6
DASHED
 10
278.274872
 20
21.170000
 11
278.274872
 21
1.170000
  0
LINE
  8
0
  6
CONTINUOUS
 10
421.774872
 20
18.484680
 11
421.774872
 21
1.170000
  0
LINE
  8
0
  6
CONTINUOUS
 10
269.774872
 20
18.484680
 11
269.774872
 21
1.170000
  0
LINE
  8
0
  6
CONTINUOUS
 10
379.532288
 20
26.170000
 11
312.017487
 21
26.170000
  0
LINE
  8
0
  6
CONTINUOUS
 10
310.774872
 20
25.033119
 11
310.774872
 21
22.170000
  0
LINE
  8
0
  6
CONTINUOUS
 10
380.774872
 20
25.033119
 11
380.774872
 21
22.170000
  0
LINE
  8
0
  6
CONTINUOUS
 10
381.653473
 20
25.291321
 11
384.310486
 21
22.634439
  0
LINE
  8
0
  6
CONTINUOUS
 10
309.896271
 20
25.291321
 11
307.239288
 21
22.634501
  0
ARC
  8
0
  6
CONTINUOUS
 10
303.703888
 20
26.170000
 40
5.000000
 50
270.000000
 51
315.000092
  0
ARC
  8
0
  6
CONTINUOUS
 10
387.845886
 20
26.170000
 40
5.000000
 50
225.000107
 51
270.000000
  0
ARC
  8
0
  6
CONTINUOUS
 10
312.017487
 20
23.170000
 40
3.000000
 50
90.000000
 51
135.000397
  0
ARC
  8
0
  6
CONTINUOUS
 10
379.532288
 20
23.170000
 40
3.000000
 50
45.000259
 51
90.000000
  0
ARC
  8
0
  6
CONTINUOUS
 10
309.774872
 20
22.170000
 40
1.000000
 50
-90.000000
 51
0.000000
  0
ARC
  8
0
  6
CONTINUOUS
 10
381.774872
 20
22.170000
 40
1.000000
 50
180.000000
 51
270.000000
  0
CIRCLE
  8
0
  6
CONTINUOUS
 10
345.774872
 20
166.169998
 40
46.000000
  0
ARC
  8
0
  6
CONTINUOUS
 10
345.774872
 20
166.169998
 40
52.000000
 50
12.522720
 51
167.477402
  0
ARC
  8
0
  6
CONTINUOUS
 10
345.774872
 20
166.169998
 40
48.000000
 50
-192.522598
 51
12.522720
  0
ARC
  8
0
  6
CONTINUOUS
 10
315.774872
 20
95.669998
 40
34.000000
 50
167.477402
 51
270.000000
  0
ARC
  8
0
  6
CONTINUOUS
 10
315.774872
 20
95.669998
 40
38.000000
 50
167.477402
 51
270.000000
  0
ARC
  8
0
  6
CONTINUOUS
 10
375.774872
 20
95.669998
 40
34.000000
 50
-90.000000
 51
12.522730
  0
ARC
  8
0
  6
CONTINUOUS
 10
375.774872
 20
95.669998
 40
38.000000
 50
-90.000000
 51
12.522720
  0
LINE
  8
0
  6
CONTINUOUS
 10
278.678894
 20
103.909363
 11
295.011871
 21
177.444901
  0
LINE
  8
0
  6
CONTINUOUS
 10
396.537872
 20
177.445007
 11
412.870880
 21
103.909424
  0
LINE
  8
0
  6
CONTINUOUS
 10
392.632874
 20
176.577682
 11
408.966095
 21
103.042114
  0
LINE
  8
0
  6
CONTINUOUS
 10
282.583679
 20
103.042061
 11
298.916870
 21
176.577621
  0
LINE
  8
0
  6
CONTINUOUS
 10
315.774872
 20
61.669998
 11
375.774872
 21
61.669998
  0
LINE
  8
0
  6
CONTINUOUS
 10
315.774872
 20
57.669998
 11
375.774872
 21
57.669998
  0
LINE
  8
0
  6
CONTINUOUS
 10
333.547882
 20
79.669998
 11
328.607483
 21
79.669998
  0
LINE
  8
0
  6
CONTINUOUS
 10
336.274872
 20
87.945396
 11
336.274872
 21
79.669998
  0
LINE
  8
0
  6
CONTINUOUS
 10
341.024872
 20
90.951241
 11
341.024872
 21
93.919998
  0
LINE
  8
0
  6
CONTINUOUS
 10
350.524872
 20
90.951241
 11
350.524872
 21
93.919998
  0
LINE
  8
0
  6
CONTINUOUS
 10
344.847076
 20
92.175858
 11
344.847076
 21
81.228600
  0
LINE
  8
0
  6
CONTINUOUS
 10
346.628479
 20
92.175858
 11
346.628479
 21
81.228600
  0
LINE
  8
0
  6
CONTINUOUS
 10
355.980072
 20
92.175858
 11
355.980072
 21
81.154381
  0
LINE
  8
0
  6
CONTINUOUS
 10
357.612885
 20
86.331139
 11
357.612885
 21
81.154381
  0
LINE
  8
0
  6
CONTINUOUS
 10
334.020874
 20
92.027420
 11
329.443268
 21
92.027420
  0
LINE
  8
0
  6
CONTINUOUS
 10
329.443268
 20
92.027420
 11
328.370697
 21
90.697418
  0
LINE
  8
0
  6
CONTINUOUS
 10
328.499695
 20
93.919998
 11
326.774872
 21
91.711540
  0
LINE
  8
0
  6
CONTINUOUS
 10
328.370697
 20
82.487839
 11
329.460480
 21
81.339920
  0
LINE
  8
0
  6
CONTINUOUS
 10
326.774872
 20
81.519119
 11
328.607483
 21
79.669998
  0
LINE
  8
0
  6
CONTINUOUS
 10
326.774872
 20
91.711540
 11
326.774872
 21
81.519119
  0
LINE
  8
0
  6
CONTINUOUS
 10
328.370697
 20
90.697418
 11
328.370697
 21
82.487839
  0
LINE
  8
0
  6
CONTINUOUS
 10
334.901886
 20
91.175858
 11
334.002869
 21
92.027420
  0
LINE
  8
0
  6
CONTINUOUS
 10
334.887482
 20
93.919998
 11
336.274872
 21
92.380417
  0
LINE
  8
0
  6
CONTINUOUS
 10
334.901886
 20
90.951241
 11
336.274872
 21
90.951241
  0
LINE
  8
0
  6
CONTINUOUS
 10
328.499695
 20
93.919998
 11
334.887482
 21
93.919998
  0
LINE
  8
0
  6
CONTINUOUS
 10
332.415497
 20
87.945396
 11
336.274872
 21
87.945396
  0
LINE
  8
0
  6
CONTINUOUS
 10
334.901886
 20
86.386803
 11
332.415497
 21
86.386803
  0
LINE
  8
0
  6
CONTINUOUS
 10
331.933075
 20
81.339920
 11
329.460480
 21
81.339920
  0
LINE
  8
0
  6
CONTINUOUS
 10
334.901886
 20
84.902420
 11
334.901886
 21
86.089920
  0
ARC
  8
0
  6
CONTINUOUS
 10
331.933075
 20
84.308662
 40
2.968750
 50
-89.999786
 51
0.000109
  0
LINE
  8
0
  6
CONTINUOUS
 10
334.901886
 20
80.805923
 11
334.901886
 21
79.669998
  0
LINE
  8
0
  6
CONTINUOUS
 10
336.274872
 20
92.380417
 11
336.274872
 21
90.951241
  0
LINE
  8
0
  6
CONTINUOUS
 10
334.901886
 20
86.386803
 11
334.901886
 21
84.308662
  0
LINE
  8
0
  6
CONTINUOUS
 10
332.415497
 20
87.945396
 11
332.415497
 21
86.386803
  0
LINE
  8
0
  6
CONTINUOUS
 10
334.901886
 20
79.669998
 11
336.274872
 21
79.669998
  0
LINE
  8
0
  6
CONTINUOUS
 10
334.901886
 20
80.805923
 11
333.547882
 21
79.669998
  0
LINE
  8
0
  6
CONTINUOUS
 10
346.628479
 20
81.228600
 11
347.222076
 21
81.228600
  0
LINE
  8
0
  6
CONTINUOUS
 10
344.142090
 20
81.228600
 11
344.142090
 21
79.669998
  0
LINE
  8
0
  6
CONTINUOUS
 10
347.222076
 20
81.228600
 11
347.222076
 21
79.669998
  0
LINE
  8
0
  6
CONTINUOUS
 10
349.533875
 20
90.951241
 11
350.524872
 21
90.951241
  0
LINE
  8
0
  6
CONTINUOUS
 10
341.024872
 20
90.951241
 11
342.079468
 21
90.951241
  0
LINE
  8
0
  6
CONTINUOUS
 10
341.024872
 20
93.919998
 11
350.524872
 21
93.919998
  0
LINE
  8
0
  6
CONTINUOUS
 10
344.142090
 20
79.669998
 11
347.222076
 21
79.669998
  0
LINE
  8
0
  6
CONTINUOUS
 10
344.142090
 20
81.228600
 11
344.847076
 21
81.228600
  0
ARC
  8
0
  6
CONTINUOUS
 10
360.971069
 20
90.116280
 40
3.803712
 50
-73.981873
 51
90.003510
  0
ARC
  8
0
  6
CONTINUOUS
 10
360.971069
 20
90.116280
 40
2.320524
 50
-82.585274
 51
62.411850
  0
LINE
  8
0
  6
CONTINUOUS
 10
355.274872
 20
93.919998
 11
360.971069
 21
93.919998
  0
LINE
  8
0
  6
CONTINUOUS
 10
361.270691
 20
87.815163
 11
357.612885
 21
87.815163
  0
LINE
  8
0
  6
CONTINUOUS
 10
355.274872
 20
93.919998
 11
355.274872
 21
92.175858
  0
LINE
  8
0
  6
CONTINUOUS
 10
357.612885
 20
92.175858
 11
357.612885
 21
87.815163
  0
LINE
  8
0
  6
CONTINUOUS
 10
362.020691
 20
86.460258
 11
364.375092
 21
81.154381
  0
LINE
  8
0
  6
CONTINUOUS
 10
360.653473
 20
86.331139
 11
362.881287
 21
81.154381
  0
LINE
  8
0
  6
CONTINUOUS
 10
355.274872
 20
81.154381
 11
355.980072
 21
81.154381
  0
LINE
  8
0
  6
CONTINUOUS
 10
357.612885
 20
81.154381
 11
358.262268
 21
81.154381
  0
LINE
  8
0
  6
CONTINUOUS
 10
358.262268
 20
79.669998
 11
355.274872
 21
79.669998
  0
LINE
  8
0
  6
CONTINUOUS
 10
362.585480
 20
81.154381
 11
362.881287
 21
81.154381
  0
LINE
  8
0
  6
CONTINUOUS
 10
364.375092
 20
81.154381
 11
364.774872
 21
81.154381
  0
LINE
  8
0
  6
CONTINUOUS
 10
362.585480
 20
79.669998
 11
364.774872
 21
79.669998
  0
LINE
  8
0
  6
CONTINUOUS
 10
364.774872
 20
81.154381
 11
364.774872
 21
79.669998
  0
LINE
  8
0
  6
CONTINUOUS
 10
362.585480
 20
81.154381
 11
362.585480
 21
79.669998
  0
LINE
  8
0
  6
CONTINUOUS
 10
358.262268
 20
81.154381
 11
358.262268
 21
79.669998
  0
LINE
  8
0
  6
CONTINUOUS
 10
355.274872
 20
81.154381
 11
355.274872
 21
79.669998
  0
LINE
  8
0
  6
CONTINUOUS
 10
342.589691
 20
92.175858
 11
342.079468
 21
90.951241
  0
LINE
  8
0
  6
CONTINUOUS
 10
349.103668
 20
92.175858
 11
349.533875
 21
90.951241
  0
LINE
  8
0
  6
CONTINUOUS
 10
346.628479
 20
92.175858
 11
349.103668
 21
92.175858
  0
LINE
  8
0
  6
CONTINUOUS
 10
344.847076
 20
92.175858
 11
342.589691
 21
92.175858
  0
LINE
  8
0
  6
CONTINUOUS
 10
357.612885
 20
86.331139
 11
360.653473
 21
86.331139
  0
LINE
  8
0
  6
CONTINUOUS
 10
355.274872
 20
92.175858
 11
355.980072
 21
92.175858
  0
LINE
  8
0
  6
CONTINUOUS
 10
357.612885
 20
92.175858
 11
362.045868
 21
92.172981
  0
LINE
  8
0
  6
CONTINUOUS
 10
334.901886
 20
91.175858
 11
334.901886
 21
90.951241
  0
ARC
  8
0
  6
CONTINUOUS
 10
465.456482
 20
112.669998
 40
215.181595
 50
167.017899
 51
192.982101
  0
LINE
  8
0
  6
CONTINUOUS
 10
56.274883
 20
150.669998
 11
186.274887
 21
150.669998
  0
LINE
  8
0
  6
CONTINUOUS
 10
56.274883
 20
44.669998
 11
186.274887
 21
44.669998
  0
LINE
  8
0
  6
CONTINUOUS
 10
56.274883
 20
140.293335
 11
174.936646
 21
140.293335
  0
LINE
  8
0
  6
CONTINUOUS
 10
56.274883
 20
55.046638
 11
174.936646
 21
55.046638
  0
LINE
  8
0
  6
CONTINUOUS
 10
176.274887
 20
148.669998
 11
176.274887
 21
46.669979
  0
ARC
  8
0
  6
CONTINUOUS
 10
178.274887
 20
148.670013
 40
2.000000
 50
90.000000
 51
180.000000
  0
ARC
  8
0
  6
CONTINUOUS
 10
178.274887
 20
46.669998
 40
2.000000
 50
180.000000
 51
270.000000
  0
LINE
  8
0
  6
CENTER
 10
682.019104
 20
-15.340000
 11
682.019104
 21
256.815002
  0
LINE
  8
0
  6
CENTER
 10
581.216736
 20
112.669998
 11
777.926697
 21
112.669998
  0
LINE
  8
0
  6
CENTER
 10
526.207520
 20
166.169998
 11
839.455872
 21
166.169998
  0
LINE
  8
0
  6
CENTER
 10
612.019104
 20
32.849998
 11
612.019104
 21
-5.860000
  0
LINE
  8
0
  6
CENTER
 10
752.019104
 20
30.084999
 11
752.019104
 21
-6.650000
  0
LINE
  8
0
  6
DASHED
 10
744.519104
 20
21.170000
 11
744.519104
 21
1.170000
  0
LINE
  8
0
  6
DASHED
 10
759.519104
 20
21.170000
 11
759.519104
 21
1.170000
  0
LINE
  8
0
  6
DASHED
 10
619.519104
 20
21.170000
 11
619.519104
 21
1.170000
  0
LINE
  8
0
  6
DASHED
 10
604.519104
 20
21.170000
 11
604.519104
 21
1.170000
  0
LINE
  8
0
  6
CONTINUOUS
 10
592.019104
 20
1.170000
 11
647.019104
 21
1.170000
  0
LINE
  8
0
  6
CONTINUOUS
 10
717.019104
 20
1.170000
 11
772.019104
 21
1.170000
  0
LINE
  8
0
  6
CONTINUOUS
 10
739.019104
 20
21.170000
 11
769.019104
 21
21.170000
  0
LINE
  8
0
  6
CONTINUOUS
 10
595.019104
 20
21.170000
 11
625.019104
 21
21.170000
  0
LINE
  8
0
  6
CONTINUOUS
 10
592.019104
 20
18.538879
 11
592.019104
 21
1.170020
  0
LINE
  8
0
  6
CONTINUOUS
 10
772.019104
 20
18.538879
 11
772.019104
 21
1.170000
  0
LINE
  8
0
  6
CONTINUOUS
 10
734.019104
 20
223.450104
 11
734.019104
 21
238.831757
  0
LINE
  8
0
  6
CONTINUOUS
 10
630.019104
 20
238.831375
 11
630.019104
 21
1.170000
  0
LINE
  8
0
  6
CONTINUOUS
 10
648.519104
 20
2.670000
 11
715.519104
 21
2.670000
  0
LINE
  8
0
  6
CONTINUOUS
 10
634.463684
 20
204.669998
 11
730.250916
 21
204.669998
  0
LINE
  8
0
  6
CONTINUOUS
 10
730.088928
 20
242.831146
 11
682.019104
 21
243.670013
  0
LINE
  8
0
  6
CONTINUOUS
 10
633.949280
 20
242.830780
 11
682.019104
 21
243.670013
  0
LINE
  8
0
  6
CONTINUOUS
 10
609.019104
 20
125.450111
 11
609.019104
 21
206.889877
  0
LINE
  8
0
  6
CONTINUOUS
 10
755.019104
 20
125.450111
 11
755.019104
 21
206.889877
  0
LINE
  8
0
  6
CONTINUOUS
 10
616.019104
 20
66.950104
 11
616.019104
 21
170.310287
  0
LINE
  8
0
  6
CONTINUOUS
 10
748.019104
 20
66.950119
 11
748.019104
 21
170.310287
  0
ARC
  8
0
  6
CONTINUOUS
 10
634.019104
 20
238.831406
 40
4.000000
 50
91.000580
 51
180.000000
  0
ARC
  8
0
  6
CONTINUOUS
 10
730.019104
 20
238.831741
 40
4.000000
 50
0.000000
 51
89.000359
  0
LINE
  8
0
  6
CONTINUOUS
 10
614.096130
 20
213.620560
 11
624.942078
 21
216.719437
  0
LINE
  8
0
  6
CONTINUOUS
 10
739.096130
 20
216.719437
 11
749.942078
 21
213.620560
  0
LINE
  8
0
  6
CONTINUOUS
 10
621.096130
 20
60.219440
 11
624.942078
 21
59.120560
  0
LINE
  8
0
  6
CONTINUOUS
 10
742.942078
 20
60.219440
 11
739.096130
 21
59.120560
  0
LINE
  8
0
  6
CONTINUOUS
 10
769.410522
 20
21.513241
 11
736.627686
 21
25.826759
  0
LINE
  8
0
  6
CONTINUOUS
 10
594.627686
 20
21.513241
 11
627.410522
 21
25.826780
  0
ARC
  8
0
  6
CONTINUOUS
 10
616.019104
 20
206.889923
 40
7.000000
 50
105.945801
 51
180.000000
  0
ARC
  8
0
  6
CONTINUOUS
 10
616.019104
 20
125.450157
 40
7.000000
 50
180.000000
 51
240.000198
  0
ARC
  8
0
  6
CONTINUOUS
 10
748.019104
 20
206.889862
 40
7.000000
 50
0.000000
 51
74.054764
  0
ARC
  8
0
  6
CONTINUOUS
 10
748.019104
 20
125.450096
 40
7.000000
 50
-59.999882
 51
0.000000
  0
ARC
  8
0
  6
CONTINUOUS
 10
623.019104
 20
66.950157
 40
7.000000
 50
180.000000
 51
254.054901
  0
ARC
  8
0
  6
CONTINUOUS
 10
741.019104
 20
66.950104
 40
7.000000
 50
-74.054497
 51
0.000000
  0
LINE
  8
0
  6
CONTINUOUS
 10
734.019104
 20
26.170000
 11
734.019104
 21
223.450104
  0
ARC
  8
0
  6
CONTINUOUS
 10
741.019104
 20
223.450165
 40
7.000000
 50
180.000000
 51
254.054901
  0
ARC
  8
0
  6
CONTINUOUS
 10
741.019104
 20
52.389938
 40
7.000000
 50
105.945801
 51
180.000000
  0
ARC
  8
0
  6
CONTINUOUS
 10
755.019104
 20
113.325745
 40
7.000000
 50
120.000099
 51
180.000000
  0
ARC
  8
0
  6
CONTINUOUS
 10
737.019104
 20
28.801140
 40
3.000000
 50
180.000000
 51
262.504395
  0
ARC
  8
0
  6
CONTINUOUS
 10
769.019104
 20
18.170000
 40
3.000000
 50
0.000000
 51
90.000000
  0
ARC
  8
0
  6
CONTINUOUS
 10
769.019104
 20
18.538860
 40
3.000000
 50
0.000000
 51
82.504204
  0
LINE
  8
0
  6
CONTINUOUS
 10
734.019104
 20
26.170000
 11
734.019104
 21
1.170000
  0
ARC
  8
0
  6
CONTINUOUS
 10
739.019104
 20
26.170019
 40
5.000000
 50
180.000000
 51
270.000000
  0
ARC
  8
0
  6
CONTINUOUS
 10
627.019104
 20
28.801140
 40
3.000000
 50
-82.503883
 51
0.000000
  0
ARC
  8
0
  6
CONTINUOUS
 10
625.019104
 20
26.170000
 40
5.000000
 50
-90.000000
 51
0.000000
  0
ARC
  8
0
  6
CONTINUOUS
 10
595.019104
 20
18.170019
 40
3.000000
 50
90.000000
 51
180.000000
  0
ARC
  8
0
  6
CONTINUOUS
 10
595.019104
 20
18.538900
 40
3.000000
 50
97.496292
 51
180.000000
  0
LINE
  8
0
  6
CONTINUOUS
 10
647.019104
 20
1.170000
 11
648.519104
 21
2.670000
  0
LINE
  8
0
  6
CONTINUOUS
 10
717.019104
 20
1.170000
 11
715.519104
 21
2.670000
  0
ARC
  8
0
  6
CONTINUOUS
 10
623.019104
 20
52.389858
 40
7.000000
 50
0.000000
 51
74.054688
  0
ARC
  8
0
  6
CONTINUOUS
 10
609.019104
 20
113.325783
 40
7.000000
 50
0.000000
 51
60.000092
  0
ARC
  8
0
  6
CONTINUOUS
 10
623.019104
 20
223.450104
 40
7.000000
 50
-74.054443
 51
0.000000
  0
ARC
  8
0
  6
CONTINUOUS
 10
682.019104
 20
112.669998
 40
71.000000
 50
-21.630920
 51
6.068256
  0
ARC
  8
0
  6
CONTINUOUS
 10
682.019104
 20
112.669998
 40
71.000000
 50
173.931793
 51
201.630905
  0
LINE
  8
0
  6
CONTINUOUS
 10
735.019104
 20
55.995480
 11
735.019104
 21
49.669998
  0
LINE
  8
0
  6
CONTINUOUS
 10
629.019104
 20
49.669998
 11
629.019104
 21
55.859001
  0
ARC
  8
0
  6
CONTINUOUS
 10
730.019104
 20
49.669998
 40
5.000000
 50
-36.869869
 51
0.000000
  0
ARC
  8
0
  6
CONTINUOUS
 10
634.019104
 20
49.669998
 40
5.000000
 50
180.000000
 51
216.865204
  0
LINE
  8
0
  6
CONTINUOUS
 10
360.774872
 20
160.170059
 11
360.774872
 21
172.170059
  0
LINE
  8
0
  6
CONTINUOUS
 10
368.774872
 20
160.170074
 11
368.774872
 21
172.170074
  0
LINE
  8
0
  6
CONTINUOUS
 10
368.774872
 20
160.170074
 11
360.774872
 21
160.170059
  0
LINE
  8
0
  6
CONTINUOUS
 10
368.774872
 20
172.170074
 11
360.774872
 21
172.170059
  0
ARC
  8
0
  6
CONTINUOUS
 10
345.774872
 20
166.169998
 40
20.000000
 50
17.457600
 51
342.542389
  0
LINE
  8
0
  6
CONTINUOUS
 10
542.019104
 20
146.169998
 11
542.019104
 21
186.169998
  0
LINE
  8
0
  6
CONTINUOUS
 10
607.019104
 20
186.169998
 11
542.019104
 21
186.169998
  0
LINE
  8
0
  6
CONTINUOUS
 10
607.019104
 20
146.169998
 11
542.019104
 21
146.169998
  0
LINE
  8
0
  6
CONTINUOUS
 10
607.019104
 20
188.669998
 11
607.019104
 21
143.669998
  0
LINE
  8
0
  6
CONTINUOUS
 10
609.019104
 20
188.669998
 11
607.019104
 21
188.669998
  0
LINE
  8
0
  6
CONTINUOUS
 10
609.019104
 20
143.669998
 11
607.019104
 21
143.669998
  0
ARC
  8
0
  6
CONTINUOUS
 10
596.019104
 20
166.169998
 40
6.000000
 50
-90.000000
 51
90.000000
  0
LINE
  8
0
  6
CONTINUOUS
 10
596.019104
 20
172.169998
 11
542.019104
 21
172.169998
  0
LINE
  8
0
  6
CONTINUOUS
 10
596.019104
 20
160.169998
 11
542.019104
 21
160.169998
  0
LINE
  8
0
  6
CONTINUOUS
 10
822.019104
 20
146.169998
 11
822.019104
 21
186.169998
  0
LINE
  8
0
  6
CONTINUOUS
 10
757.019104
 20
186.169998
 11
822.019104
 21
186.169998
  0
LINE
  8
0
  6
CONTINUOUS
 10
757.019104
 20
146.169998
 11
822.019104
 21
146.169998
  0
LINE
  8
0
  6
CONTINUOUS
 10
757.019104
 20
188.669998
 11
757.019104
 21
143.669998
  0
LINE
  8
0
  6
CONTINUOUS
 10
755.019104
 20
188.669998
 11
757.019104
 21
188.669998
  0
LINE
  8
0
  6
CONTINUOUS
 10
755.019104
 20
143.669998
 11
757.019104
 21
143.669998
  0
ARC
  8
0
  6
CONTINUOUS
 10
768.019104
 20
166.169998
 40
6.000000
 50
90.000000
 51
270.000000
  0
LINE
  8
0
  6
CONTINUOUS
 10
768.019104
 20
172.169998
 11
822.019104
 21
172.169998
  0
LINE
  8
0
  6
CONTINUOUS
 10
768.019104
 20
160.169998
 11
822.019104
 21
160.169998
  0
LINE
  8
0
  6
CONTINUOUS
 10
233.774887
 20
67.426003
 11
233.774887
 21
181.669998
  0
LINE
  8
0
  6
CENTER
 10
-22.287500
 20
97.669998
 11
289.264893
 21
97.669998
  0
LINE
  8
0
  6
CONTINUOUS
 10
235.774887
 20
183.669998
 11
242.774887
 21
183.669998
  0
LINE
  8
0
  6
CONTINUOUS
 10
235.774887
 20
41.670021
 11
242.774887
 21
41.670021
  0
LINE
  8
0
  6
CONTINUOUS
 10
214.774887
 20
44.669998
 11
186.274887
 21
44.669998
  0
LINE
  8
0
  6
CONTINUOUS
 10
186.274887
 20
150.669998
 11
230.774857
 21
150.669998
  0
LINE
  8
0
  6
CONTINUOUS
 10
232.274887
 20
161.803986
 11
213.686615
 21
151.071930
  0
ARC
  8
0
  6
CONTINUOUS
 10
235.774902
 20
181.669998
 40
2.000000
 50
90.000000
 51
180.000000
  0
ARC
  8
0
  6
CONTINUOUS
 10
235.774887
 20
43.669998
 40
2.000000
 50
194.477707
 51
270.000000
  0
LINE
  8
0
  6
CONTINUOUS
 10
214.774887
 20
46.669998
 11
214.774887
 21
63.425999
  0
LINE
  8
0
  6
CONTINUOUS
 10
231.774887
 20
65.426003
 11
216.774887
 21
65.426003
  0
ARC
  8
0
  6
CONTINUOUS
 10
216.774887
 20
63.426022
 40
2.000000
 50
90.000000
 51
180.000000
  0
ARC
  8
0
  6
CONTINUOUS
 10
231.901901
 20
42.669998
 40
2.000000
 50
14.477280
 51
90.000000
  0
ARC
  8
0
  6
CONTINUOUS
 10
231.774887
 20
67.426003
 40
2.000000
 50
-90.000000
 51
0.000000
  0
LINE
  8
0
  6
CONTINUOUS
 10
214.774887
 20
44.669998
 11
231.901901
 21
44.669998
  0
ARC
  8
0
  6
CONTINUOUS
 10
212.774887
 20
46.669998
 40
2.000000
 50
-90.000000
 51
0.000000
  0
ARC
  8
0
  6
CONTINUOUS
 10
230.774887
 20
153.669998
 40
3.000000
 50
-90.000000
 51
0.000000
  0
ARC
  8
0
  6
CONTINUOUS
 10
230.774887
 20
164.402039
 40
3.000000
 50
-59.999660
 51
0.000000
  0
ARC
  8
0
  6
CONTINUOUS
 10
212.186600
 20
153.669998
 40
3.000000
 50
270.000000
 51
300.000305
  0
LINE
  8
0
  6
CONTINUOUS
 10
186.274887
 20
150.669998
 11
186.274887
 21
44.669998
  0
LINE
  8
0
  6
CONTINUOUS
 10
414.643982
 20
580.854187
 11
368.774872
 21
580.854248
  0
LINE
  8
0
  6
CONTINUOUS
 10
414.643402
 20
400.854156
 11
368.774872
 21
400.854248
  0
LINE
  8
0
  6
CENTER
 10
345.774872
 20
336.465363
 11
345.775543
 21
655.932251
  0
LINE
  8
0
  6
CENTER
 10
420.628693
 20
560.855042
 11
392.260651
 21
560.855042
  0
LINE
  8
0
  6
CONTINUOUS
 10
435.775208
 20
490.854248
 11
434.867188
 21
438.854218
  0
LINE
  8
0
  6
CONTINUOUS
 10
424.097992
 20
407.596771
 11
434.867188
 21
438.854218
  0
ARC
  8
0
  6
CONTINUOUS
 10
414.643585
 20
410.854218
 40
10.000000
 50
-90.000000
 51
-19.010900
  0
ARC
  8
0
  6
CONTINUOUS
 10
405.775208
 20
560.855042
 40
7.500000
 50
-46.074883
 51
212.226791
  0
LINE
  8
0
  6
CONTINUOUS
 10
435.775208
 20
490.854248
 11
434.867401
 21
542.854187
  0
LINE
  8
0
  6
CONTINUOUS
 10
424.098389
 20
574.111572
 11
434.867401
 21
542.854187
  0
ARC
  8
0
  6
CONTINUOUS
 10
414.643982
 20
570.854187
 40
10.000000
 50
19.010900
 51
90.000000
  0
LINE
  8
0
  6
CONTINUOUS
 10
255.775192
 20
490.854431
 11
256.682983
 21
438.854492
  0
LINE
  8
0
  6
CONTINUOUS
 10
267.451996
 20
407.597015
 11
256.682983
 21
438.854492
  0
ARC
  8
0
  6
CONTINUOUS
 10
276.906586
 20
410.854462
 40
10.000000
 50
199.010895
 51
270.000000
  0
LINE
  8
0
  6
CONTINUOUS
 10
255.775192
 20
490.854431
 11
256.631744
 21
539.907043
  0
LINE
  8
0
  6
CONTINUOUS
 10
267.452393
 20
574.111816
 11
257.030029
 21
543.861023
  0
LINE
  8
0
  6
CONTINUOUS
 10
244.813004
 20
561.854370
 11
242.775406
 21
561.854370
  0
LINE
  8
0
  6
CONTINUOUS
 10
242.775391
 20
561.854370
 11
242.774994
 21
419.854492
  0
LINE
  8
0
  6
CONTINUOUS
 10
253.884995
 20
548.042603
 11
251.574402
 21
556.666199
  0
ARC
  8
0
  6
CONTINUOUS
 10
244.813004
 20
554.854370
 40
7.000000
 50
14.999900
 51
90.000000
  0
ARC
  8
0
  6
CONTINUOUS
 10
260.646606
 20
549.854370
 40
7.000000
 50
-165.000305
 51
-90.000000
  0
LINE
  8
0
  6
CONTINUOUS
 10
244.812592
 20
419.854492
 11
242.774994
 21
419.854492
  0
LINE
  8
0
  6
CONTINUOUS
 10
253.884796
 20
433.666321
 11
251.574203
 21
425.042725
  0
ARC
  8
0
  6
CONTINUOUS
 10
244.812592
 20
426.854523
 40
7.000000
 50
-90.000000
 51
-14.999900
  0
ARC
  8
0
  6
CONTINUOUS
 10
260.646393
 20
431.854492
 40
7.000000
 50
121.109207
 51
165.000336
  0
ARC
  8
0
  6
CONTINUOUS
 10
276.906586
 20
570.854858
 40
10.000000
 50
90.000000
 51
160.989105
  0
ARC
  8
0
  6
CONTINUOUS
 10
285.774994
 20
560.855713
 40
7.500000
 50
-32.232941
 51
238.076355
  0
LINE
  8
0
  6
CENTER
 10
405.774902
 20
549.053406
 11
405.775391
 21
572.929810
  0
LINE
  8
0
  6
CENTER
 10
298.785583
 20
560.855103
 11
273.207855
 21
560.855103
  0
LINE
  8
0
  6
CENTER
 10
285.775208
 20
549.053406
 11
285.775391
 21
572.929993
  0
LINE
  8
0
  6
CONTINUOUS
 10
431.919312
 20
542.854675
 11
259.631287
 21
542.854675
  0
LINE
  8
0
  6
CONTINUOUS
 10
302.994415
 20
563.854675
 11
388.555328
 21
563.854675
  0
ARC
  8
0
  6
CONTINUOUS
 10
431.919312
 20
539.854675
 40
3.000000
 50
1.000152
 51
90.000000
  0
ARC
  8
0
  6
CONTINUOUS
 10
259.631287
 20
539.854675
 40
3.000000
 50
90.000000
 51
178.999634
  0
LINE
  8
0
  6
CONTINUOUS
 10
431.919312
 20
438.854645
 11
259.631287
 21
438.854645
  0
ARC
  8
0
  6
CONTINUOUS
 10
431.919312
 20
441.854645
 40
3.000000
 50
270.000000
 51
358.999847
  0
ARC
  8
0
  6
CONTINUOUS
 10
259.631287
 20
441.854645
 40
3.000000
 50
181.000366
 51
270.000000
  0
LINE
  8
0
  6
CONTINUOUS
 10
380.775085
 20
443.854645
 11
380.775085
 21
537.854675
  0
LINE
  8
0
  6
CONTINUOUS
 10
310.775116
 20
443.854645
 11
310.775116
 21
537.854675
  0
LINE
  8
0
  6
CONTINUOUS
 10
287.055115
 20
556.854675
 11
293.774872
 21
556.854675
  0
LINE
  8
0
  6
CONTINUOUS
 10
406.774994
 20
556.854675
 11
397.774872
 21
556.854675
  0
ARC
  8
0
  6
CONTINUOUS
 10
406.774994
 20
549.854675
 40
7.000000
 50
0.000000
 51
90.000000
  0
ARC
  8
0
  6
CONTINUOUS
 10
420.774994
 20
549.854675
 40
7.000000
 50
180.000000
 51
270.000000
  0
LINE
  8
0
  6
CENTER
 10
420.628693
 20
420.855103
 11
392.260651
 21
420.855103
  0
ARC
  8
0
  6
CONTINUOUS
 10
405.775208
 20
420.855103
 40
7.500000
 50
-212.226791
 51
46.074883
  0
ARC
  8
0
  6
CONTINUOUS
 10
285.774994
 20
420.854431
 40
7.500000
 50
-226.078156
 51
32.232941
  0
LINE
  8
0
  6
CENTER
 10
405.774902
 20
432.656708
 11
405.775391
 21
408.780304
  0
LINE
  8
0
  6
CENTER
 10
298.785583
 20
420.855011
 11
273.207855
 21
420.855011
  0
LINE
  8
0
  6
CENTER
 10
285.775208
 20
432.656708
 11
285.775391
 21
408.780121
  0
LINE
  8
0
  6
CONTINUOUS
 10
302.994415
 20
417.854645
 11
388.555328
 21
417.854645
  0
LINE
  8
0
  6
CONTINUOUS
 10
284.774994
 20
424.854645
 11
293.774872
 21
424.854584
  0
ARC
  8
0
  6
CONTINUOUS
 10
284.774994
 20
431.854645
 40
7.000000
 50
180.000000
 51
270.000000
  0
ARC
  8
0
  6
CONTINUOUS
 10
270.774994
 20
431.854645
 40
7.000000
 50
0.000000
 51
90.000000
  0
LINE
  8
0
  6
CONTINUOUS
 10
406.774994
 20
424.854645
 11
397.774872
 21
424.854584
  0
ARC
  8
0
  6
CONTINUOUS
 10
406.774994
 20
431.854645
 40
7.000000
 50
-90.000000
 51
0.000000
  0
ARC
  8
0
  6
CONTINUOUS
 10
420.774994
 20
431.854645
 40
7.000000
 50
90.000000
 51
180.000000
  0
LINE
  8
0
  6
CONTINUOUS
 10
280.324432
 20
551.777710
 11
279.225555
 21
547.931580
  0
ARC
  8
0
  6
CONTINUOUS
 10
287.055115
 20
549.854675
 40
7.000000
 50
90.000000
 51
164.054611
  0
ARC
  8
0
  6
CONTINUOUS
 10
272.494873
 20
549.854675
 40
7.000000
 50
-90.000000
 51
-15.945396
  0
LINE
  8
0
  6
CONTINUOUS
 10
325.775208
 20
350.854431
 11
368.774872
 21
350.854431
  0
LINE
  8
0
  6
CONTINUOUS
 10
365.775208
 20
415.854431
 11
365.775208
 21
410.854858
  0
LINE
  8
0
  6
CONTINUOUS
 10
325.775208
 20
415.854431
 11
325.775208
 21
350.854431
  0
LINE
  8
0
  6
CONTINUOUS
 10
368.275208
 20
415.854431
 11
323.275208
 21
415.854431
  0
LINE
  8
0
  6
CONTINUOUS
 10
368.275208
 20
417.854431
 11
368.275208
 21
415.854431
  0
LINE
  8
0
  6
CONTINUOUS
 10
323.275208
 20
417.854431
 11
323.275208
 21
415.854431
  0
LINE
  8
0
  6
CONTINUOUS
 10
325.775208
 20
630.854431
 11
368.774872
 21
630.854431
  0
LINE
  8
0
  6
CONTINUOUS
 10
365.775208
 20
565.854431
 11
365.775208
 21
570.854431
  0
LINE
  8
0
  6
CONTINUOUS
 10
325.775208
 20
565.854431
 11
325.775208
 21
630.854431
  0
LINE
  8
0
  6
CONTINUOUS
 10
368.275208
 20
565.854431
 11
323.275208
 21
565.854431
  0
LINE
  8
0
  6
CONTINUOUS
 10
368.275208
 20
563.854431
 11
368.275208
 21
565.854431
  0
LINE
  8
0
  6
CONTINUOUS
 10
323.275208
 20
563.854431
 11
323.275208
 21
565.854431
  0
LINE
  8
0
  6
CONTINUOUS
 10
325.775208
 20
580.854309
 11
276.906982
 21
580.854370
  0
LINE
  8
0
  6
CONTINUOUS
 10
325.775208
 20
400.854340
 11
276.906586
 21
400.854431
  0
LINE
  8
0
  6
CONTINUOUS
 10
368.774872
 20
630.854431
 11
368.774872
 21
570.854431
  0
LINE
  8
0
  6
CONTINUOUS
 10
364.853882
 20
570.854431
 11
368.774872
 21
570.854431
  0
LINE
  8
0
  6
CONTINUOUS
 10
368.774872
 20
350.854858
 11
368.774872
 21
410.854858
  0
LINE
  8
0
  6
CONTINUOUS
 10
364.853882
 20
410.854858
 11
368.774872
 21
410.854858
  0
LINE
  8
0
  6
CONTINUOUS
 10
297.679626
 20
561.410217
 11
293.774872
 21
556.854675
  0
ARC
  8
0
  6
CONTINUOUS
 10
302.994415
 20
556.854675
 40
7.000000
 50
90.000000
 51
139.398712
  0
LINE
  8
0
  6
CONTINUOUS
 10
393.870148
 20
561.410217
 11
397.774872
 21
556.854675
  0
ARC
  8
0
  6
CONTINUOUS
 10
388.555328
 20
556.854675
 40
7.000000
 50
40.601295
 51
90.000000
  0
LINE
  8
0
  6
CONTINUOUS
 10
393.870148
 20
420.299042
 11
397.774872
 21
424.854584
  0
ARC
  8
0
  6
CONTINUOUS
 10
388.555328
 20
424.854584
 40
7.000000
 50
-90.000000
 51
-40.601295
  0
LINE
  8
0
  6
CONTINUOUS
 10
297.679626
 20
420.299042
 11
293.774872
 21
424.854584
  0
ARC
  8
0
  6
CONTINUOUS
 10
302.994415
 20
424.854584
 40
7.000000
 50
-139.398712
 51
-90.000000
  0
LINE
  8
0
  6
CONTINUOUS
 10
364.853882
 20
410.854858
 11
364.853882
 21
350.854431
  0
LINE
  8
0
  6
CONTINUOUS
 10
364.853882
 20
630.854431
 11
364.853882
 21
570.854431
  0
LINE
  8
0
  6
CENTER
 10
458.976135
 20
490.854431
 11
-22.287500
 21
490.854431
  0
LINE
  8
0
  6
CONTINUOUS
 10
235.775391
 20
561.854431
 11
242.775406
 21
561.854431
  0
LINE
  8
0
  6
CONTINUOUS
 10
233.775391
 20
421.854431
 11
233.775391
 21
559.854431
  0
LINE
  8
0
  6
CONTINUOUS
 10
235.775391
 20
419.854431
 11
242.774994
 21
419.854431
  0
LINE
  8
0
  6
CONTINUOUS
 10
186.275391
 20
543.854431
 11
233.775391
 21
543.854431
  0
LINE
  8
0
  6
CONTINUOUS
 10
186.275391
 20
437.854431
 11
233.775391
 21
437.854431
  0
LINE
  8
0
  6
CONTINUOUS
 10
186.275391
 20
543.854431
 11
186.275391
 21
437.854431
  0
ARC
  8
0
  6
CONTINUOUS
 10
235.775391
 20
559.854431
 40
2.000000
 50
90.000000
 51
180.000000
  0
ARC
  8
0
  6
CONTINUOUS
 10
235.775391
 20
421.854431
 40
2.000000
 50
180.000000
 51
270.000000
  0
ARC
  8
0
  6
CONTINUOUS
 10
232.990463
 20
490.854431
 40
20.000000
 50
141.561295
 51
180.000000
  0
LINE
  8
0
  6
CONTINUOUS
 10
233.775391
 20
524.014404
 11
217.324997
 21
503.287964
  0
ARC
  8
0
  6
CONTINUOUS
 10
232.990463
 20
490.854431
 40
20.000000
 50
-180.000000
 51
-141.561295
  0
LINE
  8
0
  6
CONTINUOUS
 10
233.775391
 20
457.694427
 11
217.324997
 21
478.420898
  0
LINE
  8
0
  6
CONTINUOUS
 10
56.274883
 20
543.854431
 11
186.274887
 21
543.854431
  0
LINE
  8
0
  6
CONTINUOUS
 10
56.274883
 20
437.854431
 11
186.274887
 21
437.854431
  0
LINE
  8
0
  6
CONTINUOUS
 10
56.274883
 20
522.354431
 11
176.274887
 21
522.354431
  0
LINE
  8
0
  6
CONTINUOUS
 10
56.274883
 20
459.354431
 11
176.274887
 21
459.354431
  0
LINE
  8
0
  6
CONTINUOUS
 10
176.274887
 20
541.854431
 11
176.274887
 21
522.354431
  0
ARC
  8
0
  6
CONTINUOUS
 10
178.274887
 20
541.854431
 40
2.000000
 50
90.000000
 51
180.000000
  0
ARC
  8
0
  6
CONTINUOUS
 10
178.274887
 20
439.854431
 40
2.000000
 50
180.000000
 51
270.000000
  0
LINE
  8
0
  6
CONTINUOUS
 10
47.774841
 20
543.854431
 11
56.274883
 21
543.854431
  0
LINE
  8
0
  6
CONTINUOUS
 10
47.774841
 20
437.854431
 11
56.274883
 21
437.854431
  0
LINE
  8
0
  6
CONTINUOUS
 10
56.274883
 20
522.354431
 11
47.774841
 21
522.354431
  0
LINE
  8
0
  6
CONTINUOUS
 10
56.274883
 20
459.354431
 11
47.774841
 21
459.354431
  0
LINE
  8
0
  6
CONTINUOUS
 10
56.274883
 20
437.854431
 11
56.274883
 21
483.988403
  0
LINE
  8
0
  6
CONTINUOUS
 10
49.774883
 20
484.854431
 11
49.774883
 21
496.854431
  0
LINE
  8
0
  6
CONTINUOUS
 10
56.774883
 20
484.854431
 11
56.774883
 21
496.854431
  0
LINE
  8
0
  6
CONTINUOUS
 10
50.774883
 20
497.854431
 11
55.774883
 21
497.854431
  0
LINE
  8
0
  6
CONTINUOUS
 10
55.774883
 20
483.854431
 11
50.774883
 21
483.854431
  0
ARC
  8
0
  6
CONTINUOUS
 10
55.774883
 20
496.854431
 40
1.000000
 50
0.000000
 51
90.000000
  0
ARC
  8
0
  6
CONTINUOUS
 10
50.774883
 20
496.854431
 40
1.000000
 50
90.000000
 51
180.000000
  0
ARC
  8
0
  6
CONTINUOUS
 10
50.774883
 20
484.854431
 40
1.000000
 50
180.000000
 51
270.000000
  0
ARC
  8
0
  6
CONTINUOUS
 10
55.774883
 20
484.854431
 40
1.000000
 50
-90.000000
 51
0.000000
  0
LINE
  8
0
  6
CONTINUOUS
 10
54.274883
 20
487.354431
 11
54.274883
 21
494.354431
  0
LINE
  8
0
  6
CONTINUOUS
 10
52.274883
 20
487.354431
 11
52.274883
 21
494.354431
  0
ARC
  8
0
  6
CONTINUOUS
 10
53.274883
 20
494.354431
 40
1.000000
 50
90.000000
 51
180.000000
  0
ARC
  8
0
  6
CONTINUOUS
 10
53.274883
 20
494.354431
 40
1.000000
 50
0.000000
 51
90.000000
  0
ARC
  8
0
  6
CONTINUOUS
 10
53.274883
 20
487.354431
 40
1.000000
 50
180.000000
 51
270.000000
  0
ARC
  8
0
  6
CONTINUOUS
 10
53.274883
 20
487.354431
 40
1.000000
 50
-90.000000
 51
0.000000
  0
LINE
  8
0
  6
CONTINUOUS
 10
56.274883
 20
497.720459
 11
56.274883
 21
543.854431
  0
LINE
  8
0
  6
CONTINUOUS
 10
47.774841
 20
545.854431
 11
47.774841
 21
435.854431
  0
LINE
  8
0
  6
CONTINUOUS
 10
8.774840
 20
545.854431
 11
47.774841
 21
545.854431
  0
LINE
  8
0
  6
CONTINUOUS
 10
8.774840
 20
435.854431
 11
47.774841
 21
435.854431
  0
LINE
  8
0
  6
CONTINUOUS
 10
-1.225160
 20
445.854431
 11
-1.225160
 21
535.854431
  0
LINE
  8
0
  6
CONTINUOUS
 10
3.774840
 20
521.354431
 11
47.774841
 21
521.354431
  0
LINE
  8
0
  6
CONTINUOUS
 10
3.774840
 20
460.354431
 11
47.774841
 21
460.354431
  0
ARC
  8
0
  6
CONTINUOUS
 10
8.774930
 20
535.854431
 40
10.000000
 50
90.000000
 51
180.000000
  0
ARC
  8
0
  6
CONTINUOUS
 10
8.774840
 20
445.854431
 40
10.000000
 50
180.000000
 51
270.000000
  0
LINE
  8
0
  6
CONTINUOUS
 10
47.774883
 20
152.669998
 11
47.774883
 21
42.669998
  0
LINE
  8
0
  6
CONTINUOUS
 10
47.774883
 20
150.669998
 11
56.274883
 21
150.669998
  0
LINE
  8
0
  6
CONTINUOUS
 10
47.774883
 20
44.669998
 11
56.274883
 21
44.669998
  0
LINE
  8
0
  6
CONTINUOUS
 10
56.774883
 20
152.169998
 11
56.774883
 21
150.669998
  0
LINE
  8
0
  6
CONTINUOUS
 10
49.774883
 20
152.169998
 11
49.774883
 21
150.669998
  0
LINE
  8
0
  6
CONTINUOUS
 10
49.774883
 20
152.169998
 11
56.774883
 21
152.169998
  0
LINE
  8
0
  6
CONTINUOUS
 10
54.174873
 20
165.169998
 11
54.174873
 21
152.169998
  0
LINE
  8
0
  6
CONTINUOUS
 10
52.374870
 20
165.794998
 11
52.374870
 21
152.169998
  0
LINE
  8
0
  6
CONTINUOUS
 10
50.574871
 20
163.732498
 11
50.574871
 21
152.169998
  0
LINE
  8
0
  6
CONTINUOUS
 10
55.974880
 20
164.544998
 11
55.974880
 21
152.169998
  0
LINE
  8
0
  6
CONTINUOUS
 10
52.374870
 20
165.794998
 11
54.174873
 21
165.169998
  0
LINE
  8
0
  6
CONTINUOUS
 10
50.574871
 20
163.732498
 11
52.374870
 21
164.357498
  0
LINE
  8
0
  6
CONTINUOUS
 10
55.974880
 20
164.544998
 11
54.175880
 21
164.097305
  0
LINE
  8
0
  6
CONTINUOUS
 10
47.774883
 20
140.232605
 11
56.274883
 21
140.232605
  0
LINE
  8
0
  6
CONTINUOUS
 10
47.774883
 20
54.985870
 11
56.274883
 21
54.985870
  0
LINE
  8
0
  6
CONTINUOUS
 10
8.774882
 20
152.669998
 11
47.774883
 21
152.669998
  0
LINE
  8
0
  6
CONTINUOUS
 10
8.774882
 20
42.669998
 11
47.774883
 21
42.669998
  0
LINE
  8
0
  6
CONTINUOUS
 10
-1.225118
 20
52.669998
 11
-1.225118
 21
142.669998
  0
LINE
  8
0
  6
CONTINUOUS
 10
3.774882
 20
128.169998
 11
47.774883
 21
128.169998
  0
LINE
  8
0
  6
CONTINUOUS
 10
3.774882
 20
67.169998
 11
47.774883
 21
67.169998
  0
ARC
  8
0
  6
CONTINUOUS
 10
8.774972
 20
142.669998
 40
10.000000
 50
90.000000
 51
180.000000
  0
ARC
  8
0
  6
CONTINUOUS
 10
8.774882
 20
52.669998
 40
10.000000
 50
180.000000
 51
270.000000
  0
LINE
  8
0
  6
CONTINUOUS
 10
56.274883
 20
44.669998
 11
56.274883
 21
150.669998
  0
ARC
  8
0
  6
CONTINUOUS
 10
47.774883
 20
134.352707
 40
4.500000
 50
0.000000
 51
90.000000
  0
ARC
  8
0
  6
CONTINUOUS
 10
47.774883
 20
134.352707
 40
3.000000
 50
0.000000
 51
90.000000
  0
ARC
  8
0
  6
CONTINUOUS
 10
47.774883
 20
134.352707
 40
1.500000
 50
0.000000
 51
90.000000
  0
LINE
  8
0
  6
CONTINUOUS
 10
49.274883
 20
134.352707
 11
49.274883
 21
129.337097
  0
LINE
  8
0
  6
CONTINUOUS
 10
50.774883
 20
134.352707
 11
50.774883
 21
129.852707
  0
LINE
  8
0
  6
CONTINUOUS
 10
52.274883
 20
134.352707
 11
52.274883
 21
129.852707
  0
LINE
  8
0
  6
CONTINUOUS
 10
49.274883
 20
129.352707
 11
50.774883
 21
129.852707
  0
LINE
  8
0
  6
CONTINUOUS
 10
50.774883
 20
130.352707
 11
52.274883
 21
129.852707
  0
ARC
  8
0
  6
CONTINUOUS
 10
47.774841
 20
449.084595
 40
4.500000
 50
0.000000
 51
90.000000
  0
ARC
  8
0
  6
CONTINUOUS
 10
47.774841
 20
449.084595
 40
3.000000
 50
0.000000
 51
90.000000
  0
ARC
  8
0
  6
CONTINUOUS
 10
47.774841
 20
449.084595
 40
1.500000
 50
0.000000
 51
90.000000
  0
LINE
  8
0
  6
CONTINUOUS
 10
49.274841
 20
449.084595
 11
49.274841
 21
444.068970
  0
LINE
  8
0
  6
CONTINUOUS
 10
50.774841
 20
449.084595
 11
50.774841
 21
444.584595
  0
LINE
  8
0
  6
CONTINUOUS
 10
52.274841
 20
449.084595
 11
52.274841
 21
444.584595
  0
LINE
  8
0
  6
CONTINUOUS
 10
49.274841
 20
444.084595
 11
50.774841
 21
444.584595
  0
LINE
  8
0
  6
CONTINUOUS
 10
50.774841
 20
445.084595
 11
52.274841
 21
444.584595
  0
LINE
  8
0
  6
CONTINUOUS
 10
176.274887
 20
459.354431
 11
176.274887
 21
439.854401
  0
TEXT
  8
0
 10
-22.000000
 20
-15.000000
 40
4.000000
 41
1.000000
  1
HLMN-40T-1200~1800-T90W
 50
0.000000
  0
ENDSEC
  0
EOF
