  0
SECTION
  2
HEADER
  9
$ACADVER
  1
AC1014
  9
$ACADMAINTVER
 70
     9
  9
$DWGCODEPAGE
  3
ANSI_932
  9
$INSBASE
 10
0.0
 20
0.0
 30
0.0
  9
$EXTMIN
 10
75.515626173491
 20
45.69037449819745
 30
0.0
  9
$EXTMAX
 10
733.6592809206198
 20
354.6611281338242
 30
0.0
  9
$LIMMIN
 10
0.0
 20
0.0
  9
$LIMMAX
 10
297.0
 20
210.0
  9
$ORTHOMODE
 70
     1
  9
$REGENMODE
 70
     1
  9
$FILLMODE
 70
     1
  9
$QTEXTMODE
 70
     0
  9
$MIRRTEXT
 70
     0
  9
$DRAGMODE
 70
     2
  9
$LTSCALE
 40
2.0
  9
$OSMODE
 70
    37
  9
$ATTMODE
 70
     1
  9
$TEXTSIZE
 40
66.407446672569
  9
$TRACEWID
 40
1.0
  9
$TEXTSTYLE
  7
STANDARD
  9
$CLAYER
  8
0
  9
$CELTYPE
  6
BYLAYER
  9
$CECOLOR
 62
   256
  9
$CELTSCALE
 40
1.0
  9
$DELOBJ
 70
     1
  9
$DISPSILH
 70
     0
  9
$DIMSCALE
 40
2.0
  9
$DIMASZ
 40
1.8
  9
$DIMEXO
 40
0.625
  9
$DIMDLI
 40
3.75
  9
$DIMRND
 40
0.0
  9
$DIMDLE
 40
0.0
  9
$DIMEXE
 40
0.8
  9
$DIMTP
 40
0.0
  9
$DIMTM
 40
0.0
  9
$DIMTXT
 40
1.8
  9
$DIMCEN
 40
2.5
  9
$DIMTSZ
 40
0.0
  9
$DIMTOL
 70
     0
  9
$DIMLIM
 70
     0
  9
$DIMTIH
 70
     0
  9
$DIMTOH
 70
     0
  9
$DIMSE1
 70
     0
  9
$DIMSE2
 70
     0
  9
$DIMTAD
 70
     1
  9
$DIMZIN
 70
     8
  9
$DIMBLK
  1

  9
$DIMASO
 70
     1
  9
$DIMSHO
 70
     1
  9
$DIMPOST
  1

  9
$DIMAPOST
  1

  9
$DIMALT
 70
     0
  9
$DIMALTD
 70
     4
  9
$DIMALTF
 40
0.0394
  9
$DIMLFAC
 40
1.0
  9
$DIMTOFL
 70
     1
  9
$DIMTVP
 40
0.0
  9
$DIMTIX
 70
     0
  9
$DIMSOXD
 70
     0
  9
$DIMSAH
 70
     0
  9
$DIMBLK1
  1

  9
$DIMBLK2
  1

  9
$DIMSTYLE
  2
STANDARD
  9
$DIMCLRD
 70
     0
  9
$DIMCLRE
 70
     0
  9
$DIMCLRT
 70
     0
  9
$DIMTFAC
 40
1.0
  9
$DIMGAP
 40
0.75
  9
$DIMJUST
 70
     0
  9
$DIMSD1
 70
     0
  9
$DIMSD2
 70
     0
  9
$DIMTOLJ
 70
     1
  9
$DIMTZIN
 70
     0
  9
$DIMALTZ
 70
     0
  9
$DIMALTTZ
 70
     0
  9
$DIMFIT
 70
     3
  9
$DIMUPT
 70
     0
  9
$DIMUNIT
 70
     8
  9
$DIMDEC
 70
     2
  9
$DIMTDEC
 70
     2
  9
$DIMALTU
 70
     8
  9
$DIMALTTD
 70
     4
  9
$DIMTXSTY
  7
STANDARD
  9
$DIMAUNIT
 70
     0
  9
$LUNITS
 70
     2
  9
$LUPREC
 70
     3
  9
$SKETCHINC
 40
1.0
  9
$FILLETRAD
 40
10.0
  9
$AUNITS
 70
     0
  9
$AUPREC
 70
     2
  9
$MENU
  1
.
  9
$ELEVATION
 40
0.0
  9
$PELEVATION
 40
0.0
  9
$THICKNESS
 40
0.0
  9
$LIMCHECK
 70
     0
  9
$BLIPMODE
 70
     0
  9
$CHAMFERA
 40
0.0
  9
$CHAMFERB
 40
0.0
  9
$CHAMFERC
 40
20.0
  9
$CHAMFERD
 40
0.0
  9
$SKPOLY
 70
     0
  9
$TDCREATE
 40
2453759.640063113
  9
$TDUPDATE
 40
2454399.566696678
  9
$TDINDWG
 40
0.0710999074
  9
$TDUSRTIMER
 40
0.0710999074
  9
$USRTIMER
 70
     1
  9
$ANGBASE
 50
0.0
  9
$ANGDIR
 70
     0
  9
$PDMODE
 70
     0
  9
$PDSIZE
 40
-10.0
  9
$PLINEWID
 40
0.0
  9
$COORDS
 70
     1
  9
$SPLFRAME
 70
     0
  9
$SPLINETYPE
 70
     6
  9
$SPLINESEGS
 70
     8
  9
$ATTDIA
 70
     0
  9
$ATTREQ
 70
     1
  9
$HANDLING
 70
-16383
  9
$HANDSEED
  5
13A8
  9
$SURFTAB1
 70
     6
  9
$SURFTAB2
 70
     6
  9
$SURFTYPE
 70
     6
  9
$SURFU
 70
     6
  9
$SURFV
 70
     6
  9
$UCSNAME
  2

  9
$UCSORG
 10
0.0
 20
0.0
 30
0.0
  9
$UCSXDIR
 10
1.0
 20
0.0
 30
0.0
  9
$UCSYDIR
 10
0.0
 20
1.0
 30
0.0
  9
$PUCSNAME
  2

  9
$PUCSORG
 10
0.0
 20
0.0
 30
0.0
  9
$PUCSXDIR
 10
1.0
 20
0.0
 30
0.0
  9
$PUCSYDIR
 10
0.0
 20
1.0
 30
0.0
  9
$USERI1
 70
     0
  9
$USERI2
 70
     0
  9
$USERI3
 70
     0
  9
$USERI4
 70
     0
  9
$USERI5
 70
     0
  9
$USERR1
 40
0.0
  9
$USERR2
 40
0.0
  9
$USERR3
 40
0.0
  9
$USERR4
 40
0.0
  9
$USERR5
 40
0.0
  9
$WORLDVIEW
 70
     1
  9
$SHADEDGE
 70
     3
  9
$SHADEDIF
 70
    70
  9
$TILEMODE
 70
     1
  9
$MAXACTVP
 70
    48
  9
$PINSBASE
 10
0.0
 20
0.0
 30
0.0
  9
$PLIMCHECK
 70
     0
  9
$PEXTMIN
 10
0.0
 20
0.0
 30
0.0
  9
$PEXTMAX
 10
0.0
 20
0.0
 30
0.0
  9
$PLIMMIN
 10
0.0
 20
0.0
  9
$PLIMMAX
 10
12.0
 20
9.0
  9
$UNITMODE
 70
     0
  9
$VISRETAIN
 70
     1
  9
$PLINEGEN
 70
     0
  9
$PSLTSCALE
 70
     1
  9
$TREEDEPTH
 70
  3020
  9
$PICKSTYLE
 70
     1
  9
$CMLSTYLE
  2
STANDARD
  9
$CMLJUST
 70
     0
  9
$CMLSCALE
 40
1.0
  9
$PROXYGRAPHICS
 70
     1
  9
$MEASUREMENT
 70
     0
  0
ENDSEC
  0
SECTION
  2
CLASSES
  0
CLASS
  1
DICTIONARYVAR
  2
AcDbDictionaryVar
  3
AutoCAD 2000
 90
        0
280
     0
281
     0
  0
CLASS
  1
ACDBDICTIONARYWDFLT
  2
AcDbDictionaryWithDefault
  3
AutoCAD 2000
 90
        0
280
     0
281
     0
  0
CLASS
  1
ACDBPLACEHOLDER
  2
AcDbPlaceHolder
  3
AutoCAD 2000
 90
        0
280
     0
281
     0
  0
CLASS
  1
LAYOUT
  2
AcDbLayout
  3
AutoCAD 2000
 90
        0
280
     0
281
     0
  0
CLASS
  1
LONG_TRANSACTION
  2
AcDbLongTransaction
  3
AutoCAD 2000
 90
        0
280
     0
281
     0
  0
CLASS
  1
LWPOLYLINE
  2
AcDbPolyline
  3
AutoCAD 2000
 90
        0
280
     0
281
     1
  0
CLASS
  1
HATCH
  2
AcDbHatch
  3
AutoCAD 2000
 90
        0
280
     0
281
     1
  0
CLASS
  1
XRECORD
  2
AcDbXrecord
  3
AutoCAD 2000
 90
        0
280
     0
281
     0
  0
ENDSEC
  0
SECTION
  2
TABLES
  0
TABLE
  2
VPORT
  5
6E
330
0
100
AcDbSymbolTable
 70
     2
  0
VPORT
  5
1382
330
6E
100
AcDbSymbolTableRecord
100
AcDbViewportTableRecord
  2
*ACTIVE
 70
     0
 10
0.0
 20
0.0
 11
1.0
 21
1.0
 12
380.9186683379357
 22
188.4167695967686
 13
0.0
 23
0.0
 14
10.0
 24
10.0
 15
10.0
 25
10.0
 16
0.0
 26
0.0
 36
1.0
 17
0.0
 27
0.0
 37
0.0
 40
460.1661283813152
 41
1.540920716112531
 42
50.0
 43
0.0
 44
0.0
 50
0.0
 51
0.0
 71
     0
 72
   100
 73
     1
 74
     3
 75
     0
 76
     0
 77
     0
 78
     0
  0
ENDTAB
  0
TABLE
  2
LTYPE
  5
69
330
0
100
AcDbSymbolTable
 70
     4
  0
LTYPE
  5
6A
330
69
100
AcDbSymbolTableRecord
100
AcDbLinetypeTableRecord
  2
BYBLOCK
 70
     0
  3

 72
    65
 73
     0
 40
0.0
  0
LTYPE
  5
6B
330
69
100
AcDbSymbolTableRecord
100
AcDbLinetypeTableRecord
  2
BYLAYER
 70
     0
  3

 72
    65
 73
     0
 40
0.0
  0
LTYPE
  5
8
330
69
100
AcDbSymbolTableRecord
100
AcDbLinetypeTableRecord
  2
CONTINUOUS
 70
     0
  3
Solid line
 72
    65
 73
     0
 40
0.0
  0
LTYPE
  5
27C
330
69
100
AcDbSymbolTableRecord
100
AcDbLinetypeTableRecord
  2
SEKKEI_A2_
 70
     0
  3
center(A2)  ____ _ ____ _ ____ _ ____ _ ____ _ 
 72
    65
 73
     4
 40
14.28749999999999
 49
9.525
 74
     0
 49
-1.587499999999999
 74
     0
 49
1.587499999999999
 74
     0
 49
-1.587499999999999
 74
     0
  0
LTYPE
  5
2B4
330
69
100
AcDbSymbolTableRecord
100
AcDbLinetypeTableRecord
  2
HIDDEN2
 70
     0
  3
Hidden (.5x) _ _ _ _ _ _ _ _ _ _ _ _ _ _ _ _ _
 72
    65
 73
     2
 40
4.762499999999999
 49
3.174999999999999
 74
     0
 49
-1.587499999999999
 74
     0
  0
LTYPE
  5
48F
330
69
100
AcDbSymbolTableRecord
100
AcDbLinetypeTableRecord
  2
SEKKEI_H
 70
     0
  3
Hidden-S _ _ _ _ _ _ _ _ _ _ _ _ _ _ _ _ _
 72
    65
 73
     2
 40
2.381249999999999
 49
1.587499999999999
 74
     0
 49
-0.79375
 74
     0
  0
ENDTAB
  0
TABLE
  2
LAYER
  5
66
330
0
100
AcDbSymbolTable
 70
     9
  0
LAYER
  5
5E
330
66
100
AcDbSymbolTableRecord
100
AcDbLayerTableRecord
  2
0
 70
     0
 62
     7
  6
CONTINUOUS
  0
LAYER
  5
3E
330
66
100
AcDbSymbolTableRecord
100
AcDbLayerTableRecord
  2
CENTER
 70
     0
 62
     3
  6
SEKKEI_A2_
  0
LAYER
  5
2B5
330
66
100
AcDbSymbolTableRecord
100
AcDbLayerTableRecord
  2
HIDS
 70
     0
 62
     1
  6
HIDDEN2
  0
LAYER
  5
2BA
330
66
100
AcDbSymbolTableRecord
100
AcDbLayerTableRecord
  2
HOJO
 70
     0
 62
     4
  6
CONTINUOUS
  0
LAYER
  5
3FA
330
66
100
AcDbSymbolTableRecord
100
AcDbLayerTableRecord
  2
TITLE
 70
     0
 62
     4
  6
CONTINUOUS
  0
ENDTAB
  0
TABLE
  2
STYLE
  5
67
330
0
100
AcDbSymbolTable
 70
     1
  0
STYLE
  5
16
330
67
100
AcDbSymbolTableRecord
100
AcDbTextStyleTableRecord
  2
STANDARD
 70
     0
 40
0.0
 41
1.0
 50
0.0
 71
     0
 42
66.407446672569
  3
simplex.shx
  4
extfont.shx
  0
ENDTAB
  0
TABLE
  2
VIEW
  5
6C
330
0
100
AcDbSymbolTable
 70
     0
  0
ENDTAB
  0
TABLE
  2
UCS
  5
6D
330
0
100
AcDbSymbolTable
 70
     0
  0
ENDTAB
  0
TABLE
  2
APPID
  5
70
330
0
100
AcDbSymbolTable
 70
     1
  0
APPID
  5
71
330
70
100
AcDbSymbolTableRecord
100
AcDbRegAppTableRecord
  2
ACAD
 70
     0
  0
ENDTAB
  0
TABLE
  2
DIMSTYLE
  5
72
330
0
100
AcDbSymbolTable
 70
     2
  0
DIMSTYLE
105
73
102
{ACAD_REACTORS
330
915
330
95A
102
}
330
72
100
AcDbSymbolTableRecord
100
AcDbDimStyleTableRecord
  2
STANDARD
 70
     0
  3

  4

  5

  6

  7

 40
2.0
 41
1.8
 42
0.625
 43
3.75
 44
0.8
 45
0.0
 46
0.0
 47
0.0
 48
0.0
140
1.8
141
2.5
142
0.0
143
0.0394
144
1.0
145
0.0
146
1.0
147
0.75
 71
     0
 72
     0
 73
     0
 74
     0
 75
     0
 76
     0
 77
     1
 78
     8
170
     0
171
     4
172
     1
173
     0
174
     0
175
     0
176
     0
177
     0
178
     0
270
     8
271
     2
272
     2
273
     8
274
     4
340
16
275
     0
280
     0
281
     0
282
     0
283
     1
284
     0
285
     0
286
     0
287
     3
288
     0
  0
ENDTAB
  0
TABLE
  2
BLOCK_RECORD
  5
1
330
0
100
AcDbSymbolTable
 70
    62
  0
BLOCK_RECORD
  5
2
102
{ACAD_XDICTIONARY
360
13A4
102
}
330
1
100
AcDbSymbolTableRecord
100
AcDbBlockTableRecord
  2
*MODEL_SPACE
  0
BLOCK_RECORD
  5
137D
102
{ACAD_XDICTIONARY
360
13A6
102
}
330
1
100
AcDbSymbolTableRecord
100
AcDbBlockTableRecord
  2
*PAPER_SPACE
  0
ENDTAB
  0
ENDSEC
  0
SECTION
  2
BLOCKS
  0
BLOCK
  5
5D
330
2
100
AcDbEntity
  8
0
100
AcDbBlockBegin
  2
*MODEL_SPACE
 70
     0
 10
0.0
 20
0.0
 30
0.0
  3
*MODEL_SPACE
  1

  0
ENDBLK
  5
5F
330
2
100
AcDbEntity
  8
0
100
AcDbBlockEnd
  0
BLOCK
  5
137F
330
137D
100
AcDbEntity
 67
     1
  8
0
100
AcDbBlockBegin
  2
*PAPER_SPACE
 70
     0
 10
0.0
 20
0.0
 30
0.0
  3
*PAPER_SPACE
  1

  0
ENDBLK
  5
1380
330
137D
100
AcDbEntity
 67
     1
  8
0
100
AcDbBlockEnd
  0
ENDSEC
  0
SECTION
  2
ENTITIES
  0
LINE
  5
913
330
2
100
AcDbEntity
  8
CENTER
100
AcDbLine
 10
75.515626173491
 20
283.6611281338242
 30
0.0
 11
303.5156411734906
 21
283.6611281338242
 31
0.0
  0
ARC
  5
916
330
2
100
AcDbEntity
  8
0
100
AcDbCircle
 10
294.0091411734906
 20
254.6611281338242
 30
0.0
 40
2.0
100
AcDbArc
 50
270.0
 51
358.9999999999982
  0
LINE
  5
917
330
2
100
AcDbEntity
  8
0
100
AcDbLine
 10
295.7467051734906
 20
239.6087751338244
 30
0.0
 11
296.5156411734906
 21
283.6611281338242
 31
0.0
  0
ARC
  5
918
330
2
100
AcDbEntity
  8
0
100
AcDbCircle
 10
214.0221411734908
 20
254.6611281338242
 30
0.0
 40
2.0
100
AcDbArc
 50
181.0000000000017
 51
270.0
  0
ARC
  5
919
330
2
100
AcDbEntity
  8
0
100
AcDbCircle
 10
213.0156411734908
 20
251.3089701338243
 30
0.0
 40
1.5
100
AcDbArc
 50
73.28734600000299
 51
180.0
  0
LINE
  5
91A
330
2
100
AcDbEntity
  8
0
100
AcDbLine
 10
139.0156261734907
 20
245.6611281338242
 30
0.0
 11
139.0156261734907
 21
321.6611281338242
 31
0.0
  0
ARC
  5
91B
330
2
100
AcDbEntity
  8
0
100
AcDbCircle
 10
114.3155521734906
 20
254.6492261338243
 30
0.0
 40
7.0
100
AcDbArc
 50
163.0435009999999
 51
196.9579999999935
  0
LINE
  5
91C
330
2
100
AcDbEntity
  8
0
100
AcDbLine
 10
109.3155521734906
 20
251.8992261338242
 30
0.0
 11
109.3155521734906
 21
257.3992261338243
 31
0.0
  0
LINE
  5
91D
330
2
100
AcDbEntity
  8
0
100
AcDbLine
 10
110.0156261734907
 20
251.1840011338243
 30
0.0
 11
110.0156261734907
 21
260.6611281338242
 31
0.0
  0
LINE
  5
91E
330
2
100
AcDbEntity
  8
0
100
AcDbLine
 10
114.0156261734907
 20
247.3652301338244
 30
0.0
 11
114.0156261734907
 21
260.6611281338242
 31
0.0
  0
LINE
  5
91F
330
2
100
AcDbEntity
  8
0
100
AcDbLine
 10
85.51458917349084
 20
253.6574731338242
 30
0.0
 11
107.4932632436757
 21
253.0819438497013
 31
0.0
  0
LINE
  5
920
330
2
100
AcDbEntity
  8
CENTER
100
AcDbLine
 10
254.0156411734906
 20
354.6611281338242
 30
0.0
 11
254.0156411734906
 21
229.6611131338244
 31
0.0
  0
LINE
  5
921
330
2
100
AcDbEntity
  8
0
100
AcDbLine
 10
116.0153511734906
 20
246.0626331338245
 30
0.0
 11
139.0156261734907
 21
245.6611281338242
 31
0.0
  0
ARC
  5
922
330
2
100
AcDbEntity
  8
0
100
AcDbCircle
 10
135.2657671734907
 20
152.3295754981974
 30
0.0
 40
1.0
100
AcDbArc
 50
0.0
 51
73.04309800000067
  0
LINE
  5
923
330
2
100
AcDbEntity
  8
0
100
AcDbLine
 10
130.7657671734907
 20
151.5903784981975
 30
0.0
 11
136.2657671734907
 21
151.5903784981975
 31
0.0
  0
LINE
  5
924
330
2
100
AcDbEntity
  8
0
100
AcDbLine
 10
130.5157671734907
 20
150.8903734981974
 30
0.0
 11
136.0157671734907
 21
150.8903734981974
 31
0.0
  0
LINE
  5
925
330
2
100
AcDbEntity
  8
0
100
AcDbLine
 10
139.0156491734907
 20
125.6393434981974
 30
0.0
 11
125.0156491734907
 21
125.6393434981974
 31
0.0
  0
ARC
  5
927
330
2
100
AcDbEntity
  8
0
100
AcDbCircle
 10
121.5157671734907
 20
-95.60960350180256
 30
0.0
 40
250.0
100
AcDbArc
 50
86.66830399999998
 51
93.33169600000003
  0
LINE
  5
928
330
2
100
AcDbEntity
  8
0
100
AcDbLine
 10
104.5157671734907
 20
145.8903734981974
 30
0.0
 11
138.5157671734907
 21
145.8903734981974
 31
0.0
  0
LINE
  5
929
330
2
100
AcDbEntity
  8
0
100
AcDbLine
 10
104.5157671734907
 20
146.8903734981974
 30
0.0
 11
138.5157671734907
 21
146.8903734981974
 31
0.0
  0
LINE
  5
92A
330
2
100
AcDbEntity
  8
0
100
AcDbLine
 10
139.0156491734907
 20
65.1414064981974
 30
0.0
 11
125.0156491734907
 21
65.1414064981974
 31
0.0
  0
LINE
  5
92B
330
2
100
AcDbEntity
  8
0
100
AcDbLine
 10
116.0153411734908
 20
57.79184849819751
 30
0.0
 11
139.0156491734907
 21
57.39037649819749
 31
0.0
  0
LINE
  5
92E
330
2
100
AcDbEntity
  8
CENTER
100
AcDbLine
 10
75.51564717349084
 20
95.39037749819739
 30
0.0
 11
230.7656411734907
 21
95.39037749819739
 31
0.0
  0
LINE
  5
92F
330
2
100
AcDbEntity
  8
0
100
AcDbLine
 10
82.51564717349078
 20
122.9093674981974
 30
0.0
 11
82.51564717349078
 21
67.82230049819748
 31
0.0
  0
LINE
  5
932
330
2
100
AcDbEntity
  8
0
100
AcDbLine
 10
114.0156471734907
 20
125.9293144981974
 30
0.0
 11
114.0156471734907
 21
58.39036649819729
 31
0.0
  0
ARC
  5
933
330
2
100
AcDbEntity
  8
0
100
AcDbCircle
 10
108.5763771734907
 20
60.1403764981975
 30
0.0
 40
1.0
100
AcDbArc
 50
196.9580990000021
 51
270.0
  0
LINE
  5
934
330
2
100
AcDbEntity
  8
0
100
AcDbLine
 10
124.0156491734907
 20
64.89037649819749
 30
0.0
 11
124.0156491734907
 21
57.8903764981975
 31
0.0
  0
LINE
  5
935
330
2
100
AcDbEntity
  8
0
100
AcDbLine
 10
125.0156491734907
 20
65.00844649819748
 30
0.0
 11
125.0156491734907
 21
57.8903764981975
 31
0.0
  0
LINE
  5
936
330
2
100
AcDbEntity
  8
0
100
AcDbLine
 10
125.0156491734907
 20
64.89037649819749
 30
0.0
 11
125.0156491734907
 21
58.24396649819743
 31
0.0
  0
ARC
  5
937
330
2
100
AcDbEntity
  8
0
100
AcDbCircle
 10
130.4156391734907
 20
61.3903764981975
 30
0.0
 40
8.999999
100
AcDbArc
 50
163.3984989999952
 51
196.6009979999981
  0
LINE
  5
938
330
2
100
AcDbEntity
  8
0
100
AcDbLine
 10
109.3155731734907
 20
59.1403764981975
 30
0.0
 11
109.3155731734907
 21
64.6403764981975
 31
0.0
  0
LINE
  5
939
330
2
100
AcDbEntity
  8
0
100
AcDbLine
 10
110.0156471734907
 20
58.98218949819749
 30
0.0
 11
110.0156471734907
 21
64.74512049819725
 31
0.0
  0
LINE
  5
93A
330
2
100
AcDbEntity
  8
0
100
AcDbLine
 10
114.7572391734908
 20
58.12838249819754
 30
0.0
 11
116.0153411734908
 21
57.79184849819751
 31
0.0
  0
ARC
  5
93B
330
2
100
AcDbEntity
  8
0
100
AcDbCircle
 10
115.0156471734907
 20
59.09441849819734
 30
0.0
 40
1.0
100
AcDbArc
 50
180.0
 51
255.0243839999991
  0
ARC
  5
93C
330
2
100
AcDbEntity
  8
0
100
AcDbCircle
 10
110.5156471734907
 20
58.98218949819749
 30
0.0
 40
0.5
100
AcDbArc
 50
180.0
 51
268.4999999999997
  0
LINE
  5
93D
330
2
100
AcDbEntity
  8
0
100
AcDbLine
 10
110.0156471734907
 20
59.1403764981975
 30
0.0
 11
108.5763771734907
 21
59.1403764981975
 31
0.0
  0
LINE
  5
93E
330
2
100
AcDbEntity
  8
0
100
AcDbLine
 10
110.5025581734907
 20
58.48236049819741
 30
0.0
 11
114.0156471734907
 21
58.39036649819729
 31
0.0
  0
ARC
  5
93F
330
2
100
AcDbEntity
  8
0
100
AcDbCircle
 10
123.0366451734907
 20
59.19036649819748
 30
0.0
 40
1.3
100
AcDbArc
 50
196.6009060000029
 51
270.0
  0
LINE
  5
940
330
2
100
AcDbEntity
  8
0
100
AcDbLine
 10
125.0156491734907
 20
57.8903764981975
 30
0.0
 11
123.0366451734907
 21
57.8903764981975
 31
0.0
  0
ARC
  5
941
330
2
100
AcDbEntity
  8
0
100
AcDbCircle
 10
125.5156491734907
 20
58.1260964981974
 30
0.0
 40
0.5
100
AcDbArc
 50
180.0
 51
268.9999999999998
  0
LINE
  5
942
330
2
100
AcDbEntity
  8
0
100
AcDbLine
 10
110.0156471734907
 20
115.1141664981975
 30
0.0
 11
82.51564717349078
 21
114.3940704981974
 31
0.0
  0
LINE
  5
943
330
2
100
AcDbEntity
  8
0
100
AcDbLine
 10
110.0156471734907
 20
109.1665844981972
 30
0.0
 11
82.51564717349078
 21
109.8866844981972
 31
0.0
  0
LINE
  5
944
330
2
100
AcDbEntity
  8
0
100
AcDbLine
 10
85.51461017349083
 20
65.38673149819726
 30
0.0
 11
114.0165021734907
 21
64.64038149819737
 31
0.0
  0
ARC
  5
945
330
2
100
AcDbEntity
  8
0
100
AcDbCircle
 10
84.51564717349077
 20
67.87139649819744
 30
0.0
 40
2.0
100
AcDbArc
 50
180.0
 51
250.219711000001
  0
LINE
  5
946
330
2
100
AcDbEntity
  8
0
100
AcDbLine
 10
83.8388281734908
 20
65.98940349819724
 30
0.0
 11
85.51461017349083
 21
65.38673149819726
 31
0.0
  0
LINE
  5
947
330
2
100
AcDbEntity
  8
0
100
AcDbLine
 10
114.7572391734908
 20
66.22691049819753
 30
0.0
 11
116.0153411734908
 21
65.8903764981975
 31
0.0
  0
ARC
  5
948
330
2
100
AcDbEntity
  8
0
100
AcDbCircle
 10
115.0156471734907
 20
67.19294649819733
 30
0.0
 40
1.0
100
AcDbArc
 50
180.0
 51
255.0243839999991
  0
ARC
  5
949
330
2
100
AcDbEntity
  8
0
100
AcDbCircle
 10
115.0156471734907
 20
67.19294649819733
 30
0.0
 40
1.0
100
AcDbArc
 50
180.0
 51
255.0243839999991
  0
ARC
  5
94A
330
2
100
AcDbEntity
  8
0
100
AcDbCircle
 10
108.5763771734907
 20
63.64037649819749
 30
0.0
 40
1.0
100
AcDbArc
 50
90.0
 51
163.0431060000028
  0
LINE
  5
94B
330
2
100
AcDbEntity
  8
0
100
AcDbLine
 10
110.0156471734907
 20
64.6403764981975
 30
0.0
 11
108.5763771734907
 21
64.6403764981975
 31
0.0
  0
ARC
  5
94C
330
2
100
AcDbEntity
  8
0
100
AcDbCircle
 10
114.3155731734907
 20
61.89037649819749
 30
0.0
 40
7.0
100
AcDbArc
 50
163.0435030000033
 51
196.9579929999972
  0
LINE
  5
94D
330
2
100
AcDbEntity
  8
0
100
AcDbLine
 10
116.0153411734908
 20
65.8903764981975
 30
0.0
 11
124.0156491734907
 21
65.8903764981975
 31
0.0
  0
LINE
  5
94E
330
2
100
AcDbEntity
  8
0
100
AcDbLine
 10
125.0156491734907
 20
64.89037649819749
 30
0.0
 11
123.0366451734907
 21
64.89037649819749
 31
0.0
  0
ARC
  5
94F
330
2
100
AcDbEntity
  8
0
100
AcDbCircle
 10
123.0366451734907
 20
63.59035649819737
 30
0.0
 40
1.3
100
AcDbArc
 50
90.0
 51
163.3984070000009
  0
ARC
  5
950
330
2
100
AcDbEntity
  8
0
100
AcDbCircle
 10
124.0156491734907
 20
64.89037649819749
 30
0.0
 40
1.0
100
AcDbArc
 50
0.0
 51
90.0
  0
LINE
  5
951
330
2
100
AcDbEntity
  8
0
100
AcDbLine
 10
110.0156471734907
 20
116.7316594981972
 30
0.0
 11
110.0156471734907
 21
103.3253564981974
 31
0.0
  0
LINE
  5
952
330
2
100
AcDbEntity
  8
0
100
AcDbLine
 10
109.3155731734907
 20
109.3903774981973
 30
0.0
 11
109.3155731734907
 21
114.8903774981973
 31
0.0
  0
ARC
  5
953
330
2
100
AcDbEntity
  8
0
100
AcDbCircle
 10
114.3155731734907
 20
112.1403774981973
 30
0.0
 40
7.0
100
AcDbArc
 50
163.0435030000033
 51
196.9579929999972
  0
ARC
  5
954
330
2
100
AcDbEntity
  8
0
100
AcDbCircle
 10
108.5763771734907
 20
110.3903774981973
 30
0.0
 40
1.0
100
AcDbArc
 50
196.9580990000021
 51
270.0
  0
LINE
  5
955
330
2
100
AcDbEntity
  8
0
100
AcDbLine
 10
110.0156471734907
 20
109.3903774981973
 30
0.0
 11
108.5763771734907
 21
109.3903774981973
 31
0.0
  0
ARC
  5
956
330
2
100
AcDbEntity
  8
0
100
AcDbCircle
 10
108.5763771734907
 20
113.8903774981973
 30
0.0
 40
1.0
100
AcDbArc
 50
90.0
 51
163.0431060000028
  0
LINE
  5
957
330
2
100
AcDbEntity
  8
0
100
AcDbLine
 10
110.0156471734907
 20
114.8903774981973
 30
0.0
 11
108.5763771734907
 21
114.8903774981973
 31
0.0
  0
LINE
  5
958
330
2
100
AcDbEntity
  8
0
100
AcDbLine
 10
110.0156471734907
 20
103.3253564981974
 30
0.0
 11
114.0156471734907
 21
103.3253564981974
 31
0.0
  0
LINE
  5
959
330
2
100
AcDbEntity
  8
0
100
AcDbLine
 10
110.0156471734907
 20
116.7316594981972
 30
0.0
 11
114.0156471734907
 21
116.7316594981972
 31
0.0
  0
LINE
  5
95C
330
2
100
AcDbEntity
  8
0
100
AcDbLine
 10
89.36696717349077
 20
142.8403784981975
 30
0.0
 11
104.5157671734907
 21
142.8403784981975
 31
0.0
  0
LINE
  5
95D
330
2
100
AcDbEntity
  8
0
100
AcDbLine
 10
90.21876717349073
 20
150.5403754981972
 30
0.0
 11
104.5157671734907
 21
150.5403754981972
 31
0.0
  0
LINE
  5
95F
330
2
100
AcDbEntity
  8
0
100
AcDbLine
 10
85.51461017349083
 20
125.3940324981973
 30
0.0
 11
114.0165021734907
 21
126.1403774981973
 31
0.0
  0
LINE
  5
960
330
2
100
AcDbEntity
  8
HOJO
100
AcDbLine
 10
90.21876717349073
 20
150.5403754981972
 30
0.0
 11
89.4829671734908
 21
147.7052774981972
 31
0.0
  0
LINE
  5
961
330
2
100
AcDbEntity
  8
HOJO
100
AcDbLine
 10
90.29506717349079
 20
145.2302784981974
 30
0.0
 11
89.36696717349077
 21
142.8403784981975
 31
0.0
  0
LINE
  5
962
330
2
100
AcDbEntity
  8
HOJO
100
AcDbLine
 10
89.4829671734908
 20
147.7052774981972
 30
0.0
 11
90.29506717349079
 21
145.2302784981974
 31
0.0
  0
LINE
  5
963
330
2
100
AcDbEntity
  8
0
100
AcDbLine
 10
83.8388281734908
 20
124.7913564981973
 30
0.0
 11
85.51461017349083
 21
125.3940324981973
 31
0.0
  0
ARC
  5
964
330
2
100
AcDbEntity
  8
0
100
AcDbCircle
 10
84.51564717349077
 20
122.9093674981974
 30
0.0
 40
2.0
100
AcDbArc
 50
109.7802889999989
 51
180.0
  0
LINE
  5
965
330
2
100
AcDbEntity
  8
CENTER
100
AcDbLine
 10
121.5156491734907
 20
157.4158944981974
 30
0.0
 11
121.5157671734907
 21
139.6170734981973
 31
0.0
  0
ARC
  5
966
330
2
100
AcDbEntity
  8
0
100
AcDbCircle
 10
113.5155261734908
 20
153.7621084981973
 30
0.0
 40
0.5
100
AcDbArc
 50
91.83745599999969
 51
180.0
  0
ARC
  5
967
330
2
100
AcDbEntity
  8
0
100
AcDbCircle
 10
129.5157671734907
 20
153.7621084981973
 30
0.0
 40
0.5
100
AcDbArc
 50
0.0
 51
88.16254400000032
  0
LINE
  5
968
330
2
100
AcDbEntity
  8
0
100
AcDbLine
 10
114.7572391734908
 20
124.5538414981973
 30
0.0
 11
116.0153411734908
 21
124.8903734981974
 31
0.0
  0
LINE
  5
969
330
2
100
AcDbEntity
  8
0
100
AcDbLine
 10
106.5157671734907
 20
133.8903734981973
 30
0.0
 11
124.0156491734907
 21
133.8903734981973
 31
0.0
  0
ARC
  5
96A
330
2
100
AcDbEntity
  8
0
100
AcDbCircle
 10
113.0156471734907
 20
125.9293144981974
 30
0.0
 40
1.0
100
AcDbArc
 50
0.0
 51
88.49999999999972
  0
LINE
  5
96B
330
2
100
AcDbEntity
  8
0
100
AcDbLine
 10
113.0418231734908
 20
126.9289704981973
 30
0.0
 11
108.4634141734907
 21
127.0488594981974
 31
0.0
  0
ARC
  5
96C
330
2
100
AcDbEntity
  8
0
100
AcDbCircle
 10
115.0156471734907
 20
123.5878074981975
 30
0.0
 40
1.0
100
AcDbArc
 50
104.9756160000008
 51
180.0
  0
LINE
  5
96D
330
2
100
AcDbEntity
  8
0
100
AcDbLine
 10
112.2657671734907
 20
150.8901754981974
 30
0.0
 11
112.2657671734907
 21
152.3295754981974
 31
0.0
  0
ARC
  5
96E
330
2
100
AcDbEntity
  8
0
100
AcDbCircle
 10
112.5155261734908
 20
151.3903734981973
 30
0.0
 40
0.5
100
AcDbArc
 50
270.0
 51
0.0
  0
LINE
  5
96F
330
2
100
AcDbEntity
  8
0
100
AcDbLine
 10
113.0155261734907
 20
151.3903734981973
 30
0.0
 11
113.0155261734907
 21
153.7621084981973
 31
0.0
  0
ARC
  5
970
330
2
100
AcDbEntity
  8
0
100
AcDbCircle
 10
109.5157671734907
 20
146.5903784981975
 30
0.0
 40
7.0
100
AcDbArc
 50
73.04348800000129
 51
106.9579999999994
  0
ARC
  5
971
330
2
100
AcDbEntity
  8
0
100
AcDbCircle
 10
111.2657671734907
 20
152.3295754981974
 30
0.0
 40
1.0
100
AcDbArc
 50
0.0
 51
73.04309800000067
  0
LINE
  5
972
330
2
100
AcDbEntity
  8
0
100
AcDbLine
 10
104.5157671734907
 20
151.3903734981973
 30
0.0
 11
104.5157671734907
 21
146.8903734981974
 31
0.0
  0
LINE
  5
973
330
2
100
AcDbEntity
  8
0
100
AcDbLine
 10
106.5157671734907
 20
146.8903734981974
 30
0.0
 11
106.5157671734907
 21
153.4686974981974
 31
0.0
  0
LINE
  5
974
330
2
100
AcDbEntity
  8
0
100
AcDbLine
 10
106.5157671734907
 20
129.0481724981974
 30
0.0
 11
106.5157671734907
 21
145.8903734981974
 31
0.0
  0
ARC
  5
975
330
2
100
AcDbEntity
  8
0
100
AcDbCircle
 10
105.5157671734907
 20
141.3903734981973
 30
0.0
 40
1.0
100
AcDbArc
 50
180.0
 51
270.0
  0
LINE
  5
976
330
2
100
AcDbEntity
  8
0
100
AcDbLine
 10
104.5157671734907
 20
145.8903734981974
 30
0.0
 11
104.5157671734907
 21
141.3903734981973
 31
0.0
  0
ARC
  5
977
330
2
100
AcDbEntity
  8
0
100
AcDbCircle
 10
106.0157671734907
 20
139.8903734981973
 30
0.0
 40
0.5
100
AcDbArc
 50
0.0
 51
90.0
  0
LINE
  5
978
330
2
100
AcDbEntity
  8
0
100
AcDbLine
 10
106.0157671734907
 20
140.3903734981973
 30
0.0
 11
105.5157671734907
 21
140.3903734981973
 31
0.0
  0
LINE
  5
979
330
2
100
AcDbEntity
  8
0
100
AcDbLine
 10
107.0157671734907
 20
146.8903734981974
 30
0.0
 11
107.0157671734907
 21
145.8903734981974
 31
0.0
  0
ARC
  5
97A
330
2
100
AcDbEntity
  8
0
100
AcDbCircle
 10
107.0157671734907
 20
153.4686974981974
 30
0.0
 40
0.5
100
AcDbArc
 50
93.33169600000003
 51
180.0
  0
LINE
  5
97B
330
2
100
AcDbEntity
  8
0
100
AcDbLine
 10
106.0157671734907
 20
152.3903734981973
 30
0.0
 11
105.5157671734907
 21
152.3903734981973
 31
0.0
  0
ARC
  5
97C
330
2
100
AcDbEntity
  8
0
100
AcDbCircle
 10
107.0155261734907
 20
150.3903734981973
 30
0.0
 40
0.5
100
AcDbArc
 50
90.0
 51
180.0
  0
LINE
  5
97D
330
2
100
AcDbEntity
  8
0
100
AcDbLine
 10
106.7657671734907
 20
150.8903734981974
 30
0.0
 11
106.7657671734907
 21
152.3295754981974
 31
0.0
  0
ARC
  5
97E
330
2
100
AcDbEntity
  8
0
100
AcDbCircle
 10
105.5157671734907
 20
151.3903734981973
 30
0.0
 40
1.0
100
AcDbArc
 50
90.0
 51
180.0
  0
ARC
  5
97F
330
2
100
AcDbEntity
  8
0
100
AcDbCircle
 10
106.0157671734907
 20
152.8903734981973
 30
0.0
 40
0.5
100
AcDbArc
 50
270.0
 51
0.0
  0
ARC
  5
980
330
2
100
AcDbEntity
  8
0
100
AcDbCircle
 10
108.5157671734907
 20
129.0481724981974
 30
0.0
 40
2.0
100
AcDbArc
 50
180.0
 51
268.4999999999997
  0
ARC
  5
981
330
2
100
AcDbEntity
  8
0
100
AcDbCircle
 10
107.7657671734907
 20
152.3295754981974
 30
0.0
 40
1.0
100
AcDbArc
 50
106.9581989999983
 51
180.0
  0
LINE
  5
982
330
2
100
AcDbEntity
  8
0
100
AcDbLine
 10
112.5155261734908
 20
150.8903734981974
 30
0.0
 11
107.0155261734907
 21
150.8903734981974
 31
0.0
  0
LINE
  5
983
330
2
100
AcDbEntity
  8
0
100
AcDbLine
 10
106.7657671734907
 20
151.5903784981975
 30
0.0
 11
112.2657671734907
 21
151.5903784981975
 31
0.0
  0
ARC
  5
984
330
2
100
AcDbEntity
  8
0
100
AcDbCircle
 10
130.5157671734907
 20
151.3903734981973
 30
0.0
 40
0.5
100
AcDbArc
 50
180.0
 51
270.0
  0
LINE
  5
985
330
2
100
AcDbEntity
  8
0
100
AcDbLine
 10
130.7657671734907
 20
150.8903734981974
 30
0.0
 11
130.7657671734907
 21
152.3295754981974
 31
0.0
  0
ARC
  5
986
330
2
100
AcDbEntity
  8
0
100
AcDbCircle
 10
131.7657671734907
 20
152.3295754981974
 30
0.0
 40
1.0
100
AcDbArc
 50
106.9581989999983
 51
180.0
  0
LINE
  5
987
330
2
100
AcDbEntity
  8
0
100
AcDbLine
 10
130.0157671734907
 20
151.3903734981973
 30
0.0
 11
130.0157671734907
 21
153.7621084981973
 31
0.0
  0
ARC
  5
988
330
2
100
AcDbEntity
  8
0
100
AcDbCircle
 10
133.5157671734907
 20
146.5903784981975
 30
0.0
 40
7.0
100
AcDbArc
 50
73.04348800000129
 51
106.9579999999994
  0
ARC
  5
989
330
2
100
AcDbEntity
  8
0
100
AcDbCircle
 10
124.5156491734907
 20
125.3903734981973
 30
0.0
 40
0.5
100
AcDbArc
 50
270.0
 51
0.0
  0
LINE
  5
98A
330
2
100
AcDbEntity
  8
0
100
AcDbLine
 10
124.5156491734907
 20
124.8903734981974
 30
0.0
 11
116.0153411734908
 21
124.8903734981974
 31
0.0
  0
ARC
  5
98B
330
2
100
AcDbEntity
  8
0
100
AcDbCircle
 10
123.0366451734907
 20
131.5903854981974
 30
0.0
 40
1.3
100
AcDbArc
 50
90.0
 51
163.3990939999971
  0
ARC
  5
98C
330
2
100
AcDbEntity
  8
0
100
AcDbCircle
 10
130.4156391734907
 20
129.3903734981973
 30
0.0
 40
8.999999
100
AcDbArc
 50
163.3990020000018
 51
196.6015010000047
  0
LINE
  5
98D
330
2
100
AcDbEntity
  8
0
100
AcDbLine
 10
125.0156491734907
 20
132.8903734981973
 30
0.0
 11
123.0366451734907
 21
132.8903734981973
 31
0.0
  0
ARC
  5
98E
330
2
100
AcDbEntity
  8
0
100
AcDbCircle
 10
124.0156491734907
 20
132.8903734981973
 30
0.0
 40
1.0
100
AcDbArc
 50
0.0
 51
90.0
  0
LINE
  5
98F
330
2
100
AcDbEntity
  8
0
100
AcDbLine
 10
125.0156491734907
 20
125.8903734981973
 30
0.0
 11
123.0366451734907
 21
125.8903734981973
 31
0.0
  0
LINE
  5
990
330
2
100
AcDbEntity
  8
0
100
AcDbLine
 10
124.0156491734907
 20
125.8903734981973
 30
0.0
 11
124.0156491734907
 21
132.8903734981973
 31
0.0
  0
LINE
  5
991
330
2
100
AcDbEntity
  8
0
100
AcDbLine
 10
125.0156491734907
 20
125.3903734981973
 30
0.0
 11
125.0156491734907
 21
132.8903734981973
 31
0.0
  0
ARC
  5
992
330
2
100
AcDbEntity
  8
0
100
AcDbCircle
 10
123.0366451734907
 20
127.1903994981972
 30
0.0
 40
1.3
100
AcDbArc
 50
196.601592999999
 51
270.0
  0
LINE
  5
993
330
2
100
AcDbEntity
  8
0
100
AcDbLine
 10
114.7572331734907
 20
246.3992261338243
 30
0.0
 11
116.0153511734906
 21
246.0626331338245
 31
0.0
  0
LINE
  5
994
330
2
100
AcDbEntity
  8
0
100
AcDbLine
 10
110.5025641734907
 20
250.6841841338242
 30
0.0
 11
114.0156261734907
 21
250.5922191338244
 31
0.0
  0
ARC
  5
995
330
2
100
AcDbEntity
  8
0
100
AcDbCircle
 10
110.5156261734907
 20
251.1840011338243
 30
0.0
 40
0.5
100
AcDbArc
 50
180.0
 51
268.5005110000005
  0
LINE
  5
996
330
2
100
AcDbEntity
  8
0
100
AcDbLine
 10
110.0156261734907
 20
251.8992261338242
 30
0.0
 11
108.5763561734907
 21
251.8992261338242
 31
0.0
  0
ARC
  5
997
330
2
100
AcDbEntity
  8
0
100
AcDbCircle
 10
108.5763561734907
 20
252.8992261338243
 30
0.0
 40
1.0
100
AcDbArc
 50
196.9580990000021
 51
270.0
  0
ARC
  5
998
330
2
100
AcDbEntity
  8
0
100
AcDbCircle
 10
115.0156261734907
 20
247.3652301338244
 30
0.0
 40
1.0
100
AcDbArc
 50
180.0
 51
255.0255969999996
  0
CIRCLE
  5
99A
330
2
100
AcDbEntity
  8
0
100
AcDbCircle
 10
254.0156411734907
 20
117.6903764981974
 30
0.0
 40
20.0
  0
LINE
  5
99B
330
2
100
AcDbEntity
  8
0
100
AcDbLine
 10
211.5156491734907
 20
128.3909764981973
 30
0.0
 11
211.5156491734907
 21
52.69037649819722
 31
0.0
  0
LINE
  5
99C
330
2
100
AcDbEntity
  8
0
100
AcDbLine
 10
296.5156411734907
 20
128.3909534981972
 30
0.0
 11
296.5156411734907
 21
52.69037649819722
 31
0.0
  0
LINE
  5
99D
330
2
100
AcDbEntity
  8
CENTER
100
AcDbLine
 10
254.0156411734907
 20
157.2903754981972
 30
0.0
 11
254.0156411734907
 21
45.69037649819722
 31
0.0
  0
ARC
  5
99E
330
2
100
AcDbEntity
  8
HIDS
100
AcDbCircle
 10
254.0156411734907
 20
117.6903764981974
 30
0.0
 40
7.5
100
AcDbArc
 50
19.47120999999928
 51
340.528809000005
  0
ARC
  5
99F
330
2
100
AcDbEntity
  8
0
100
AcDbCircle
 10
254.0156411734907
 20
104.6903764981972
 30
0.0
 40
42.5
100
AcDbArc
 50
19.74990099999923
 51
160.2501070000041
  0
LINE
  5
9A0
330
2
100
AcDbEntity
  8
0
100
AcDbLine
 10
139.0156491734907
 20
57.39039649819744
 30
0.0
 11
139.0156491734907
 21
133.3903734981974
 31
0.0
  0
ARC
  5
9A1
330
2
100
AcDbEntity
  8
0
100
AcDbCircle
 10
254.0156411734907
 20
104.6903764981972
 30
0.0
 40
42.5
100
AcDbArc
 50
199.7498929999959
 51
340.2500919999958
  0
LINE
  5
9A2
330
2
100
AcDbEntity
  8
0
100
AcDbLine
 10
213.5156561734908
 20
60.69037649819723
 30
0.0
 11
294.5156411734907
 21
60.69037649819723
 31
0.0
  0
LINE
  5
9A3
330
2
100
AcDbEntity
  8
0
100
AcDbLine
 10
211.5156491734907
 20
52.69037649819722
 30
0.0
 11
296.5156411734907
 21
52.69037649819722
 31
0.0
  0
LINE
  5
9A5
330
2
100
AcDbEntity
  8
HIDS
  6
SEKKEI_H
100
AcDbLine
 10
216.7656411734907
 20
60.69037649819723
 30
0.0
 11
216.7656411734907
 21
52.69037649819722
 31
0.0
  0
ARC
  5
9A6
330
2
100
AcDbEntity
  8
0
100
AcDbCircle
 10
213.5156561734908
 20
58.69038649819742
 30
0.0
 40
2.0
100
AcDbArc
 50
90.0
 51
180.0
  0
LINE
  5
9A7
330
2
100
AcDbEntity
  8
0
100
AcDbLine
 10
139.0156491734907
 20
57.39037649819749
 30
0.0
 11
211.5156491734907
 21
57.39037649819749
 31
0.0
  0
LINE
  5
9A8
330
2
100
AcDbEntity
  8
0
100
AcDbLine
 10
139.0155951734907
 20
65.1414064981974
 30
0.0
 11
211.5156331734907
 21
65.1414064981974
 31
0.0
  0
LINE
  5
9A9
330
2
100
AcDbEntity
  8
0
100
AcDbLine
 10
214.0156411734907
 20
119.0516434981974
 30
0.0
 11
214.0156411734907
 21
90.32883849819734
 31
0.0
  0
LINE
  5
9AA
330
2
100
AcDbEntity
  8
HIDS
  6
SEKKEI_H
100
AcDbLine
 10
291.2656411734907
 20
60.69037649819723
 30
0.0
 11
291.2656411734907
 21
52.69037649819722
 31
0.0
  0
LINE
  5
9AB
330
2
100
AcDbEntity
  8
HIDS
  6
SEKKEI_H
100
AcDbLine
 10
284.7656411734907
 20
60.69037649819723
 30
0.0
 11
284.7656411734907
 21
52.69037649819722
 31
0.0
  0
LINE
  5
9AC
330
2
100
AcDbEntity
  8
CENTER
100
AcDbLine
 10
288.0156411734907
 20
64.19037649819722
 30
0.0
 11
288.0156411734907
 21
49.19037649819722
 31
0.0
  0
ARC
  5
9AD
330
2
100
AcDbEntity
  8
0
100
AcDbCircle
 10
294.5156411734907
 20
58.69036649819747
 30
0.0
 40
2.0
100
AcDbArc
 50
0.0
 51
90.0
  0
LINE
  5
9AE
330
2
100
AcDbEntity
  8
HIDS
  6
SEKKEI_H
100
AcDbLine
 10
223.2656411734907
 20
60.69037649819723
 30
0.0
 11
223.2656411734907
 21
52.69037649819722
 31
0.0
  0
LINE
  5
9AF
330
2
100
AcDbEntity
  8
CENTER
100
AcDbLine
 10
220.0156411734907
 20
64.19037649819722
 30
0.0
 11
220.0156411734907
 21
49.19037649819722
 31
0.0
  0
LINE
  5
9B1
330
2
100
AcDbEntity
  8
HIDS
100
AcDbLine
 10
258.5156411734907
 20
115.1903764981974
 30
0.0
 11
263.5156411734907
 21
115.1903764981974
 31
0.0
  0
LINE
  5
9B2
330
2
100
AcDbEntity
  8
HIDS
100
AcDbLine
 10
258.5156411734907
 20
120.1903764981974
 30
0.0
 11
263.5156411734907
 21
120.1903764981974
 31
0.0
  0
LINE
  5
9B3
330
2
100
AcDbEntity
  8
CENTER
100
AcDbLine
 10
227.2657036810886
 20
117.6903764981974
 30
0.0
 11
281.2655786658928
 21
117.6903764981974
 31
0.0
  0
LINE
  5
9B4
330
2
100
AcDbEntity
  8
0
100
AcDbLine
 10
253.3930521734907
 20
90.08246649819751
 30
0.0
 11
253.3930521734907
 21
82.73627749819741
 31
0.0
  0
LINE
  5
9B5
330
2
100
AcDbEntity
  8
0
100
AcDbLine
 10
254.5884411734907
 20
90.08246649819751
 30
0.0
 11
254.5884411734907
 21
82.73627749819741
 31
0.0
  0
LINE
  5
9B6
330
2
100
AcDbEntity
  8
0
100
AcDbLine
 10
252.9199531734907
 20
81.69037649819722
 30
0.0
 11
254.9868481734907
 21
81.69037649819722
 31
0.0
  0
LINE
  5
9B7
330
2
100
AcDbEntity
  8
0
100
AcDbLine
 10
252.9199531734907
 20
82.73627749819741
 30
0.0
 11
253.3930521734907
 21
82.73627749819741
 31
0.0
  0
LINE
  5
9B8
330
2
100
AcDbEntity
  8
0
100
AcDbLine
 10
252.9199531734907
 20
82.73627749819741
 30
0.0
 11
252.9199531734907
 21
81.69037649819722
 31
0.0
  0
LINE
  5
9B9
330
2
100
AcDbEntity
  8
0
100
AcDbLine
 10
254.9868481734907
 20
82.73627749819741
 30
0.0
 11
254.9868481734907
 21
81.69037649819722
 31
0.0
  0
LINE
  5
9BA
330
2
100
AcDbEntity
  8
0
100
AcDbLine
 10
254.5884411734907
 20
82.73627749819741
 30
0.0
 11
254.9868481734907
 21
82.73627749819741
 31
0.0
  0
LINE
  5
9BB
330
2
100
AcDbEntity
  8
0
100
AcDbLine
 10
257.2031411734907
 20
89.2606894981974
 30
0.0
 11
257.2031411734907
 21
91.25287649819723
 31
0.0
  0
LINE
  5
9BC
330
2
100
AcDbEntity
  8
0
100
AcDbLine
 10
254.5884411734907
 20
90.08246649819751
 30
0.0
 11
256.2494511734907
 21
90.08246649819751
 31
0.0
  0
LINE
  5
9BD
330
2
100
AcDbEntity
  8
0
100
AcDbLine
 10
253.3930521734907
 20
90.08246649819751
 30
0.0
 11
251.8781441734907
 21
90.08246649819751
 31
0.0
  0
LINE
  5
9BE
330
2
100
AcDbEntity
  8
0
100
AcDbLine
 10
256.2494511734907
 20
90.08246649819751
 30
0.0
 11
256.5381481734907
 21
89.2606894981974
 31
0.0
  0
LINE
  5
9BF
330
2
100
AcDbEntity
  8
0
100
AcDbLine
 10
256.5381481734907
 20
89.2606894981974
 30
0.0
 11
257.2031411734907
 21
89.2606894981974
 31
0.0
  0
LINE
  5
9C0
330
2
100
AcDbEntity
  8
0
100
AcDbLine
 10
247.6406411734907
 20
87.24359949819733
 30
0.0
 11
247.6406411734907
 21
81.69037649819722
 31
0.0
  0
LINE
  5
9C1
330
2
100
AcDbEntity
  8
0
100
AcDbLine
 10
245.0508431734907
 20
87.24359949819733
 30
0.0
 11
245.0508431734907
 21
86.19770149819727
 31
0.0
  0
LINE
  5
9C2
330
2
100
AcDbEntity
  8
0
100
AcDbLine
 10
242.3364421734906
 20
89.09035549819748
 30
0.0
 11
242.3364421734906
 21
83.58129549819739
 31
0.0
  0
LINE
  5
9C3
330
2
100
AcDbEntity
  8
0
100
AcDbLine
 10
241.2656411734907
 20
89.77087849819747
 30
0.0
 11
241.2656411734907
 21
82.93123649819733
 31
0.0
  0
LINE
  5
9C4
330
2
100
AcDbEntity
  8
0
100
AcDbLine
 10
246.7192541734907
 20
86.19770149819727
 30
0.0
 11
246.7192541734907
 21
84.80316549819747
 31
0.0
  0
LINE
  5
9C5
330
2
100
AcDbEntity
  8
0
100
AcDbLine
 10
246.7192541734907
 20
85.20160749819741
 30
0.0
 11
246.7192541734907
 21
85.99848249819741
 31
0.0
  0
LINE
  5
9C6
330
2
100
AcDbEntity
  8
0
100
AcDbLine
 10
246.7192541734907
 20
81.69037649819722
 30
0.0
 11
247.6406411734907
 21
81.69037649819722
 31
0.0
  0
LINE
  5
9C7
330
2
100
AcDbEntity
  8
0
100
AcDbLine
 10
246.7192541734907
 20
82.45263749819754
 30
0.0
 11
245.8107461734907
 21
81.69037649819722
 31
0.0
  0
LINE
  5
9C8
330
2
100
AcDbEntity
  8
0
100
AcDbLine
 10
246.7192541734907
 20
82.45263749819754
 30
0.0
 11
246.7192541734907
 21
81.69037649819722
 31
0.0
  0
ARC
  5
9C9
330
2
100
AcDbEntity
  8
0
100
AcDbCircle
 10
244.7270511734907
 20
84.80316549819747
 30
0.0
 40
1.992186999999999
100
AcDbArc
 50
270.0002139999998
 51
0.0001090000031536
  0
LINE
  5
9CA
330
2
100
AcDbEntity
  8
0
100
AcDbLine
 10
246.7192541734907
 20
86.19770149819727
 30
0.0
 11
245.0508431734907
 21
86.19770149819727
 31
0.0
  0
LINE
  5
9CB
330
2
100
AcDbEntity
  8
0
100
AcDbLine
 10
241.2656411734907
 20
82.93123649819733
 30
0.0
 11
242.4954541734907
 21
81.69037649819722
 31
0.0
  0
LINE
  5
9CC
330
2
100
AcDbEntity
  8
0
100
AcDbLine
 10
242.3364421734906
 20
83.58129549819739
 30
0.0
 11
243.0677501734907
 21
82.81097649819741
 31
0.0
  0
LINE
  5
9CD
330
2
100
AcDbEntity
  8
0
100
AcDbLine
 10
244.7270511734907
 20
82.81097649819741
 30
0.0
 11
243.0677501734907
 21
82.81097649819741
 31
0.0
  0
LINE
  5
9CE
330
2
100
AcDbEntity
  8
0
100
AcDbLine
 10
242.4954541734907
 20
81.69037649819722
 30
0.0
 11
245.8107461734907
 21
81.69037649819722
 31
0.0
  0
LINE
  5
9CF
330
2
100
AcDbEntity
  8
0
100
AcDbLine
 10
250.8281411734907
 20
89.2606894981974
 30
0.0
 11
251.5357521734908
 21
89.2606894981974
 31
0.0
  0
LINE
  5
9D0
330
2
100
AcDbEntity
  8
0
100
AcDbLine
 10
250.8281411734907
 20
89.2606894981974
 30
0.0
 11
250.8281411734907
 21
91.25287649819723
 31
0.0
  0
LINE
  5
9D1
330
2
100
AcDbEntity
  8
0
100
AcDbLine
 10
246.7192541734907
 20
89.2606894981974
 30
0.0
 11
247.6406411734907
 21
89.2606894981974
 31
0.0
  0
LINE
  5
9D2
330
2
100
AcDbEntity
  8
0
100
AcDbLine
 10
246.7096411734906
 20
91.25287649819723
 30
0.0
 11
247.6406411734907
 21
90.21973449819745
 31
0.0
  0
LINE
  5
9D3
330
2
100
AcDbEntity
  8
0
100
AcDbLine
 10
246.7192541734907
 20
89.41141149819726
 30
0.0
 11
246.7192541734907
 21
89.2606894981974
 31
0.0
  0
LINE
  5
9D4
330
2
100
AcDbEntity
  8
0
100
AcDbLine
 10
246.7192541734907
 20
89.41141149819726
 30
0.0
 11
246.1160441734907
 21
89.98285749819741
 31
0.0
  0
LINE
  5
9D5
330
2
100
AcDbEntity
  8
0
100
AcDbLine
 10
247.6406411734907
 20
90.21973449819745
 30
0.0
 11
247.6406411734907
 21
89.2606894981974
 31
0.0
  0
LINE
  5
9D6
330
2
100
AcDbEntity
  8
0
100
AcDbLine
 10
245.0508431734907
 20
87.24359949819733
 30
0.0
 11
247.6406411734907
 21
87.24359949819733
 31
0.0
  0
LINE
  5
9D7
330
2
100
AcDbEntity
  8
0
100
AcDbLine
 10
242.4230511734907
 20
91.25287649819723
 30
0.0
 11
241.2656411734907
 21
89.77087849819747
 31
0.0
  0
LINE
  5
9D8
330
2
100
AcDbEntity
  8
0
100
AcDbLine
 10
243.0562451734907
 20
89.98285749819741
 30
0.0
 11
242.3364421734906
 21
89.09035549819748
 31
0.0
  0
LINE
  5
9D9
330
2
100
AcDbEntity
  8
0
100
AcDbLine
 10
246.1281441734907
 20
89.98285749819741
 30
0.0
 11
243.0562451734907
 21
89.98285749819741
 31
0.0
  0
LINE
  5
9DA
330
2
100
AcDbEntity
  8
0
100
AcDbLine
 10
242.4230511734907
 20
91.25287649819723
 30
0.0
 11
246.7096411734906
 21
91.25287649819723
 31
0.0
  0
LINE
  5
9DB
330
2
100
AcDbEntity
  8
0
100
AcDbLine
 10
251.8781441734907
 20
90.08246649819751
 30
0.0
 11
251.5357521734908
 21
89.2606894981974
 31
0.0
  0
LINE
  5
9DC
330
2
100
AcDbEntity
  8
0
100
AcDbLine
 10
250.8281411734907
 20
91.25287649819723
 30
0.0
 11
257.2031411734907
 21
91.25287649819723
 31
0.0
  0
LINE
  5
9DE
330
2
100
AcDbEntity
  8
HIDS
100
AcDbLine
 10
258.5156411734907
 20
115.1903764981974
 30
0.0
 11
258.5156411734907
 21
120.1903764981974
 31
0.0
  0
LINE
  5
9DF
330
2
100
AcDbEntity
  8
0
100
AcDbLine
 10
294.0156411734907
 20
119.0517734981973
 30
0.0
 11
294.0156411734907
 21
90.32923949819736
 31
0.0
  0
ARC
  5
9E0
330
2
100
AcDbEntity
  8
0
100
AcDbCircle
 10
264.2131511734908
 20
88.70038649819742
 30
0.0
 40
2.55249
100
AcDbArc
 50
286.0181270000003
 51
90.00350999999964
  0
LINE
  5
9E1
330
2
100
AcDbEntity
  8
0
100
AcDbLine
 10
260.8637401734907
 20
90.08246649819751
 30
0.0
 11
260.8637401734907
 21
82.68646649819732
 31
0.0
  0
LINE
  5
9E2
330
2
100
AcDbEntity
  8
0
100
AcDbLine
 10
264.9174511734908
 20
86.24699849819728
 30
0.0
 11
266.4973461734907
 21
82.68646649819732
 31
0.0
  0
LINE
  5
9E3
330
2
100
AcDbEntity
  8
0
100
AcDbLine
 10
265.2964481734907
 20
81.69037649819722
 30
0.0
 11
266.7656411734907
 21
81.69037649819722
 31
0.0
  0
LINE
  5
9E4
330
2
100
AcDbEntity
  8
0
100
AcDbLine
 10
265.2964481734907
 20
82.68646649819732
 30
0.0
 11
265.4949501734908
 21
82.68646649819732
 31
0.0
  0
LINE
  5
9E5
330
2
100
AcDbEntity
  8
0
100
AcDbLine
 10
265.2964481734907
 20
82.68646649819732
 30
0.0
 11
265.2964481734907
 21
81.69037649819722
 31
0.0
  0
LINE
  5
9E6
330
2
100
AcDbEntity
  8
0
100
AcDbLine
 10
266.7656411734907
 20
82.68646649819732
 30
0.0
 11
266.7656411734907
 21
81.69037649819722
 31
0.0
  0
LINE
  5
9E7
330
2
100
AcDbEntity
  8
0
100
AcDbLine
 10
266.4973461734907
 20
82.68646649819732
 30
0.0
 11
266.7656411734907
 21
82.68646649819732
 31
0.0
  0
LINE
  5
9E8
330
2
100
AcDbEntity
  8
0
100
AcDbLine
 10
261.9594431734907
 20
86.16034749819744
 30
0.0
 11
261.9594431734907
 21
82.68646649819732
 31
0.0
  0
LINE
  5
9E9
330
2
100
AcDbEntity
  8
0
100
AcDbLine
 10
262.3952491734907
 20
81.69037649819722
 30
0.0
 11
260.3906411734907
 21
81.69037649819722
 31
0.0
  0
LINE
  5
9EA
330
2
100
AcDbEntity
  8
0
100
AcDbLine
 10
260.3906411734907
 20
82.68646649819732
 30
0.0
 11
260.3906411734907
 21
81.69037649819722
 31
0.0
  0
LINE
  5
9EB
330
2
100
AcDbEntity
  8
0
100
AcDbLine
 10
260.3906411734907
 20
82.68646649819732
 30
0.0
 11
260.8637401734907
 21
82.68646649819732
 31
0.0
  0
LINE
  5
9EC
330
2
100
AcDbEntity
  8
0
100
AcDbLine
 10
262.3952491734907
 20
82.68646649819732
 30
0.0
 11
262.3952491734907
 21
81.69037649819722
 31
0.0
  0
LINE
  5
9ED
330
2
100
AcDbEntity
  8
0
100
AcDbLine
 10
261.9594431734907
 20
82.68646649819732
 30
0.0
 11
262.3952491734907
 21
82.68646649819732
 31
0.0
  0
LINE
  5
9EE
330
2
100
AcDbEntity
  8
0
100
AcDbLine
 10
261.9594431734907
 20
86.16034749819744
 30
0.0
 11
263.9999401734907
 21
86.16034749819744
 31
0.0
  0
LINE
  5
9EF
330
2
100
AcDbEntity
  8
0
100
AcDbLine
 10
263.9999401734907
 20
86.16034749819744
 30
0.0
 11
265.4949501734908
 21
82.68646649819732
 31
0.0
  0
LINE
  5
9F0
330
2
100
AcDbEntity
  8
0
100
AcDbLine
 10
260.3906411734907
 20
91.25287649819723
 30
0.0
 11
264.2131511734908
 21
91.25287649819723
 31
0.0
  0
LINE
  5
9F1
330
2
100
AcDbEntity
  8
0
100
AcDbLine
 10
260.3906411734907
 20
90.08246649819751
 30
0.0
 11
260.8637401734907
 21
90.08246649819751
 31
0.0
  0
LINE
  5
9F2
330
2
100
AcDbEntity
  8
0
100
AcDbLine
 10
260.3906411734907
 20
91.25287649819723
 30
0.0
 11
260.3906411734907
 21
90.08246649819751
 31
0.0
  0
LINE
  5
9F3
330
2
100
AcDbEntity
  8
0
100
AcDbLine
 10
261.9594431734907
 20
90.08246649819751
 30
0.0
 11
261.9594431734907
 21
87.15621249819752
 31
0.0
  0
LINE
  5
9F4
330
2
100
AcDbEntity
  8
0
100
AcDbLine
 10
261.9594431734907
 20
87.15621249819752
 30
0.0
 11
264.4141391734907
 21
87.15621249819752
 31
0.0
  0
ARC
  5
9F5
330
2
100
AcDbEntity
  8
0
100
AcDbCircle
 10
264.2131511734908
 20
88.70038649819742
 30
0.0
 40
1.557193
100
AcDbArc
 50
277.4147260000004
 51
62.41184999999767
  0
LINE
  5
9F6
330
2
100
AcDbEntity
  8
0
100
AcDbLine
 10
261.9594431734907
 20
90.08246649819751
 30
0.0
 11
264.9343421734907
 21
90.08052849819739
 31
0.0
  0
LINE
  5
9F7
330
2
100
AcDbEntity
  8
HIDS
100
AcDbLine
 10
263.5156411734907
 20
120.1903764981974
 30
0.0
 11
263.5156411734907
 21
115.1903764981974
 31
0.0
  0
LINE
  5
9F8
330
2
100
AcDbEntity
  8
0
100
AcDbLine
 10
215.2839971734906
 20
236.6611131338244
 30
0.0
 11
254.0156411734906
 21
236.6611131338244
 31
0.0
  0
LINE
  5
9F9
330
2
100
AcDbEntity
  8
0
100
AcDbLine
 10
214.0221411734908
 20
252.6611281338242
 30
0.0
 11
294.0091411734906
 21
252.6611281338242
 31
0.0
  0
LINE
  5
9FA
330
2
100
AcDbEntity
  8
CENTER
100
AcDbLine
 10
226.3058340034622
 20
243.6611131338244
 30
0.0
 11
213.7254483435194
 21
243.6611131338244
 31
0.0
  0
CIRCLE
  5
9FB
330
2
100
AcDbEntity
  8
0
100
AcDbCircle
 10
220.0156411734908
 20
243.6611131338244
 30
0.0
 40
3.25
  0
LINE
  5
9FC
330
2
100
AcDbEntity
  8
0
100
AcDbLine
 10
213.6433421734907
 20
132.4836354981972
 30
0.0
 11
237.7227481734907
 21
149.3830264981974
 31
0.0
  0
LINE
  5
9FD
330
2
100
AcDbEntity
  8
0
100
AcDbLine
 10
139.0155951734907
 20
125.6393434981974
 30
0.0
 11
211.5156331734907
 21
125.6393434981974
 31
0.0
  0
LINE
  5
9FE
330
2
100
AcDbEntity
  8
0
100
AcDbLine
 10
139.0156491734907
 20
133.3903734981974
 30
0.0
 11
214.9353341734907
 21
133.3903734981974
 31
0.0
  0
LINE
  5
9FF
330
2
100
AcDbEntity
  8
0
100
AcDbLine
 10
136.5157671734907
 20
146.8903734981974
 30
0.0
 11
136.5157671734907
 21
153.4686974981974
 31
0.0
  0
LINE
  5
A00
330
2
100
AcDbEntity
  8
0
100
AcDbLine
 10
138.5157671734907
 20
151.3903734981973
 30
0.0
 11
138.5157671734907
 21
146.8903734981974
 31
0.0
  0
LINE
  5
A01
330
2
100
AcDbEntity
  8
0
100
AcDbLine
 10
137.4894381734907
 20
133.4303594981973
 30
0.0
 11
139.0156491734907
 21
133.3903734981974
 31
0.0
  0
ARC
  5
A02
330
2
100
AcDbEntity
  8
0
100
AcDbCircle
 10
137.5157671734907
 20
141.3903734981973
 30
0.0
 40
1.0
100
AcDbArc
 50
270.0
 51
0.0
  0
ARC
  5
A03
330
2
100
AcDbEntity
  8
0
100
AcDbCircle
 10
137.5156491734907
 20
134.4299854981974
 30
0.0
 40
1.0
100
AcDbArc
 50
180.0
 51
268.4999080000003
  0
ARC
  5
A04
330
2
100
AcDbEntity
  8
0
100
AcDbCircle
 10
137.0157671734907
 20
139.8903734981973
 30
0.0
 40
0.5
100
AcDbArc
 50
90.0
 51
180.0
  0
LINE
  5
A05
330
2
100
AcDbEntity
  8
0
100
AcDbLine
 10
136.5157671734907
 20
134.4299854981974
 30
0.0
 11
136.5157671734907
 21
145.8903734981974
 31
0.0
  0
LINE
  5
A06
330
2
100
AcDbEntity
  8
0
100
AcDbLine
 10
138.5157671734907
 20
145.8903734981974
 30
0.0
 11
138.5157671734907
 21
141.3903734981973
 31
0.0
  0
LINE
  5
A07
330
2
100
AcDbEntity
  8
0
100
AcDbLine
 10
137.0157671734907
 20
140.3903734981973
 30
0.0
 11
137.5157671734907
 21
140.3903734981973
 31
0.0
  0
LINE
  5
A08
330
2
100
AcDbEntity
  8
0
100
AcDbLine
 10
138.0157671734907
 20
146.8903734981974
 30
0.0
 11
138.0157671734907
 21
145.8903734981974
 31
0.0
  0
ARC
  5
A09
330
2
100
AcDbEntity
  8
0
100
AcDbCircle
 10
137.5157671734907
 20
151.3903734981973
 30
0.0
 40
1.0
100
AcDbArc
 50
0.0
 51
90.0
  0
ARC
  5
A0A
330
2
100
AcDbEntity
  8
0
100
AcDbCircle
 10
137.0157671734907
 20
152.8903734981973
 30
0.0
 40
0.5
100
AcDbArc
 50
180.0
 51
270.0
  0
ARC
  5
A0B
330
2
100
AcDbEntity
  8
0
100
AcDbCircle
 10
136.0157671734907
 20
153.4686974981974
 30
0.0
 40
0.5
100
AcDbArc
 50
0.0
 51
86.66830399999998
  0
ARC
  5
A0C
330
2
100
AcDbEntity
  8
0
100
AcDbCircle
 10
136.0157671734907
 20
150.3903734981973
 30
0.0
 40
0.5
100
AcDbArc
 50
0.0
 51
90.0
  0
LINE
  5
A0D
330
2
100
AcDbEntity
  8
0
100
AcDbLine
 10
136.2657671734907
 20
150.8901754981974
 30
0.0
 11
136.2657671734907
 21
152.3295754981974
 31
0.0
  0
LINE
  5
A0E
330
2
100
AcDbEntity
  8
0
100
AcDbLine
 10
137.0157671734907
 20
152.3903734981973
 30
0.0
 11
137.5157671734907
 21
152.3903734981973
 31
0.0
  0
ARC
  5
A0F
330
2
100
AcDbEntity
  8
0
100
AcDbCircle
 10
216.5156711734907
 20
128.3909994981974
 30
0.0
 40
5.0
100
AcDbArc
 50
125.062301999997
 51
180.0
  0
LINE
  5
A10
330
2
100
AcDbEntity
  8
0
100
AcDbLine
 10
139.0156261734907
 20
245.6611281338242
 30
0.0
 11
209.5156261734907
 21
245.6611281338242
 31
0.0
  0
ARC
  5
A11
330
2
100
AcDbEntity
  8
0
100
AcDbCircle
 10
209.5156261734907
 20
247.6611281338242
 30
0.0
 40
2.0
100
AcDbArc
 50
270.0
 51
0.0
  0
LINE
  5
A12
330
2
100
AcDbEntity
  8
0
100
AcDbLine
 10
212.2844551734906
 20
239.6087751338244
 30
0.0
 11
212.0600901734905
 21
252.4652201338243
 31
0.0
  0
LINE
  5
A13
330
2
100
AcDbEntity
  8
0
100
AcDbLine
 10
211.5156261734907
 20
247.6611281338242
 30
0.0
 11
211.5156261734907
 21
251.3089701338243
 31
0.0
  0
ARC
  5
A14
330
2
100
AcDbEntity
  8
0
100
AcDbCircle
 10
215.2839971734906
 20
239.6611131338244
 30
0.0
 40
3.0
100
AcDbArc
 50
180.999848
 51
270.0
  0
LINE
  5
A16
330
2
100
AcDbEntity
  8
0
100
AcDbLine
 10
240.5951541734907
 20
150.2903754981972
 30
0.0
 11
267.4361431734908
 21
150.2903754981972
 31
0.0
  0
ARC
  5
A17
330
2
100
AcDbEntity
  8
0
100
AcDbCircle
 10
240.5951541734907
 20
145.2903824981973
 30
0.0
 40
5.0
100
AcDbArc
 50
90.0
 51
125.0622019999987
  0
LINE
  5
A18
330
2
100
AcDbEntity
  8
0
100
AcDbLine
 10
294.3879401734907
 20
132.4836354981972
 30
0.0
 11
270.3084421734907
 21
149.3830344981973
 31
0.0
  0
ARC
  5
A19
330
2
100
AcDbEntity
  8
0
100
AcDbCircle
 10
267.4362491734907
 20
145.2903674981972
 30
0.0
 40
5.0
100
AcDbArc
 50
54.93843100000127
 51
90.0
  0
ARC
  5
A1A
330
2
100
AcDbEntity
  8
0
100
AcDbCircle
 10
291.5156411734907
 20
128.3909534981972
 30
0.0
 40
5.0
100
AcDbArc
 50
0.0
 51
54.93837000000182
  0
LINE
  5
A1B
330
2
100
AcDbEntity
  8
0
100
AcDbLine
 10
254.0156411734906
 20
236.6611131338244
 30
0.0
 11
292.7471621734907
 21
236.6611131338244
 31
0.0
  0
LINE
  5
A1C
330
2
100
AcDbEntity
  8
CENTER
100
AcDbLine
 10
220.0156411734906
 20
249.9513059637958
 30
0.0
 11
220.0156411734906
 21
237.370920303853
 31
0.0
  0
LINE
  5
A1D
330
2
100
AcDbEntity
  8
CENTER
100
AcDbLine
 10
294.305834003462
 20
243.6611131338244
 30
0.0
 11
281.7254483435192
 21
243.6611131338244
 31
0.0
  0
LINE
  5
A1E
330
2
100
AcDbEntity
  8
CENTER
100
AcDbLine
 10
288.0156411734906
 20
249.9513059637958
 30
0.0
 11
288.0156411734906
 21
237.370920303853
 31
0.0
  0
CIRCLE
  5
A1F
330
2
100
AcDbEntity
  8
0
100
AcDbCircle
 10
288.0156411734906
 20
243.6611131338244
 30
0.0
 40
3.25
  0
ARC
  5
A20
330
2
100
AcDbEntity
  8
0
100
AcDbCircle
 10
292.7471621734907
 20
239.6611131338244
 30
0.0
 40
3.0
100
AcDbArc
 50
270.0
 51
358.9999999999982
  0
ARC
  5
A21
330
2
100
AcDbEntity
  8
0
100
AcDbCircle
 10
135.5157481734907
 20
268.1611281338242
 30
0.0
 40
1.0
100
AcDbArc
 50
270.0
 51
0.0
  0
LINE
  5
A22
330
2
100
AcDbEntity
  8
0
100
AcDbLine
 10
134.8933111734907
 20
260.6971081338243
 30
0.0
 11
139.0156261734907
 21
260.6611281338242
 31
0.0
  0
CIRCLE
  5
A23
330
2
100
AcDbEntity
  8
0
100
AcDbCircle
 10
133.5156261734907
 20
263.6611281338242
 30
0.0
 40
2.75
  0
ARC
  5
A24
330
2
100
AcDbEntity
  8
0
100
AcDbCircle
 10
134.5156261734907
 20
262.6611281338242
 30
0.0
 40
2.0
100
AcDbArc
 50
270.0
 51
0.0
  0
LINE
  5
A25
330
2
100
AcDbEntity
  8
0
100
AcDbLine
 10
116.0153511734906
 20
321.2595321338243
 30
0.0
 11
139.0156261734907
 21
321.6611281338242
 31
0.0
  0
ARC
  5
A26
330
2
100
AcDbEntity
  8
0
100
AcDbCircle
 10
135.5157481734907
 20
299.1611281338242
 30
0.0
 40
1.0
100
AcDbArc
 50
0.0
 51
90.0
  0
ARC
  5
A27
330
2
100
AcDbEntity
  8
0
100
AcDbCircle
 10
134.5156261734907
 20
304.6611281338242
 30
0.0
 40
2.0
100
AcDbArc
 50
0.0
 51
90.0
  0
LINE
  5
A28
330
2
100
AcDbEntity
  8
0
100
AcDbLine
 10
134.8933111734907
 20
306.6251331338245
 30
0.0
 11
139.0156261734907
 21
306.6611281338242
 31
0.0
  0
CIRCLE
  5
A29
330
2
100
AcDbEntity
  8
0
100
AcDbCircle
 10
133.5156261734907
 20
303.6611281338242
 30
0.0
 40
2.75
  0
LINE
  5
A2A
330
2
100
AcDbEntity
  8
0
100
AcDbLine
 10
110.0156261734907
 20
316.1382401338243
 30
0.0
 11
110.0156261734907
 21
306.6611281338242
 31
0.0
  0
LINE
  5
A2B
330
2
100
AcDbEntity
  8
0
100
AcDbLine
 10
114.0156261734907
 20
319.9570261338243
 30
0.0
 11
114.0156261734907
 21
306.6611281338242
 31
0.0
  0
LINE
  5
A2C
330
2
100
AcDbEntity
  8
0
100
AcDbLine
 10
110.0156261734907
 20
308.8573261338243
 30
0.0
 11
82.51562617349078
 21
309.5774491338244
 31
0.0
  0
LINE
  5
A2D
330
2
100
AcDbEntity
  8
0
100
AcDbLine
 10
85.51458917349084
 20
313.6647831338242
 30
0.0
 11
107.4932632436757
 21
314.2403124179471
 31
0.0
  0
LINE
  5
A2E
330
2
100
AcDbEntity
  8
0
100
AcDbLine
 10
107.3211981734907
 20
312.3924211338243
 30
0.0
 11
82.59704834989282
 21
311.7449713313882
 31
0.0
  0
LINE
  5
A2F
330
2
100
AcDbEntity
  8
0
100
AcDbLine
 10
110.0156261734907
 20
258.4649151338243
 30
0.0
 11
82.51562617349078
 21
257.7447921338245
 31
0.0
  0
LINE
  5
A30
330
2
100
AcDbEntity
  8
0
100
AcDbLine
 10
107.3211981734907
 20
254.9298351338244
 30
0.0
 11
82.59704834989282
 21
255.5772849362603
 31
0.0
  0
LINE
  5
A31
330
2
100
AcDbEntity
  8
0
100
AcDbLine
 10
89.36694417349077
 20
279.8111221338243
 30
0.0
 11
104.5157481734906
 21
279.8111221338243
 31
0.0
  0
LINE
  5
A32
330
2
100
AcDbEntity
  8
0
100
AcDbLine
 10
90.21875117349077
 20
287.5111191338243
 30
0.0
 11
104.5157481734906
 21
287.5111191338243
 31
0.0
  0
LINE
  5
A33
330
2
100
AcDbEntity
  8
HOJO
100
AcDbLine
 10
89.48297217349068
 20
284.6760211338242
 30
0.0
 11
90.29504517349073
 21
282.2010301338242
 31
0.0
  0
LINE
  5
A34
330
2
100
AcDbEntity
  8
0
100
AcDbLine
 10
82.51562617349078
 20
311.1801181338242
 30
0.0
 11
82.51562617349078
 21
256.1421381338242
 31
0.0
  0
LINE
  5
A35
330
2
100
AcDbEntity
  8
HOJO
100
AcDbLine
 10
90.29504517349073
 20
282.2010301338242
 30
0.0
 11
89.36694417349077
 21
279.8111221338243
 31
0.0
  0
LINE
  5
A36
330
2
100
AcDbEntity
  8
0
100
AcDbLine
 10
83.83880717349081
 20
254.2601491338242
 30
0.0
 11
85.51458917349084
 21
253.6574731338242
 31
0.0
  0
ARC
  5
A37
330
2
100
AcDbEntity
  8
0
100
AcDbCircle
 10
84.51562617349077
 20
256.1421381338242
 30
0.0
 40
2.0
100
AcDbArc
 50
180.0
 51
250.219711000001
  0
ARC
  5
A38
330
2
100
AcDbEntity
  8
0
100
AcDbCircle
 10
84.51562617349077
 20
311.1801181338242
 30
0.0
 40
2.0
100
AcDbArc
 50
109.7802889999989
 51
180.0
  0
LINE
  5
A39
330
2
100
AcDbEntity
  8
0
100
AcDbLine
 10
83.83880717349081
 20
313.0621071338242
 30
0.0
 11
85.51458917349084
 21
313.6647831338242
 31
0.0
  0
LINE
  5
A3A
330
2
100
AcDbEntity
  8
HOJO
100
AcDbLine
 10
90.21875117349077
 20
287.5111191338243
 30
0.0
 11
89.48297217349068
 21
284.6760211338242
 31
0.0
  0
LINE
  5
A3B
330
2
100
AcDbEntity
  8
0
100
AcDbLine
 10
104.5156261734907
 20
288.6611281338242
 30
0.0
 11
104.5156261734907
 21
278.6611281338242
 31
0.0
  0
LINE
  5
A3C
330
2
100
AcDbEntity
  8
0
100
AcDbLine
 10
106.5155341734907
 20
262.6611281338242
 30
0.0
 11
106.5155341734907
 21
304.6611281338242
 31
0.0
  0
LINE
  5
A3D
330
2
100
AcDbEntity
  8
CENTER
100
AcDbLine
 10
121.5156261734905
 20
313.6611281338242
 30
0.0
 11
121.5156261734905
 21
253.6611281338242
 31
0.0
  0
LINE
  5
A3E
330
2
100
AcDbEntity
  8
0
100
AcDbLine
 10
134.5156261734907
 20
260.6611281338242
 30
0.0
 11
108.5155341734907
 21
260.6611281338242
 31
0.0
  0
ARC
  5
A3F
330
2
100
AcDbEntity
  8
0
100
AcDbCircle
 10
106.0156261734907
 20
277.1611281338242
 30
0.0
 40
0.5
100
AcDbArc
 50
0.0
 51
90.0
  0
LINE
  5
A40
330
2
100
AcDbEntity
  8
0
100
AcDbLine
 10
106.0156261734907
 20
277.6611281338242
 30
0.0
 11
105.5156261734907
 21
277.6611281338242
 31
0.0
  0
ARC
  5
A41
330
2
100
AcDbEntity
  8
0
100
AcDbCircle
 10
105.5156261734907
 20
278.6611281338242
 30
0.0
 40
1.0
100
AcDbArc
 50
180.0
 51
270.0
  0
CIRCLE
  5
A42
330
2
100
AcDbEntity
  8
0
100
AcDbCircle
 10
109.5156261734907
 20
263.6611281338242
 30
0.0
 40
2.75
  0
ARC
  5
A43
330
2
100
AcDbEntity
  8
0
100
AcDbCircle
 10
108.5155341734907
 20
262.6611281338242
 30
0.0
 40
2.0
100
AcDbArc
 50
180.0
 51
270.0
  0
LINE
  5
A44
330
2
100
AcDbEntity
  8
0
100
AcDbLine
 10
107.5155341734907
 20
267.1611281338242
 30
0.0
 11
109.5156261734907
 21
267.1611281338242
 31
0.0
  0
ARC
  5
A45
330
2
100
AcDbEntity
  8
0
100
AcDbCircle
 10
111.2656261734907
 20
265.4111281338242
 30
0.0
 40
1.35
100
AcDbArc
 50
180.0
 51
270.0
  0
ARC
  5
A46
330
2
100
AcDbEntity
  8
0
100
AcDbCircle
 10
107.7656261734907
 20
265.4111281338242
 30
0.0
 40
1.35
100
AcDbArc
 50
270.0
 51
0.0
  0
LINE
  5
A47
330
2
100
AcDbEntity
  8
0
100
AcDbLine
 10
109.1156011734906
 20
265.4111281338242
 30
0.0
 11
109.9156191734907
 21
265.4111281338242
 31
0.0
  0
LINE
  5
A48
330
2
100
AcDbEntity
  8
0
100
AcDbLine
 10
107.7656261734907
 20
264.0611221338243
 30
0.0
 11
107.7656261734907
 21
263.2611041338242
 31
0.0
  0
LINE
  5
A49
330
2
100
AcDbEntity
  8
0
100
AcDbLine
 10
111.2656261734907
 20
264.0611221338243
 30
0.0
 11
111.2656261734907
 21
263.2611041338242
 31
0.0
  0
LINE
  5
A4A
330
2
100
AcDbEntity
  8
0
100
AcDbLine
 10
109.1156011734906
 20
261.9111281338242
 30
0.0
 11
109.9156191734907
 21
261.9111281338242
 31
0.0
  0
ARC
  5
A4B
330
2
100
AcDbEntity
  8
0
100
AcDbCircle
 10
108.5763561734907
 20
256.3992261338242
 30
0.0
 40
1.0
100
AcDbArc
 50
90.0
 51
163.0430910000014
  0
LINE
  5
A4C
330
2
100
AcDbEntity
  8
0
100
AcDbLine
 10
110.0156261734907
 20
257.3992261338243
 30
0.0
 11
108.5763561734907
 21
257.3992261338243
 31
0.0
  0
LINE
  5
A4D
330
2
100
AcDbEntity
  8
0
100
AcDbLine
 10
110.0156261734907
 20
257.3992261338243
 30
0.0
 11
108.5763561734907
 21
257.3992261338243
 31
0.0
  0
ARC
  5
A4E
330
2
100
AcDbEntity
  8
0
100
AcDbCircle
 10
114.0156261734907
 20
261.6611281338242
 30
0.0
 40
1.0
100
AcDbArc
 50
180.0
 51
270.0
  0
ARC
  5
A4F
330
2
100
AcDbEntity
  8
0
100
AcDbCircle
 10
111.2656261734907
 20
261.9111281338242
 30
0.0
 40
1.35
100
AcDbArc
 50
90.0
 51
180.0
  0
ARC
  5
A50
330
2
100
AcDbEntity
  8
0
100
AcDbCircle
 10
107.7656261734907
 20
261.9111281338242
 30
0.0
 40
1.35
100
AcDbArc
 50
0.0
 51
90.0
  0
LINE
  5
A51
330
2
100
AcDbEntity
  8
0
100
AcDbLine
 10
113.0156261734907
 20
261.6611281338242
 30
0.0
 11
113.0156261734907
 21
263.6611281338242
 31
0.0
  0
ARC
  5
A52
330
2
100
AcDbEntity
  8
0
100
AcDbCircle
 10
107.5155341734907
 20
268.1611281338242
 30
0.0
 40
1.0
100
AcDbArc
 50
180.0
 51
270.0
  0
ARC
  5
A53
330
2
100
AcDbEntity
  8
0
100
AcDbCircle
 10
109.5156261734907
 20
263.6611281338242
 30
0.0
 40
3.5
100
AcDbArc
 50
0.0
 51
90.0
  0
ARC
  5
A54
330
2
100
AcDbEntity
  8
0
100
AcDbCircle
 10
131.7656261734907
 20
265.4111281338242
 30
0.0
 40
1.35
100
AcDbArc
 50
270.0
 51
0.0
  0
LINE
  5
A55
330
2
100
AcDbEntity
  8
0
100
AcDbLine
 10
131.7656261734907
 20
264.0611221338243
 30
0.0
 11
131.7656261734907
 21
263.2611041338242
 31
0.0
  0
LINE
  5
A56
330
2
100
AcDbEntity
  8
0
100
AcDbLine
 10
133.1156011734906
 20
265.4111281338242
 30
0.0
 11
133.9156191734907
 21
265.4111281338242
 31
0.0
  0
LINE
  5
A57
330
2
100
AcDbEntity
  8
0
100
AcDbLine
 10
135.5157481734907
 20
267.1611281338242
 30
0.0
 11
133.5156261734907
 21
267.1611281338242
 31
0.0
  0
ARC
  5
A58
330
2
100
AcDbEntity
  8
0
100
AcDbCircle
 10
135.2656261734907
 20
265.4111281338242
 30
0.0
 40
1.35
100
AcDbArc
 50
180.0
 51
270.0
  0
LINE
  5
A59
330
2
100
AcDbEntity
  8
0
100
AcDbLine
 10
135.2656261734907
 20
264.0611221338243
 30
0.0
 11
135.2656261734907
 21
263.2611041338242
 31
0.0
  0
ARC
  5
A5A
330
2
100
AcDbEntity
  8
0
100
AcDbCircle
 10
129.0156261734907
 20
261.6611281338242
 30
0.0
 40
1.0
100
AcDbArc
 50
270.0
 51
0.0
  0
LINE
  5
A5B
330
2
100
AcDbEntity
  8
0
100
AcDbLine
 10
133.1156011734906
 20
261.9111281338242
 30
0.0
 11
133.9156191734907
 21
261.9111281338242
 31
0.0
  0
ARC
  5
A5C
330
2
100
AcDbEntity
  8
0
100
AcDbCircle
 10
131.7656261734907
 20
261.9111281338242
 30
0.0
 40
1.35
100
AcDbArc
 50
0.0
 51
90.0
  0
LINE
  5
A5D
330
2
100
AcDbEntity
  8
0
100
AcDbLine
 10
130.0156261734907
 20
261.6611281338242
 30
0.0
 11
130.0156261734907
 21
263.6611281338242
 31
0.0
  0
ARC
  5
A5E
330
2
100
AcDbEntity
  8
0
100
AcDbCircle
 10
135.2656261734907
 20
261.9111281338242
 30
0.0
 40
1.35
100
AcDbArc
 50
90.0
 51
180.0
  0
ARC
  5
A5F
330
2
100
AcDbEntity
  8
0
100
AcDbCircle
 10
133.5156261734907
 20
263.6611281338242
 30
0.0
 40
3.5
100
AcDbArc
 50
90.0
 51
180.0
  0
LINE
  5
A60
330
2
100
AcDbEntity
  8
0
100
AcDbLine
 10
134.5156261734907
 20
306.6611281338242
 30
0.0
 11
108.5155341734907
 21
306.6611281338242
 31
0.0
  0
ARC
  5
A61
330
2
100
AcDbEntity
  8
0
100
AcDbCircle
 10
107.5155341734907
 20
299.1611281338242
 30
0.0
 40
1.0
100
AcDbArc
 50
90.0
 51
180.0
  0
ARC
  5
A62
330
2
100
AcDbEntity
  8
0
100
AcDbCircle
 10
108.5155341734907
 20
304.6611281338242
 30
0.0
 40
2.0
100
AcDbArc
 50
90.0
 51
180.0
  0
CIRCLE
  5
A63
330
2
100
AcDbEntity
  8
0
100
AcDbCircle
 10
109.5156261734907
 20
303.6611281338242
 30
0.0
 40
2.75
  0
ARC
  5
A64
330
2
100
AcDbEntity
  8
0
100
AcDbCircle
 10
109.5156261734907
 20
303.6611281338242
 30
0.0
 40
3.5
100
AcDbArc
 50
270.0
 51
0.0
  0
LINE
  5
A65
330
2
100
AcDbEntity
  8
0
100
AcDbLine
 10
107.5155341734907
 20
300.1611281338242
 30
0.0
 11
109.5156261734907
 21
300.1611281338242
 31
0.0
  0
ARC
  5
A66
330
2
100
AcDbEntity
  8
0
100
AcDbCircle
 10
108.5763561734907
 20
314.4230301338244
 30
0.0
 40
1.0
100
AcDbArc
 50
90.0
 51
163.0419009999978
  0
LINE
  5
A67
330
2
100
AcDbEntity
  8
0
100
AcDbLine
 10
110.0156261734907
 20
315.4230301338244
 30
0.0
 11
108.5763561734907
 21
315.4230301338244
 31
0.0
  0
ARC
  5
A68
330
2
100
AcDbEntity
  8
0
100
AcDbCircle
 10
108.5763561734907
 20
310.9230301338244
 30
0.0
 40
1.0
100
AcDbArc
 50
196.956899999995
 51
270.0
  0
LINE
  5
A69
330
2
100
AcDbEntity
  8
0
100
AcDbLine
 10
110.0156261734907
 20
309.9230301338244
 30
0.0
 11
108.5763561734907
 21
309.9230301338244
 31
0.0
  0
LINE
  5
A6A
330
2
100
AcDbEntity
  8
0
100
AcDbLine
 10
109.3155521734906
 20
315.4230301338244
 30
0.0
 11
109.3155521734906
 21
309.9230301338244
 31
0.0
  0
ARC
  5
A6B
330
2
100
AcDbEntity
  8
0
100
AcDbCircle
 10
114.3155521734906
 20
312.6730301338244
 30
0.0
 40
7.0
100
AcDbArc
 50
163.0420000000064
 51
196.9564990000001
  0
LINE
  5
A6C
330
2
100
AcDbEntity
  8
0
100
AcDbLine
 10
107.7656261734907
 20
304.0611221338243
 30
0.0
 11
107.7656261734907
 21
303.2611041338242
 31
0.0
  0
LINE
  5
A6D
330
2
100
AcDbEntity
  8
0
100
AcDbLine
 10
111.2656261734907
 20
304.0611221338243
 30
0.0
 11
111.2656261734907
 21
303.2611041338242
 31
0.0
  0
ARC
  5
A6E
330
2
100
AcDbEntity
  8
0
100
AcDbCircle
 10
111.2656261734907
 20
301.9111281338242
 30
0.0
 40
1.35
100
AcDbArc
 50
90.0
 51
180.0
  0
ARC
  5
A6F
330
2
100
AcDbEntity
  8
0
100
AcDbCircle
 10
107.7656261734907
 20
301.9111281338242
 30
0.0
 40
1.35
100
AcDbArc
 50
0.0
 51
90.0
  0
LINE
  5
A70
330
2
100
AcDbEntity
  8
0
100
AcDbLine
 10
109.1156011734906
 20
301.9111281338242
 30
0.0
 11
109.9156191734907
 21
301.9111281338242
 31
0.0
  0
LINE
  5
A71
330
2
100
AcDbEntity
  8
0
100
AcDbLine
 10
109.1156011734906
 20
305.4111281338242
 30
0.0
 11
109.9156191734907
 21
305.4111281338242
 31
0.0
  0
ARC
  5
A72
330
2
100
AcDbEntity
  8
0
100
AcDbCircle
 10
111.2656261734907
 20
305.4111281338242
 30
0.0
 40
1.35
100
AcDbArc
 50
180.0
 51
270.0
  0
ARC
  5
A73
330
2
100
AcDbEntity
  8
0
100
AcDbCircle
 10
107.7656261734907
 20
305.4111281338242
 30
0.0
 40
1.35
100
AcDbArc
 50
270.0
 51
0.0
  0
ARC
  5
A74
330
2
100
AcDbEntity
  8
0
100
AcDbCircle
 10
114.0156261734907
 20
305.6611281338242
 30
0.0
 40
1.0
100
AcDbArc
 50
90.0
 51
180.0
  0
LINE
  5
A75
330
2
100
AcDbEntity
  8
0
100
AcDbLine
 10
113.0156261734907
 20
305.6611281338242
 30
0.0
 11
113.0156261734907
 21
303.6611281338242
 31
0.0
  0
ARC
  5
A76
330
2
100
AcDbEntity
  8
0
100
AcDbCircle
 10
106.0156261734907
 20
290.1611281338242
 30
0.0
 40
0.5
100
AcDbArc
 50
270.0
 51
0.0
  0
LINE
  5
A77
330
2
100
AcDbEntity
  8
0
100
AcDbLine
 10
106.0156261734907
 20
289.6611281338242
 30
0.0
 11
105.5156261734907
 21
289.6611281338242
 31
0.0
  0
ARC
  5
A78
330
2
100
AcDbEntity
  8
0
100
AcDbCircle
 10
105.5156261734907
 20
288.6611281338242
 30
0.0
 40
1.0
100
AcDbArc
 50
90.0
 51
180.0
  0
ARC
  5
A79
330
2
100
AcDbEntity
  8
0
100
AcDbCircle
 10
133.5156261734907
 20
303.6611281338242
 30
0.0
 40
3.5
100
AcDbArc
 50
180.0
 51
270.0
  0
LINE
  5
A7A
330
2
100
AcDbEntity
  8
0
100
AcDbLine
 10
135.5157481734907
 20
300.1611281338242
 30
0.0
 11
133.5156261734907
 21
300.1611281338242
 31
0.0
  0
ARC
  5
A7B
330
2
100
AcDbEntity
  8
0
100
AcDbCircle
 10
131.7656261734907
 20
301.9111281338242
 30
0.0
 40
1.35
100
AcDbArc
 50
0.0
 51
90.0
  0
ARC
  5
A7C
330
2
100
AcDbEntity
  8
0
100
AcDbCircle
 10
131.7656261734907
 20
305.4111281338242
 30
0.0
 40
1.35
100
AcDbArc
 50
270.0
 51
0.0
  0
ARC
  5
A7D
330
2
100
AcDbEntity
  8
0
100
AcDbCircle
 10
129.0156261734907
 20
305.6611281338242
 30
0.0
 40
1.0
100
AcDbArc
 50
0.0
 51
90.0
  0
LINE
  5
A7E
330
2
100
AcDbEntity
  8
0
100
AcDbLine
 10
131.7656261734907
 20
304.0611221338243
 30
0.0
 11
131.7656261734907
 21
303.2611041338242
 31
0.0
  0
LINE
  5
A7F
330
2
100
AcDbEntity
  8
0
100
AcDbLine
 10
130.0156261734907
 20
305.6611281338242
 30
0.0
 11
130.0156261734907
 21
303.6611281338242
 31
0.0
  0
LINE
  5
A80
330
2
100
AcDbEntity
  8
0
100
AcDbLine
 10
133.1156011734906
 20
301.9111281338242
 30
0.0
 11
133.9156191734907
 21
301.9111281338242
 31
0.0
  0
LINE
  5
A81
330
2
100
AcDbEntity
  8
0
100
AcDbLine
 10
133.1156011734906
 20
305.4111281338242
 30
0.0
 11
133.9156191734907
 21
305.4111281338242
 31
0.0
  0
LINE
  5
A82
330
2
100
AcDbEntity
  8
0
100
AcDbLine
 10
135.2656261734907
 20
304.0611221338243
 30
0.0
 11
135.2656261734907
 21
303.2611041338242
 31
0.0
  0
ARC
  5
A83
330
2
100
AcDbEntity
  8
0
100
AcDbCircle
 10
135.2656261734907
 20
301.9111281338242
 30
0.0
 40
1.35
100
AcDbArc
 50
90.0
 51
180.0
  0
ARC
  5
A84
330
2
100
AcDbEntity
  8
0
100
AcDbCircle
 10
135.2656261734907
 20
305.4111281338242
 30
0.0
 40
1.35
100
AcDbArc
 50
180.0
 51
270.0
  0
LINE
  5
A85
330
2
100
AcDbEntity
  8
0
100
AcDbLine
 10
114.7572331734907
 20
320.9230301338244
 30
0.0
 11
116.0153511734906
 21
321.2595321338243
 31
0.0
  0
LINE
  5
A86
330
2
100
AcDbEntity
  8
0
100
AcDbLine
 10
110.5025641734907
 20
316.6380721338242
 30
0.0
 11
114.0156261734907
 21
316.7300371338243
 31
0.0
  0
ARC
  5
A87
330
2
100
AcDbEntity
  8
0
100
AcDbCircle
 10
110.5156261734907
 20
316.1382401338243
 30
0.0
 40
0.5
100
AcDbArc
 50
91.4994889999995
 51
180.0
  0
ARC
  5
A88
330
2
100
AcDbEntity
  8
0
100
AcDbCircle
 10
115.0156261734907
 20
319.9570261338243
 30
0.0
 40
1.0
100
AcDbArc
 50
104.9744030000003
 51
180.0
  0
LINE
  5
A89
330
2
100
AcDbEntity
  8
0
100
AcDbLine
 10
214.0221411734908
 20
314.6611281338242
 30
0.0
 11
294.0091411734906
 21
314.6611281338242
 31
0.0
  0
LINE
  5
A8A
330
2
100
AcDbEntity
  8
0
100
AcDbLine
 10
215.2839971734906
 20
330.6611281338242
 30
0.0
 11
246.5156411734906
 21
330.6611281338242
 31
0.0
  0
LINE
  5
A8B
330
2
100
AcDbEntity
  8
CENTER
100
AcDbLine
 10
226.3058340034622
 20
323.6611281338242
 30
0.0
 11
213.7254483435194
 21
323.6611281338242
 31
0.0
  0
CIRCLE
  5
A8C
330
2
100
AcDbEntity
  8
0
100
AcDbCircle
 10
220.0156411734908
 20
323.6611281338242
 30
0.0
 40
3.25
  0
LINE
  5
A8D
330
2
100
AcDbEntity
  8
0
100
AcDbLine
 10
211.5156261734907
 20
319.6611281338242
 30
0.0
 11
211.5156261734907
 21
316.0132861338244
 31
0.0
  0
LINE
  5
A8E
330
2
100
AcDbEntity
  8
0
100
AcDbLine
 10
212.2844551734906
 20
327.7134811338243
 30
0.0
 11
212.0600901734905
 21
314.8570361338244
 31
0.0
  0
LINE
  5
A8F
330
2
100
AcDbEntity
  8
0
100
AcDbLine
 10
139.0156261734907
 20
306.6611281338242
 30
0.0
 11
214.9353191734908
 21
306.6611281338242
 31
0.0
  0
LINE
  5
A90
330
2
100
AcDbEntity
  8
0
100
AcDbLine
 10
139.0156261734907
 20
260.6611281338242
 30
0.0
 11
214.9353191734908
 21
260.6611281338242
 31
0.0
  0
LINE
  5
A91
330
2
100
AcDbEntity
  8
0
100
AcDbLine
 10
138.5156261734907
 20
288.6611281338242
 30
0.0
 11
138.5156261734907
 21
278.6611281338242
 31
0.0
  0
LINE
  5
A92
330
2
100
AcDbEntity
  8
0
100
AcDbLine
 10
136.5156261734907
 20
304.6611281338242
 30
0.0
 11
136.5156261734907
 21
262.6611281338242
 31
0.0
  0
LINE
  5
A93
330
2
100
AcDbEntity
  8
0
100
AcDbLine
 10
137.0156261734907
 20
277.6611281338242
 30
0.0
 11
137.5156261734907
 21
277.6611281338242
 31
0.0
  0
ARC
  5
A94
330
2
100
AcDbEntity
  8
0
100
AcDbCircle
 10
137.0156261734907
 20
277.1611281338242
 30
0.0
 40
0.5
100
AcDbArc
 50
90.0
 51
180.0
  0
ARC
  5
A95
330
2
100
AcDbEntity
  8
0
100
AcDbCircle
 10
137.5156261734907
 20
278.6611281338242
 30
0.0
 40
1.0
100
AcDbArc
 50
270.0
 51
0.0
  0
LINE
  5
A96
330
2
100
AcDbEntity
  8
0
100
AcDbLine
 10
137.0156261734907
 20
289.6611281338242
 30
0.0
 11
137.5156261734907
 21
289.6611281338242
 31
0.0
  0
ARC
  5
A97
330
2
100
AcDbEntity
  8
0
100
AcDbCircle
 10
137.0156261734907
 20
290.1611281338242
 30
0.0
 40
0.5
100
AcDbArc
 50
180.0
 51
270.0
  0
ARC
  5
A98
330
2
100
AcDbEntity
  8
0
100
AcDbCircle
 10
137.5156261734907
 20
288.6611281338242
 30
0.0
 40
1.0
100
AcDbArc
 50
0.0
 51
90.0
  0
LINE
  5
A99
330
2
100
AcDbEntity
  8
0
100
AcDbLine
 10
214.9353191734908
 20
262.6611281338242
 30
0.0
 11
214.9353191734908
 21
304.6614031338243
 31
0.0
  0
LINE
  5
A9A
330
2
100
AcDbEntity
  8
0
100
AcDbLine
 10
212.0223701734908
 20
254.6262311338242
 30
0.0
 11
211.9170541734906
 21
260.6611281338242
 31
0.0
  0
ARC
  5
A9B
330
2
100
AcDbEntity
  8
0
100
AcDbCircle
 10
214.0221411734908
 20
312.6611281338242
 30
0.0
 40
2.0
100
AcDbArc
 50
90.0
 51
178.9999999999982
  0
ARC
  5
A9C
330
2
100
AcDbEntity
  8
0
100
AcDbCircle
 10
213.0156411734908
 20
316.0132861338244
 30
0.0
 40
1.5
100
AcDbArc
 50
180.0
 51
286.712653999997
  0
LINE
  5
A9D
330
2
100
AcDbEntity
  8
0
100
AcDbLine
 10
212.0223701734908
 20
312.6960251338242
 30
0.0
 11
211.9170541734906
 21
306.6611281338242
 31
0.0
  0
LINE
  5
A9E
330
2
100
AcDbEntity
  8
0
100
AcDbLine
 10
209.5156261734907
 20
321.6611281338242
 30
0.0
 11
139.0156261734907
 21
321.6611281338242
 31
0.0
  0
ARC
  5
A9F
330
2
100
AcDbEntity
  8
0
100
AcDbCircle
 10
209.5156261734907
 20
319.6611281338242
 30
0.0
 40
2.0
100
AcDbArc
 50
0.0
 51
90.0
  0
ARC
  5
AA0
330
2
100
AcDbEntity
  8
0
100
AcDbCircle
 10
215.2839971734906
 20
327.6611281338242
 30
0.0
 40
3.0
100
AcDbArc
 50
90.0
 51
179.0001530000037
  0
LINE
  5
AA1
330
2
100
AcDbEntity
  8
0
100
AcDbLine
 10
274.0156411734906
 20
317.6611281338242
 30
0.0
 11
274.0156411734906
 21
316.6611321338244
 31
0.0
  0
LINE
  5
AA2
330
2
100
AcDbEntity
  8
0
100
AcDbLine
 10
234.0156411734906
 20
317.6611281338242
 30
0.0
 11
234.0156411734906
 21
316.6611321338244
 31
0.0
  0
LINE
  5
AA3
330
2
100
AcDbEntity
  8
0
100
AcDbLine
 10
295.7467051734906
 20
327.7134811338243
 30
0.0
 11
296.5156411734906
 21
283.6611281338242
 31
0.0
  0
LINE
  5
AA4
330
2
100
AcDbEntity
  8
0
100
AcDbLine
 10
239.0156411734906
 20
312.6960251338242
 30
0.0
 11
239.0156411734906
 21
254.6262161338244
 31
0.0
  0
LINE
  5
AA5
330
2
100
AcDbEntity
  8
0
100
AcDbLine
 10
269.0156411734906
 20
312.6960251338242
 30
0.0
 11
269.0156411734906
 21
254.6262161338244
 31
0.0
  0
ARC
  5
AA6
330
2
100
AcDbEntity
  8
0
100
AcDbCircle
 10
294.0091411734906
 20
312.6611281338242
 30
0.0
 40
2.0
100
AcDbArc
 50
1.000000000001775
 51
90.0
  0
LINE
  5
AA7
330
2
100
AcDbEntity
  8
0
100
AcDbLine
 10
273.0156411734906
 20
318.6611281338242
 30
0.0
 11
235.0156411734906
 21
318.6611281338242
 31
0.0
  0
LINE
  5
AA8
330
2
100
AcDbEntity
  8
0
100
AcDbLine
 10
245.5156411734906
 20
320.6611281338242
 30
0.0
 11
262.5156411734906
 21
320.6611281338242
 31
0.0
  0
LINE
  5
AA9
330
2
100
AcDbEntity
  8
0
100
AcDbLine
 10
246.5156411734906
 20
347.6611281338242
 30
0.0
 11
263.5156411734906
 21
347.6611281338242
 31
0.0
  0
LINE
  5
AAA
330
2
100
AcDbEntity
  8
0
100
AcDbLine
 10
246.5156411734906
 20
347.6611281338242
 30
0.0
 11
246.5156411734906
 21
320.6611281338242
 31
0.0
  0
LINE
  5
AAB
330
2
100
AcDbEntity
  8
CENTER
100
AcDbLine
 10
220.0156411734908
 20
329.9513209637956
 30
0.0
 11
220.0156411734906
 21
317.3709353038528
 31
0.0
  0
ARC
  5
AAC
330
2
100
AcDbEntity
  8
0
100
AcDbCircle
 10
235.0156411734906
 20
317.6611281338242
 30
0.0
 40
1.0
100
AcDbArc
 50
90.0
 51
180.0
  0
LINE
  5
AAD
330
2
100
AcDbEntity
  8
0
100
AcDbLine
 10
245.5156411734906
 20
320.6611281338242
 30
0.0
 11
245.5156411734906
 21
318.6611281338242
 31
0.0
  0
LINE
  5
AAE
330
2
100
AcDbEntity
  8
0
100
AcDbLine
 10
261.0866401734906
 20
326.1611281338242
 30
0.0
 11
261.0866401734906
 21
347.6611281338242
 31
0.0
  0
LINE
  5
AAF
330
2
100
AcDbEntity
  8
0
100
AcDbLine
 10
263.5156411734906
 20
326.1611281338242
 30
0.0
 11
263.5156411734906
 21
347.6611281338242
 31
0.0
  0
LINE
  5
AB0
330
2
100
AcDbEntity
  8
0
100
AcDbLine
 10
263.5156411734906
 20
330.6611281338242
 30
0.0
 11
292.7471621734907
 21
330.6611281338242
 31
0.0
  0
LINE
  5
AB1
330
2
100
AcDbEntity
  8
0
100
AcDbLine
 10
261.0866401734906
 20
326.1611281338242
 30
0.0
 11
263.5156411734906
 21
326.1611281338242
 31
0.0
  0
LINE
  5
AB2
330
2
100
AcDbEntity
  8
0
100
AcDbLine
 10
262.5156411734906
 20
320.6611281338242
 30
0.0
 11
262.5156411734906
 21
318.6611281338242
 31
0.0
  0
LINE
  5
AB3
330
2
100
AcDbEntity
  8
0
100
AcDbLine
 10
261.5156411734906
 20
326.1611281338242
 30
0.0
 11
261.5156411734906
 21
320.6611281338242
 31
0.0
  0
ARC
  5
AB4
330
2
100
AcDbEntity
  8
0
100
AcDbCircle
 10
273.0156411734906
 20
317.6611281338242
 30
0.0
 40
1.0
100
AcDbArc
 50
0.0
 51
90.0
  0
LINE
  5
AB5
330
2
100
AcDbEntity
  8
CENTER
100
AcDbLine
 10
294.305834003462
 20
323.6611281338242
 30
0.0
 11
281.7254483435192
 21
323.6611281338242
 31
0.0
  0
CIRCLE
  5
AB6
330
2
100
AcDbEntity
  8
0
100
AcDbCircle
 10
288.0156411734906
 20
323.6611281338242
 30
0.0
 40
3.25
  0
LINE
  5
AB7
330
2
100
AcDbEntity
  8
CENTER
100
AcDbLine
 10
288.0156411734906
 20
329.9513209637956
 30
0.0
 11
288.0156411734906
 21
317.3709353038528
 31
0.0
  0
ARC
  5
AB8
330
2
100
AcDbEntity
  8
0
100
AcDbCircle
 10
292.7471621734907
 20
327.6611281338242
 30
0.0
 40
3.0
100
AcDbArc
 50
1.000000000001775
 51
90.0
  0
LINE
  5
AB9
330
2
100
AcDbEntity
  8
CENTER
100
AcDbLine
 10
733.6592809206198
 20
95.39037249819774
 30
0.0
 11
578.4092659206197
 21
95.39037249819751
 31
0.0
  0
LINE
  5
ABA
330
2
100
AcDbEntity
  8
0
100
AcDbLine
 10
670.1592809206196
 20
57.39037449819727
 30
0.0
 11
597.6592809206197
 21
57.39037449819727
 31
0.0
  0
LINE
  5
ABB
330
2
100
AcDbEntity
  8
0
100
AcDbLine
 10
670.1593119206197
 20
65.1414044981974
 30
0.0
 11
597.6592809206197
 21
65.1414044981974
 31
0.0
  0
LINE
  5
ABC
330
2
100
AcDbEntity
  8
0
100
AcDbLine
 10
670.1592809206196
 20
133.3903724981975
 30
0.0
 11
594.2395729206197
 21
133.3903724981975
 31
0.0
  0
LINE
  5
ABD
330
2
100
AcDbEntity
  8
0
100
AcDbLine
 10
670.1593119206197
 20
125.6393434981974
 30
0.0
 11
597.6592809206197
 21
125.6393434981974
 31
0.0
  0
LINE
  5
AC0
330
2
100
AcDbEntity
  8
CENTER
100
AcDbLine
 10
347.2177629937965
 20
117.6903764981974
 30
0.0
 11
460.2177669937964
 21
117.6903764981974
 31
0.0
  0
LINE
  5
AC4
330
2
100
AcDbEntity
  8
0
100
AcDbLine
 10
453.2177669937964
 20
125.1903764981974
 30
0.0
 11
453.2177669937964
 21
110.1903764981974
 31
0.0
  0
LINE
  5
AC5
330
2
100
AcDbEntity
  8
CENTER
100
AcDbLine
 10
389.2177629937964
 20
45.69037449819745
 30
0.0
 11
389.2177629937964
 21
161.3903954981975
 31
0.0
  0
LINE
  5
AC6
330
2
100
AcDbEntity
  8
0
100
AcDbLine
 10
420.2177669937964
 20
63.69037449819746
 30
0.0
 11
420.2177669937964
 21
147.7838814981975
 31
0.0
  0
LINE
  5
AC7
330
2
100
AcDbEntity
  8
0
100
AcDbLine
 10
424.2177669937964
 20
98.69037249819747
 30
0.0
 11
424.2177669937964
 21
136.6903764981974
 31
0.0
  0
LINE
  5
AC8
330
2
100
AcDbEntity
  8
0
100
AcDbLine
 10
426.2177669937964
 20
126.1903764981974
 30
0.0
 11
426.2177669937964
 21
109.1903764981974
 31
0.0
  0
ARC
  5
AC9
330
2
100
AcDbEntity
  8
HIDS
100
AcDbCircle
 10
389.2177629937964
 20
95.39037249819751
 30
0.0
 40
38.0
100
AcDbArc
 50
21.29426000000262
 51
50.64329900000206
  0
LINE
  5
ACA
330
2
100
AcDbEntity
  8
0
100
AcDbLine
 10
358.2177629937965
 20
63.69037449819746
 30
0.0
 11
358.2177629937965
 21
147.7837754981975
 31
0.0
  0
LINE
  5
ACB
330
2
100
AcDbEntity
  8
0
100
AcDbLine
 10
354.2177629937965
 20
98.69037249819747
 30
0.0
 11
354.2177629937965
 21
136.6903764981974
 31
0.0
  0
ARC
  5
ACC
330
2
100
AcDbEntity
  8
HIDS
100
AcDbCircle
 10
389.2177629937964
 20
95.39037249819751
 30
0.0
 40
38.0
100
AcDbArc
 50
129.3567050000035
 51
158.7057340000049
  0
LINE
  5
ACF
330
2
100
AcDbEntity
  8
HIDS
100
AcDbLine
 10
368.2177629937965
 20
57.39037549819738
 30
0.0
 11
410.2177669937963
 21
57.39037549819738
 31
0.0
  0
LINE
  5
AD0
330
2
100
AcDbEntity
  8
0
100
AcDbLine
 10
342.2177629937965
 20
52.69037449819745
 30
0.0
 11
436.2177669937964
 21
52.69037449819745
 31
0.0
  0
LINE
  5
AD1
330
2
100
AcDbEntity
  8
CENTER
100
AcDbLine
 10
344.2177629937964
 20
95.39037249819751
 30
0.0
 11
434.2177629937964
 21
95.39037249819751
 31
0.0
  0
LINE
  5
AD2
330
2
100
AcDbEntity
  8
HIDS
100
AcDbLine
 10
366.2177629937965
 20
59.39037549819738
 30
0.0
 11
366.2177629937965
 21
63.68864049819752
 31
0.0
  0
ARC
  5
AD3
330
2
100
AcDbEntity
  8
0
100
AcDbCircle
 10
344.2177629937965
 20
58.69038449819743
 30
0.0
 40
2.0
100
AcDbArc
 50
90.0
 51
180.0
  0
LINE
  5
AD4
330
2
100
AcDbEntity
  8
CENTER
100
AcDbLine
 10
349.2177629937965
 20
64.19037449819746
 30
0.0
 11
349.2177629937965
 21
49.19037449819746
 31
0.0
  0
LINE
  5
AD5
330
2
100
AcDbEntity
  8
HIDS
  6
SEKKEI_H
100
AcDbLine
 10
352.4677629937965
 20
60.69037449819745
 30
0.0
 11
352.4677629937965
 21
52.69037449819745
 31
0.0
  0
LINE
  5
AD6
330
2
100
AcDbEntity
  8
HIDS
  6
SEKKEI_H
100
AcDbLine
 10
345.9677629937965
 20
60.69037449819745
 30
0.0
 11
345.9677629937965
 21
52.69037449819745
 31
0.0
  0
LINE
  5
AD8
330
2
100
AcDbEntity
  8
0
100
AcDbLine
 10
342.2177629937965
 20
58.69037449819746
 30
0.0
 11
342.2177629937965
 21
52.69037449819745
 31
0.0
  0
ARC
  5
AD9
330
2
100
AcDbEntity
  8
HIDS
100
AcDbCircle
 10
368.2177629937965
 20
59.39037549819738
 30
0.0
 40
2.0
100
AcDbArc
 50
199.2166899999987
 51
270.0
  0
ARC
  5
ADA
330
2
100
AcDbEntity
  8
HIDS
100
AcDbCircle
 10
368.2177629937965
 20
59.39037549819738
 30
0.0
 40
2.0
100
AcDbArc
 50
180.0
 51
199.2166899999987
  0
ARC
  5
ADB
330
2
100
AcDbEntity
  8
0
100
AcDbCircle
 10
389.2177629937964
 20
95.39037249819751
 30
0.0
 40
38.0
100
AcDbArc
 50
158.7057340000049
 51
215.3345029999985
  0
ARC
  5
ADC
330
2
100
AcDbEntity
  8
0
100
AcDbCircle
 10
355.2177629937965
 20
63.69036449819748
 30
0.0
 40
3.0
100
AcDbArc
 50
270.0
 51
0.0
  0
LINE
  5
ADD
330
2
100
AcDbEntity
  8
0
100
AcDbLine
 10
355.2177629937965
 20
60.69037449819745
 30
0.0
 11
344.2177629937965
 21
60.69037449819745
 31
0.0
  0
ARC
  5
ADE
330
2
100
AcDbEntity
  8
HIDS
100
AcDbCircle
 10
363.2177629937965
 20
63.68864049819752
 30
0.0
 40
3.0
100
AcDbArc
 50
0.0
 51
50.64329900000206
  0
ARC
  5
ADF
330
2
100
AcDbEntity
  8
HIDS
100
AcDbCircle
 10
389.2177629937964
 20
95.39037249819751
 30
0.0
 40
38.0
100
AcDbArc
 50
215.3345029999985
 51
230.6432949999964
  0
LINE
  5
AE0
330
2
100
AcDbEntity
  8
0
100
AcDbLine
 10
355.2177629937965
 20
97.69037249819746
 30
0.0
 11
356.2217589917912
 21
97.69037249819746
 31
0.0
  0
ARC
  5
AE1
330
2
100
AcDbEntity
  8
0
100
AcDbCircle
 10
355.2177629937965
 20
98.69037249819747
 30
0.0
 40
1.0
100
AcDbArc
 50
180.0
 51
270.0
  0
ARC
  5
AE4
330
2
100
AcDbEntity
  8
0
100
AcDbCircle
 10
434.2177669937964
 20
58.69036449819748
 30
0.0
 40
2.0
100
AcDbArc
 50
0.0
 51
90.0
  0
LINE
  5
AE5
330
2
100
AcDbEntity
  8
HIDS
100
AcDbLine
 10
412.2177669937964
 20
59.5332444981974
 30
0.0
 11
412.2177669937964
 21
63.68864049819752
 31
0.0
  0
LINE
  5
AE6
330
2
100
AcDbEntity
  8
CENTER
100
AcDbLine
 10
429.2177669937964
 20
64.19037449819746
 30
0.0
 11
429.2177669937964
 21
49.19037449819746
 31
0.0
  0
LINE
  5
AE7
330
2
100
AcDbEntity
  8
HIDS
  6
SEKKEI_H
100
AcDbLine
 10
432.4677669937964
 20
60.69037449819745
 30
0.0
 11
432.4677669937964
 21
52.69037449819745
 31
0.0
  0
LINE
  5
AE8
330
2
100
AcDbEntity
  8
HIDS
  6
SEKKEI_H
100
AcDbLine
 10
425.9677669937964
 20
60.69037449819745
 30
0.0
 11
425.9677669937964
 21
52.69037449819745
 31
0.0
  0
ARC
  5
AE9
330
2
100
AcDbEntity
  8
HIDS
100
AcDbCircle
 10
410.2177669937963
 20
59.39037549819738
 30
0.0
 40
2.0
100
AcDbArc
 50
270.0
 51
0.0
  0
LINE
  5
AEA
330
2
100
AcDbEntity
  8
0
100
AcDbLine
 10
436.2177669937964
 20
58.69037449819746
 30
0.0
 11
436.2177669937964
 21
52.69037449819745
 31
0.0
  0
ARC
  5
AEB
330
2
100
AcDbEntity
  8
HIDS
100
AcDbCircle
 10
389.2177629937964
 20
95.39037249819751
 30
0.0
 40
38.0
100
AcDbArc
 50
309.3567009999979
 51
324.6654970000014
  0
ARC
  5
AEC
330
2
100
AcDbEntity
  8
HIDS
100
AcDbCircle
 10
415.2177669937964
 20
63.68864049819752
 30
0.0
 40
3.0
100
AcDbArc
 50
129.3567050000035
 51
180.0
  0
ARC
  5
AED
330
2
100
AcDbEntity
  8
0
100
AcDbCircle
 10
389.2177629937964
 20
95.39037249819751
 30
0.0
 40
38.0
100
AcDbArc
 50
324.6655009999984
 51
21.2942619999956
  0
ARC
  5
AEE
330
2
100
AcDbEntity
  8
0
100
AcDbCircle
 10
423.2177669937964
 20
63.69037449819746
 30
0.0
 40
3.0
100
AcDbArc
 50
180.0
 51
270.0
  0
LINE
  5
AEF
330
2
100
AcDbEntity
  8
0
100
AcDbLine
 10
423.2177669937964
 20
60.69037449819745
 30
0.0
 11
434.2177669937964
 21
60.69037449819745
 31
0.0
  0
LINE
  5
AF0
330
2
100
AcDbEntity
  8
0
100
AcDbLine
 10
453.2177669937964
 20
120.1903764981974
 30
0.0
 11
431.7177669937964
 21
120.1903764981974
 31
0.0
  0
LINE
  5
AF1
330
2
100
AcDbEntity
  8
0
100
AcDbLine
 10
453.2177669937964
 20
115.1903764981974
 30
0.0
 11
431.7177669937964
 21
115.1903764981974
 31
0.0
  0
LINE
  5
AF2
330
2
100
AcDbEntity
  8
0
100
AcDbLine
 10
453.2177669937964
 20
110.1903764981974
 30
0.0
 11
426.2177669937964
 21
110.1903764981974
 31
0.0
  0
ARC
  5
AF3
330
2
100
AcDbEntity
  8
0
100
AcDbCircle
 10
423.2177669937964
 20
98.69037249819747
 30
0.0
 40
1.0
100
AcDbArc
 50
270.0
 51
0.0
  0
LINE
  5
AF4
330
2
100
AcDbEntity
  8
0
100
AcDbLine
 10
424.2177669937964
 20
109.1903764981974
 30
0.0
 11
426.2177669937964
 21
109.1903764981974
 31
0.0
  0
LINE
  5
AF5
330
2
100
AcDbEntity
  8
0
100
AcDbLine
 10
423.2177669937964
 20
97.69037249819746
 30
0.0
 11
422.2137669958016
 21
97.69037249819746
 31
0.0
  0
ARC
  5
AF6
330
2
100
AcDbEntity
  8
0
100
AcDbCircle
 10
431.7177669937964
 20
117.6903764981974
 30
0.0
 40
2.5
100
AcDbArc
 50
180.0
 51
270.0
  0
LINE
  5
AF7
330
2
100
AcDbEntity
  8
0
100
AcDbLine
 10
431.7177669937964
 20
120.1903764981974
 30
0.0
 11
431.7177669937964
 21
115.1903764981974
 31
0.0
  0
ARC
  5
AF8
330
2
100
AcDbEntity
  8
0
100
AcDbCircle
 10
431.7177669937964
 20
117.6903604981974
 30
0.0
 40
2.5
100
AcDbArc
 50
90.0
 51
180.0
  0
LINE
  5
AFA
330
2
100
AcDbEntity
  8
HIDS
100
AcDbLine
 10
368.1828619937964
 20
133.0232154981973
 30
0.0
 11
389.2177629937964
 21
133.3903654981974
 31
0.0
  0
ARC
  5
AFB
330
2
100
AcDbEntity
  8
0
100
AcDbCircle
 10
389.2177629937964
 20
-95.60960450180244
 30
0.0
 40
250.0
100
AcDbArc
 50
84.82601899999977
 51
95.17398100000022
  0
LINE
  5
AFC
330
2
100
AcDbEntity
  8
0
100
AcDbLine
 10
360.1828619937964
 20
149.7835844981974
 30
0.0
 11
389.2177629937964
 21
150.2903824981973
 31
0.0
  0
LINE
  5
AFD
330
2
100
AcDbEntity
  8
0
100
AcDbLine
 10
359.8914629937963
 20
130.9903864981973
 30
0.0
 11
418.6101619937964
 21
130.9903864981973
 31
0.0
  0
LINE
  5
AFE
330
2
100
AcDbEntity
  8
0
100
AcDbLine
 10
355.2177629937965
 20
137.6903764981974
 30
0.0
 11
356.2177589937963
 21
137.6903764981974
 31
0.0
  0
ARC
  5
AFF
330
2
100
AcDbEntity
  8
0
100
AcDbCircle
 10
355.2177629937965
 20
136.6903764981974
 30
0.0
 40
1.0
100
AcDbArc
 50
90.0
 51
180.0
  0
LINE
  5
B00
330
2
100
AcDbEntity
  8
0
100
AcDbLine
 10
372.7177629937965
 20
153.3768384981973
 30
0.0
 11
372.7177629937965
 21
151.3903724981975
 31
0.0
  0
ARC
  5
B01
330
2
100
AcDbEntity
  8
0
100
AcDbCircle
 10
370.9677629937965
 20
152.3295744981975
 30
0.0
 40
1.0
100
AcDbArc
 50
0.0
 51
73.04309800000145
  0
LINE
  5
B02
330
2
100
AcDbEntity
  8
0
100
AcDbLine
 10
371.9677629937965
 20
150.8901744981973
 30
0.0
 11
371.9677629937965
 21
152.3295744981975
 31
0.0
  0
ARC
  5
B03
330
2
100
AcDbEntity
  8
0
100
AcDbCircle
 10
372.2177629937965
 20
151.3903724981975
 30
0.0
 40
0.5
100
AcDbArc
 50
270.0
 51
0.0
  0
ARC
  5
B04
330
2
100
AcDbEntity
  8
0
100
AcDbCircle
 10
373.2177629937965
 20
153.3768384981973
 30
0.0
 40
0.5
100
AcDbArc
 50
93.67680399999908
 51
180.0
  0
LINE
  5
B05
330
2
100
AcDbEntity
  8
0
100
AcDbLine
 10
366.2177629937965
 20
149.8889234981974
 30
0.0
 11
366.2177629937965
 21
152.8737944981973
 31
0.0
  0
ARC
  5
B06
330
2
100
AcDbEntity
  8
0
100
AcDbCircle
 10
367.4677629937965
 20
152.3295744981975
 30
0.0
 40
1.0
100
AcDbArc
 50
106.9581529999998
 51
180.0
  0
LINE
  5
B07
330
2
100
AcDbEntity
  8
0
100
AcDbLine
 10
366.4677629937965
 20
150.8903724981975
 30
0.0
 11
366.4677629937965
 21
152.3295744981975
 31
0.0
  0
ARC
  5
B08
330
2
100
AcDbEntity
  8
0
100
AcDbCircle
 10
366.7177629937965
 20
150.3903724981975
 30
0.0
 40
0.5
100
AcDbArc
 50
90.0
 51
180.0
  0
ARC
  5
B09
330
2
100
AcDbEntity
  8
0
100
AcDbCircle
 10
366.7177629937965
 20
152.8737944981973
 30
0.0
 40
0.5
100
AcDbArc
 50
95.17398100000022
 51
180.0
  0
LINE
  5
B0A
330
2
100
AcDbEntity
  8
0
100
AcDbLine
 10
366.4677629937965
 20
150.8903724981975
 30
0.0
 11
372.2177629937965
 21
150.8903724981975
 31
0.0
  0
LINE
  5
B0B
330
2
100
AcDbEntity
  8
0
100
AcDbLine
 10
366.4677629937965
 20
151.5903774981974
 30
0.0
 11
371.9677629937965
 21
151.5903774981974
 31
0.0
  0
ARC
  5
B0C
330
2
100
AcDbEntity
  8
0
100
AcDbCircle
 10
369.2177629937965
 20
146.5903774981974
 30
0.0
 40
7.0
100
AcDbArc
 50
73.04350300000075
 51
106.9580230000013
  0
ARC
  5
B0D
330
2
100
AcDbEntity
  8
HIDS
100
AcDbCircle
 10
363.2177629937965
 20
127.0921094981973
 30
0.0
 40
3.0
100
AcDbArc
 50
309.3567009999979
 51
0.0
  0
LINE
  5
B0E
330
2
100
AcDbEntity
  8
HIDS
100
AcDbLine
 10
366.2177629937965
 20
145.8903724981975
 30
0.0
 11
366.2177629937965
 21
131.0235054981973
 31
0.0
  0
ARC
  5
B0F
330
2
100
AcDbEntity
  8
HIDS
100
AcDbCircle
 10
368.2177629937965
 20
131.0235054981973
 30
0.0
 40
2.0
100
AcDbArc
 50
90.9998629999991
 51
180.0
  0
LINE
  5
B10
330
2
100
AcDbEntity
  8
HIDS
100
AcDbLine
 10
366.2177629937965
 20
131.0235054981973
 30
0.0
 11
366.2177629937965
 21
127.0921094981973
 31
0.0
  0
LINE
  5
B11
330
2
100
AcDbEntity
  8
HIDS
100
AcDbLine
 10
366.7177629937965
 20
145.8903724981975
 30
0.0
 11
366.7177629937965
 21
146.8903724981975
 31
0.0
  0
LINE
  5
B12
330
2
100
AcDbEntity
  8
HIDS
100
AcDbLine
 10
366.7177629937965
 20
145.8903724981975
 30
0.0
 11
366.2177629937965
 21
145.8903724981975
 31
0.0
  0
LINE
  5
B13
330
2
100
AcDbEntity
  8
HIDS
100
AcDbLine
 10
366.7177629937965
 20
146.8903724981975
 30
0.0
 11
366.2177629937965
 21
146.8903724981975
 31
0.0
  0
LINE
  5
B14
330
2
100
AcDbEntity
  8
HIDS
100
AcDbLine
 10
366.2177629937965
 20
146.8903724981975
 30
0.0
 11
366.2177629937965
 21
149.8889234981974
 31
0.0
  0
ARC
  5
B15
330
2
100
AcDbEntity
  8
0
100
AcDbCircle
 10
360.2177629937965
 20
147.7837824981974
 30
0.0
 40
2.0
100
AcDbArc
 50
91.00064099999883
 51
180.0
  0
LINE
  5
B17
330
2
100
AcDbEntity
  8
0
100
AcDbLine
 10
418.2526629937965
 20
149.7835844981974
 30
0.0
 11
389.2177629937964
 21
150.2903824981973
 31
0.0
  0
LINE
  5
B18
330
2
100
AcDbEntity
  8
HIDS
100
AcDbLine
 10
410.2526629937965
 20
133.0232154981973
 30
0.0
 11
389.2177629937964
 21
133.3903654981974
 31
0.0
  0
ARC
  5
B19
330
2
100
AcDbEntity
  8
0
100
AcDbCircle
 10
389.2177629937964
 20
146.3903724981975
 30
0.0
 40
6.0
100
AcDbArc
 50
39.53427500000402
 51
140.4657289999963
  0
ARC
  5
B1A
330
2
100
AcDbEntity
  8
0
100
AcDbCircle
 10
410.9677669937964
 20
152.3295744981975
 30
0.0
 40
1.0
100
AcDbArc
 50
0.0
 51
73.04184700000021
  0
LINE
  5
B1B
330
2
100
AcDbEntity
  8
0
100
AcDbLine
 10
412.2177669937964
 20
149.8889234981974
 30
0.0
 11
412.2177669937964
 21
152.8737944981973
 31
0.0
  0
ARC
  5
B1C
330
2
100
AcDbEntity
  8
0
100
AcDbCircle
 10
411.7177669937964
 20
150.3903724981975
 30
0.0
 40
0.5
100
AcDbArc
 50
0.0
 51
90.0
  0
LINE
  5
B1D
330
2
100
AcDbEntity
  8
0
100
AcDbLine
 10
411.9677669937964
 20
150.8903724981975
 30
0.0
 11
411.9677669937964
 21
152.3295744981975
 31
0.0
  0
ARC
  5
B1E
330
2
100
AcDbEntity
  8
0
100
AcDbCircle
 10
411.7177669937964
 20
152.8737944981973
 30
0.0
 40
0.5
100
AcDbArc
 50
0.0
 51
84.82601899999977
  0
LINE
  5
B1F
330
2
100
AcDbEntity
  8
0
100
AcDbLine
 10
406.4677669937964
 20
150.8901744981973
 30
0.0
 11
406.4677669937964
 21
152.3295744981975
 31
0.0
  0
LINE
  5
B20
330
2
100
AcDbEntity
  8
0
100
AcDbLine
 10
405.7177669937964
 20
153.3768384981973
 30
0.0
 11
405.7177669937964
 21
151.3903724981975
 31
0.0
  0
ARC
  5
B21
330
2
100
AcDbEntity
  8
0
100
AcDbCircle
 10
406.2177669937964
 20
151.3903724981975
 30
0.0
 40
0.5
100
AcDbArc
 50
180.0
 51
270.0
  0
ARC
  5
B22
330
2
100
AcDbEntity
  8
0
100
AcDbCircle
 10
405.2177669937964
 20
153.3768384981973
 30
0.0
 40
0.5
100
AcDbArc
 50
0.0
 51
86.32319600000093
  0
ARC
  5
B23
330
2
100
AcDbEntity
  8
0
100
AcDbCircle
 10
407.4677669937964
 20
152.3295744981975
 30
0.0
 40
1.0
100
AcDbArc
 50
106.9569019999985
 51
180.0
  0
LINE
  5
B24
330
2
100
AcDbEntity
  8
0
100
AcDbLine
 10
411.9677669937964
 20
151.5903774981974
 30
0.0
 11
406.4677669937964
 21
151.5903774981974
 31
0.0
  0
ARC
  5
B25
330
2
100
AcDbEntity
  8
0
100
AcDbCircle
 10
409.2177669937964
 20
146.5903774981974
 30
0.0
 40
7.0
100
AcDbArc
 50
73.04197699999868
 51
106.9564969999992
  0
LINE
  5
B26
330
2
100
AcDbEntity
  8
0
100
AcDbLine
 10
411.9677669937964
 20
150.8903724981975
 30
0.0
 11
406.2177669937964
 21
150.8903724981975
 31
0.0
  0
ARC
  5
B27
330
2
100
AcDbEntity
  8
HIDS
100
AcDbCircle
 10
415.2177669937964
 20
127.0921094981973
 30
0.0
 40
3.0
100
AcDbArc
 50
180.0
 51
230.6432949999964
  0
LINE
  5
B28
330
2
100
AcDbEntity
  8
HIDS
100
AcDbLine
 10
412.2177669937964
 20
145.8903724981975
 30
0.0
 11
412.2177669937964
 21
131.0235054981973
 31
0.0
  0
LINE
  5
B29
330
2
100
AcDbEntity
  8
HIDS
100
AcDbLine
 10
412.2177669937964
 20
130.9903864981973
 30
0.0
 11
412.2177669937964
 21
127.0921094981973
 31
0.0
  0
LINE
  5
B2A
330
2
100
AcDbEntity
  8
HIDS
100
AcDbLine
 10
411.7177669937964
 20
145.8903724981975
 30
0.0
 11
412.2177669937964
 21
145.8903724981975
 31
0.0
  0
LINE
  5
B2B
330
2
100
AcDbEntity
  8
HIDS
100
AcDbLine
 10
411.7177669937964
 20
146.8903724981975
 30
0.0
 11
412.2177669937964
 21
146.8903724981975
 31
0.0
  0
LINE
  5
B2C
330
2
100
AcDbEntity
  8
HIDS
100
AcDbLine
 10
411.7177669937964
 20
145.8903724981975
 30
0.0
 11
411.7177669937964
 21
146.8903724981975
 31
0.0
  0
ARC
  5
B2D
330
2
100
AcDbEntity
  8
HIDS
100
AcDbCircle
 10
410.2177669937963
 20
131.0235054981973
 30
0.0
 40
2.0
100
AcDbArc
 50
0.0
 51
89.00013700000089
  0
LINE
  5
B2E
330
2
100
AcDbEntity
  8
HIDS
100
AcDbLine
 10
412.2177669937964
 20
146.8903724981975
 30
0.0
 11
412.2177669937964
 21
149.8889234981974
 31
0.0
  0
LINE
  5
B30
330
2
100
AcDbEntity
  8
0
100
AcDbLine
 10
453.2177669937964
 20
125.1903764981974
 30
0.0
 11
426.2177669937964
 21
125.1903764981974
 31
0.0
  0
LINE
  5
B31
330
2
100
AcDbEntity
  8
0
100
AcDbLine
 10
424.2177669937964
 20
126.1903764981974
 30
0.0
 11
426.2177669937964
 21
126.1903764981974
 31
0.0
  0
ARC
  5
B32
330
2
100
AcDbEntity
  8
0
100
AcDbCircle
 10
423.2177669937964
 20
136.6903764981974
 30
0.0
 40
1.0
100
AcDbArc
 50
0.0
 51
90.0
  0
LINE
  5
B33
330
2
100
AcDbEntity
  8
0
100
AcDbLine
 10
423.2177669937964
 20
137.6903764981974
 30
0.0
 11
422.2177669937965
 21
137.6903764981974
 31
0.0
  0
ARC
  5
B34
330
2
100
AcDbEntity
  8
0
100
AcDbCircle
 10
418.2177669937964
 20
147.7838814981975
 30
0.0
 40
2.0
100
AcDbArc
 50
0.0
 51
89.00013700000089
  0
ARC
  5
B35
330
2
100
AcDbEntity
  8
0
100
AcDbCircle
 10
555.1592659206197
 20
117.6903764981974
 30
0.0
 40
7.5
100
AcDbArc
 50
199.471207000002
 51
160.5287929999979
  0
LINE
  5
B36
330
2
100
AcDbEntity
  8
0
100
AcDbLine
 10
512.6592659206197
 20
128.3909524981974
 30
0.0
 11
512.6592659206197
 21
52.69037449819745
 31
0.0
  0
LINE
  5
B37
330
2
100
AcDbEntity
  8
0
100
AcDbLine
 10
597.6592809206197
 20
128.3909754981974
 30
0.0
 11
597.6592809206197
 21
52.69037449819745
 31
0.0
  0
CIRCLE
  5
B38
330
2
100
AcDbEntity
  8
0
100
AcDbCircle
 10
555.1592659206197
 20
117.6903764981974
 30
0.0
 40
20.0
  0
LINE
  5
B39
330
2
100
AcDbEntity
  8
CENTER
100
AcDbLine
 10
555.1592659206197
 20
157.2903744981973
 30
0.0
 11
555.1592659206199
 21
45.69037449819745
 31
0.0
  0
LINE
  5
B3A
330
2
100
AcDbEntity
  8
0
100
AcDbLine
 10
595.6592659206196
 20
60.69037449819745
 30
0.0
 11
514.6592659206198
 21
60.69037449819745
 31
0.0
  0
LINE
  5
B3B
330
2
100
AcDbEntity
  8
0
100
AcDbLine
 10
597.6592809206197
 20
52.69037449819745
 30
0.0
 11
512.6592659206197
 21
52.69037449819745
 31
0.0
  0
LINE
  5
B3C
330
2
100
AcDbEntity
  8
CENTER
100
AcDbLine
 10
581.9092034105217
 20
117.6903764981974
 30
0.0
 11
527.9093284307178
 21
117.6903764981974
 31
0.0
  0
ARC
  5
B3D
330
2
100
AcDbEntity
  8
0
100
AcDbCircle
 10
514.6592659206198
 20
58.69036449819748
 30
0.0
 40
2.0
100
AcDbArc
 50
90.0
 51
180.0
  0
LINE
  5
B3E
330
2
100
AcDbEntity
  8
CENTER
100
AcDbLine
 10
521.1592659206197
 20
64.19037449819746
 30
0.0
 11
521.1592659206197
 21
49.19037449819746
 31
0.0
  0
LINE
  5
B3F
330
2
100
AcDbEntity
  8
HIDS
  6
SEKKEI_H
100
AcDbLine
 10
517.9092659206197
 20
60.69037449819745
 30
0.0
 11
517.9092659206197
 21
52.69037449819745
 31
0.0
  0
LINE
  5
B40
330
2
100
AcDbEntity
  8
HIDS
  6
SEKKEI_H
100
AcDbLine
 10
524.4092659206197
 20
60.69037449819745
 30
0.0
 11
524.4092659206197
 21
52.69037449819745
 31
0.0
  0
ARC
  5
B41
330
2
100
AcDbEntity
  8
0
100
AcDbCircle
 10
595.6592659206196
 20
58.69038449819743
 30
0.0
 40
2.0
100
AcDbArc
 50
0.0
 51
90.0
  0
LINE
  5
B42
330
2
100
AcDbEntity
  8
CENTER
100
AcDbLine
 10
589.1592659206196
 20
64.19037449819746
 30
0.0
 11
589.1592659206196
 21
49.19037449819746
 31
0.0
  0
LINE
  5
B43
330
2
100
AcDbEntity
  8
HIDS
  6
SEKKEI_H
100
AcDbLine
 10
592.4092659206196
 20
60.69037449819745
 30
0.0
 11
592.4092659206196
 21
52.69037449819745
 31
0.0
  0
LINE
  5
B44
330
2
100
AcDbEntity
  8
HIDS
  6
SEKKEI_H
100
AcDbLine
 10
585.9092659206196
 20
60.69037449819745
 30
0.0
 11
585.9092659206196
 21
52.69037449819745
 31
0.0
  0
ARC
  5
B45
330
2
100
AcDbEntity
  8
0
100
AcDbCircle
 10
565.3567609206198
 20
88.70038149819732
 30
0.0
 40
2.55249
100
AcDbArc
 50
286.0181270000005
 51
90.00351000000046
  0
LINE
  5
B46
330
2
100
AcDbEntity
  8
0
100
AcDbLine
 10
561.5342659206198
 20
91.25287249819747
 30
0.0
 11
565.3567609206198
 21
91.25287249819747
 31
0.0
  0
LINE
  5
B47
330
2
100
AcDbEntity
  8
0
100
AcDbLine
 10
561.5342659206198
 20
90.08246249819752
 30
0.0
 11
562.0073649206196
 21
90.08246249819752
 31
0.0
  0
LINE
  5
B48
330
2
100
AcDbEntity
  8
0
100
AcDbLine
 10
563.5388739206197
 20
81.69037649819745
 30
0.0
 11
561.5342659206198
 21
81.69037649819745
 31
0.0
  0
LINE
  5
B49
330
2
100
AcDbEntity
  8
0
100
AcDbLine
 10
561.5342659206198
 20
82.68646549819743
 30
0.0
 11
562.0073649206196
 21
82.68646549819743
 31
0.0
  0
LINE
  5
B4A
330
2
100
AcDbEntity
  8
0
100
AcDbLine
 10
543.5666609206196
 20
91.25287249819747
 30
0.0
 11
547.8532659206197
 21
91.25287249819747
 31
0.0
  0
LINE
  5
B4B
330
2
100
AcDbEntity
  8
0
100
AcDbLine
 10
547.2717689206197
 20
89.9828524981973
 30
0.0
 11
544.1998699206196
 21
89.9828524981973
 31
0.0
  0
LINE
  5
B4C
330
2
100
AcDbEntity
  8
0
100
AcDbLine
 10
543.5666609206196
 20
91.25287249819747
 30
0.0
 11
542.4092659206197
 21
89.77087349819738
 31
0.0
  0
LINE
  5
B4D
330
2
100
AcDbEntity
  8
0
100
AcDbLine
 10
544.1998699206196
 20
89.9828524981973
 30
0.0
 11
543.4800669206197
 21
89.09035049819738
 31
0.0
  0
LINE
  5
B4E
330
2
100
AcDbEntity
  8
0
100
AcDbLine
 10
547.8628639206196
 20
89.4114074981975
 30
0.0
 11
547.2596689206198
 21
89.9828524981973
 31
0.0
  0
LINE
  5
B4F
330
2
100
AcDbEntity
  8
0
100
AcDbLine
 10
546.1944679206196
 20
87.24359449819747
 30
0.0
 11
548.7842659206197
 21
87.24359449819747
 31
0.0
  0
LINE
  5
B50
330
2
100
AcDbEntity
  8
0
100
AcDbLine
 10
547.8628639206196
 20
89.26068449819752
 30
0.0
 11
548.7842659206197
 21
89.26068449819752
 31
0.0
  0
LINE
  5
B51
330
2
100
AcDbEntity
  8
0
100
AcDbLine
 10
548.7842659206197
 20
90.21973049819747
 30
0.0
 11
548.7842659206197
 21
89.26068449819752
 31
0.0
  0
LINE
  5
B52
330
2
100
AcDbEntity
  8
0
100
AcDbLine
 10
547.8628639206196
 20
89.4114074981975
 30
0.0
 11
547.8628639206196
 21
89.26068449819752
 31
0.0
  0
LINE
  5
B53
330
2
100
AcDbEntity
  8
0
100
AcDbLine
 10
547.8532659206197
 20
91.25287249819747
 30
0.0
 11
548.7842659206197
 21
90.21973049819747
 31
0.0
  0
LINE
  5
B54
330
2
100
AcDbEntity
  8
0
100
AcDbLine
 10
561.5342659206198
 20
91.25287249819747
 30
0.0
 11
561.5342659206198
 21
90.08246249819752
 31
0.0
  0
LINE
  5
B55
330
2
100
AcDbEntity
  8
0
100
AcDbLine
 10
558.3467659206197
 20
89.26068449819752
 30
0.0
 11
558.3467659206197
 21
91.25287249819747
 31
0.0
  0
LINE
  5
B56
330
2
100
AcDbEntity
  8
0
100
AcDbLine
 10
557.6817729206197
 20
89.26068449819752
 30
0.0
 11
558.3467659206197
 21
89.26068449819752
 31
0.0
  0
LINE
  5
B57
330
2
100
AcDbEntity
  8
0
100
AcDbLine
 10
557.3930609206197
 20
90.08246249819752
 30
0.0
 11
557.6817729206197
 21
89.26068449819752
 31
0.0
  0
LINE
  5
B58
330
2
100
AcDbEntity
  8
0
100
AcDbLine
 10
551.9717659206198
 20
89.26068449819752
 30
0.0
 11
551.9717659206198
 21
91.25287249819747
 31
0.0
  0
LINE
  5
B59
330
2
100
AcDbEntity
  8
0
100
AcDbLine
 10
551.9717659206198
 20
89.26068449819752
 30
0.0
 11
552.6793619206197
 21
89.26068449819752
 31
0.0
  0
LINE
  5
B5A
330
2
100
AcDbEntity
  8
0
100
AcDbLine
 10
553.0217689206197
 20
90.08246249819752
 30
0.0
 11
552.6793619206197
 21
89.26068449819752
 31
0.0
  0
LINE
  5
B5B
330
2
100
AcDbEntity
  8
0
100
AcDbLine
 10
554.5366619206197
 20
90.08246249819752
 30
0.0
 11
553.0217689206197
 21
90.08246249819752
 31
0.0
  0
LINE
  5
B5C
330
2
100
AcDbEntity
  8
0
100
AcDbLine
 10
555.7320659206197
 20
90.08246249819752
 30
0.0
 11
557.3930609206197
 21
90.08246249819752
 31
0.0
  0
LINE
  5
B5D
330
2
100
AcDbEntity
  8
0
100
AcDbLine
 10
551.9717659206198
 20
91.25287249819747
 30
0.0
 11
558.3467659206197
 21
91.25287249819747
 31
0.0
  0
LINE
  5
B5E
330
2
100
AcDbEntity
  8
0
100
AcDbLine
 10
545.8706609206196
 20
82.81097349819731
 30
0.0
 11
544.2113749206197
 21
82.81097349819731
 31
0.0
  0
LINE
  5
B5F
330
2
100
AcDbEntity
  8
0
100
AcDbLine
 10
543.6390639206197
 20
81.69037649819745
 30
0.0
 11
546.9543709206198
 21
81.69037649819745
 31
0.0
  0
LINE
  5
B60
330
2
100
AcDbEntity
  8
0
100
AcDbLine
 10
542.4092659206197
 20
82.93123649819756
 30
0.0
 11
543.6390639206197
 21
81.69037649819745
 31
0.0
  0
LINE
  5
B61
330
2
100
AcDbEntity
  8
0
100
AcDbLine
 10
543.4800669206197
 20
83.58129449819728
 30
0.0
 11
544.2113749206197
 21
82.81097349819731
 31
0.0
  0
LINE
  5
B62
330
2
100
AcDbEntity
  8
0
100
AcDbLine
 10
547.8628639206196
 20
86.19769649819739
 30
0.0
 11
546.1944679206196
 21
86.19769649819739
 31
0.0
  0
ARC
  5
B63
330
2
100
AcDbEntity
  8
0
100
AcDbCircle
 10
545.8706609206196
 20
84.80316549819747
 30
0.0
 40
1.992186999999999
100
AcDbArc
 50
270.0002140000007
 51
0.0001090000031536
  0
LINE
  5
B64
330
2
100
AcDbEntity
  8
0
100
AcDbLine
 10
547.8628639206196
 20
82.45263249819743
 30
0.0
 11
546.9543709206198
 21
81.69037649819745
 31
0.0
  0
LINE
  5
B65
330
2
100
AcDbEntity
  8
0
100
AcDbLine
 10
547.8628639206196
 20
82.45263249819743
 30
0.0
 11
547.8628639206196
 21
81.69037649819745
 31
0.0
  0
LINE
  5
B66
330
2
100
AcDbEntity
  8
0
100
AcDbLine
 10
547.8628639206196
 20
81.69037649819745
 30
0.0
 11
548.7842659206197
 21
81.69037649819745
 31
0.0
  0
LINE
  5
B67
330
2
100
AcDbEntity
  8
0
100
AcDbLine
 10
547.8628639206196
 20
85.20160249819729
 30
0.0
 11
547.8628639206196
 21
85.9984774981973
 31
0.0
  0
LINE
  5
B68
330
2
100
AcDbEntity
  8
0
100
AcDbLine
 10
547.8628639206196
 20
86.19769649819739
 30
0.0
 11
547.8628639206196
 21
84.80316549819747
 31
0.0
  0
LINE
  5
B69
330
2
100
AcDbEntity
  8
0
100
AcDbLine
 10
561.5342659206198
 20
82.68646549819743
 30
0.0
 11
561.5342659206198
 21
81.69037649819745
 31
0.0
  0
LINE
  5
B6A
330
2
100
AcDbEntity
  8
0
100
AcDbLine
 10
556.1304729206197
 20
82.73627449819754
 30
0.0
 11
556.1304729206197
 21
81.69037649819745
 31
0.0
  0
LINE
  5
B6B
330
2
100
AcDbEntity
  8
0
100
AcDbLine
 10
554.0635629206197
 20
82.73627449819754
 30
0.0
 11
554.0635629206197
 21
81.69037649819745
 31
0.0
  0
LINE
  5
B6C
330
2
100
AcDbEntity
  8
0
100
AcDbLine
 10
554.0635629206197
 20
82.73627449819754
 30
0.0
 11
554.5366619206197
 21
82.73627449819754
 31
0.0
  0
LINE
  5
B6D
330
2
100
AcDbEntity
  8
0
100
AcDbLine
 10
555.7320659206197
 20
82.73627449819754
 30
0.0
 11
556.1304729206197
 21
82.73627449819754
 31
0.0
  0
LINE
  5
B6E
330
2
100
AcDbEntity
  8
0
100
AcDbLine
 10
554.0635629206197
 20
81.69037649819745
 30
0.0
 11
556.1304729206197
 21
81.69037649819745
 31
0.0
  0
LINE
  5
B6F
330
2
100
AcDbEntity
  8
0
100
AcDbLine
 10
542.4092659206197
 20
89.77087349819738
 30
0.0
 11
542.4092659206197
 21
82.93123649819756
 31
0.0
  0
LINE
  5
B70
330
2
100
AcDbEntity
  8
0
100
AcDbLine
 10
543.4800669206197
 20
89.09035049819738
 30
0.0
 11
543.4800669206197
 21
83.58129449819728
 31
0.0
  0
LINE
  5
B71
330
2
100
AcDbEntity
  8
0
100
AcDbLine
 10
546.1944679206196
 20
87.24359449819747
 30
0.0
 11
546.1944679206196
 21
86.19769649819739
 31
0.0
  0
LINE
  5
B72
330
2
100
AcDbEntity
  8
0
100
AcDbLine
 10
548.7842659206197
 20
87.24359449819747
 30
0.0
 11
548.7842659206197
 21
81.69037649819745
 31
0.0
  0
LINE
  5
B73
330
2
100
AcDbEntity
  8
0
100
AcDbLine
 10
554.5366619206197
 20
90.08246249819752
 30
0.0
 11
554.5366619206197
 21
82.73627449819754
 31
0.0
  0
LINE
  5
B74
330
2
100
AcDbEntity
  8
0
100
AcDbLine
 10
555.7320659206197
 20
90.08246249819752
 30
0.0
 11
555.7320659206197
 21
82.73627449819754
 31
0.0
  0
LINE
  5
B75
330
2
100
AcDbEntity
  8
0
100
AcDbLine
 10
563.1030679206197
 20
90.08246249819752
 30
0.0
 11
566.0779669206196
 21
90.08052449819741
 31
0.0
  0
LINE
  5
B76
330
2
100
AcDbEntity
  8
0
100
AcDbLine
 10
563.1030679206197
 20
87.15620749819743
 30
0.0
 11
565.5577649206198
 21
87.15620749819743
 31
0.0
  0
LINE
  5
B77
330
2
100
AcDbEntity
  8
0
100
AcDbLine
 10
563.1030679206197
 20
90.08246249819752
 30
0.0
 11
563.1030679206197
 21
87.15620749819743
 31
0.0
  0
ARC
  5
B78
330
2
100
AcDbEntity
  8
0
100
AcDbCircle
 10
565.3567609206198
 20
88.70038149819732
 30
0.0
 40
1.557193
100
AcDbArc
 50
277.4147260000004
 51
62.41184999999949
  0
LINE
  5
B79
330
2
100
AcDbEntity
  8
0
100
AcDbLine
 10
563.1030679206197
 20
86.16034249819733
 30
0.0
 11
565.1435649206197
 21
86.16034249819733
 31
0.0
  0
LINE
  5
B7A
330
2
100
AcDbEntity
  8
0
100
AcDbLine
 10
563.1030679206197
 20
82.68646549819743
 30
0.0
 11
563.5388739206197
 21
82.68646549819743
 31
0.0
  0
LINE
  5
B7B
330
2
100
AcDbEntity
  8
0
100
AcDbLine
 10
563.5388739206197
 20
82.68646549819743
 30
0.0
 11
563.5388739206197
 21
81.69037649819745
 31
0.0
  0
LINE
  5
B7C
330
2
100
AcDbEntity
  8
0
100
AcDbLine
 10
563.1030679206197
 20
86.16034249819733
 30
0.0
 11
563.1030679206197
 21
82.68646549819743
 31
0.0
  0
LINE
  5
B7D
330
2
100
AcDbEntity
  8
0
100
AcDbLine
 10
566.4400739206197
 20
82.68646549819743
 30
0.0
 11
566.6385749206197
 21
82.68646549819743
 31
0.0
  0
LINE
  5
B7E
330
2
100
AcDbEntity
  8
0
100
AcDbLine
 10
567.6409709206196
 20
82.68646549819743
 30
0.0
 11
567.9092659206197
 21
82.68646549819743
 31
0.0
  0
LINE
  5
B7F
330
2
100
AcDbEntity
  8
0
100
AcDbLine
 10
566.4400739206197
 20
81.69037649819745
 30
0.0
 11
567.9092659206197
 21
81.69037649819745
 31
0.0
  0
LINE
  5
B80
330
2
100
AcDbEntity
  8
0
100
AcDbLine
 10
567.9092659206197
 20
82.68646549819743
 30
0.0
 11
567.9092659206197
 21
81.69037649819745
 31
0.0
  0
LINE
  5
B81
330
2
100
AcDbEntity
  8
0
100
AcDbLine
 10
566.4400739206197
 20
82.68646549819743
 30
0.0
 11
566.4400739206197
 21
81.69037649819745
 31
0.0
  0
LINE
  5
B82
330
2
100
AcDbEntity
  8
0
100
AcDbLine
 10
566.0610609206197
 20
86.2469934981974
 30
0.0
 11
567.6409709206196
 21
82.68646549819743
 31
0.0
  0
LINE
  5
B83
330
2
100
AcDbEntity
  8
0
100
AcDbLine
 10
565.1435649206197
 20
86.16034249819733
 30
0.0
 11
566.6385749206197
 21
82.68646549819743
 31
0.0
  0
LINE
  5
B84
330
2
100
AcDbEntity
  8
0
100
AcDbLine
 10
562.0073649206196
 20
90.08246249819752
 30
0.0
 11
562.0073649206196
 21
82.68646549819743
 31
0.0
  0
LINE
  5
B85
330
2
100
AcDbEntity
  8
0
100
AcDbLine
 10
550.6592659206197
 20
120.1903764981974
 30
0.0
 11
545.6592659206197
 21
120.1903764981974
 31
0.0
  0
LINE
  5
B86
330
2
100
AcDbEntity
  8
0
100
AcDbLine
 10
550.6592659206197
 20
115.1903764981974
 30
0.0
 11
545.6592659206197
 21
115.1903764981974
 31
0.0
  0
LINE
  5
B87
330
2
100
AcDbEntity
  8
0
100
AcDbLine
 10
545.6592659206197
 20
120.1903764981974
 30
0.0
 11
545.6592659206197
 21
115.1903764981974
 31
0.0
  0
LINE
  5
B88
330
2
100
AcDbEntity
  8
0
100
AcDbLine
 10
550.6592659206197
 20
115.1903764981974
 30
0.0
 11
550.6592659206197
 21
120.1903764981974
 31
0.0
  0
ARC
  5
B89
330
2
100
AcDbEntity
  8
0
100
AcDbCircle
 10
541.7386729206197
 20
145.2903664981973
 30
0.0
 40
5.0
100
AcDbArc
 50
90.0
 51
125.0615689999987
  0
LINE
  5
B8A
330
2
100
AcDbEntity
  8
0
100
AcDbLine
 10
514.7869669206198
 20
132.4836344981973
 30
0.0
 11
538.8664649206197
 21
149.3830334981972
 31
0.0
  0
ARC
  5
B8B
330
2
100
AcDbEntity
  8
0
100
AcDbCircle
 10
517.6592659206197
 20
128.3909524981974
 30
0.0
 40
5.0
100
AcDbArc
 50
125.0616299999975
 51
180.0
  0
LINE
  5
B8C
330
2
100
AcDbEntity
  8
0
100
AcDbLine
 10
595.5315649206197
 20
132.4836344981973
 30
0.0
 11
571.4521739206197
 21
149.3830254981973
 31
0.0
  0
LINE
  5
B8D
330
2
100
AcDbEntity
  8
0
100
AcDbLine
 10
568.5797679206197
 20
150.2903744981973
 30
0.0
 11
541.7387639206197
 21
150.2903744981973
 31
0.0
  0
ARC
  5
B8E
330
2
100
AcDbEntity
  8
0
100
AcDbCircle
 10
568.5797679206197
 20
145.2903824981973
 30
0.0
 40
5.0
100
AcDbArc
 50
54.93780099999555
 51
90.0
  0
ARC
  5
B90
330
2
100
AcDbEntity
  8
0
100
AcDbCircle
 10
592.6592659206196
 20
128.3909904981975
 30
0.0
 40
5.0
100
AcDbArc
 50
0.0
 51
54.937698000003
  0
LINE
  5
B91
330
2
100
AcDbEntity
  8
0
100
AcDbLine
 10
670.1592809206196
 20
57.39039449819745
 30
0.0
 11
670.1592809206196
 21
133.3903724981975
 31
0.0
  0
LINE
  5
B92
330
2
100
AcDbEntity
  8
0
100
AcDbLine
 10
695.1592809206196
 20
125.9293134981973
 30
0.0
 11
695.1592809206196
 21
58.39036449819753
 31
0.0
  0
LINE
  5
B93
330
2
100
AcDbEntity
  8
0
100
AcDbLine
 10
726.6592599206196
 20
122.9093674981974
 30
0.0
 11
726.6592599206196
 21
67.82230049819748
 31
0.0
  0
LINE
  5
B94
330
2
100
AcDbEntity
  8
0
100
AcDbLine
 10
699.1592809206196
 20
109.1665834981973
 30
0.0
 11
726.6592809206197
 21
109.8866804981972
 31
0.0
  0
LINE
  5
B95
330
2
100
AcDbEntity
  8
0
100
AcDbLine
 10
699.1592809206196
 20
115.1141664981975
 30
0.0
 11
726.6592809206197
 21
114.3940654981973
 31
0.0
  0
LINE
  5
B96
330
2
100
AcDbEntity
  8
0
100
AcDbLine
 10
723.6602969206196
 20
65.38673149819726
 30
0.0
 11
695.1584049206196
 21
64.64038149819737
 31
0.0
  0
LINE
  5
B97
330
2
100
AcDbEntity
  8
0
100
AcDbLine
 10
699.1592809206196
 20
58.98218749819728
 30
0.0
 11
699.1592809206196
 21
64.74511849819748
 31
0.0
  0
LINE
  5
B98
330
2
100
AcDbEntity
  8
0
100
AcDbLine
 10
699.8593549206198
 20
59.14037449819727
 30
0.0
 11
699.8593549206198
 21
64.64037449819727
 31
0.0
  0
ARC
  5
B99
330
2
100
AcDbEntity
  8
0
100
AcDbCircle
 10
678.7592879206197
 20
61.39037449819728
 30
0.0
 40
8.999999
100
AcDbArc
 50
343.3989999999973
 51
16.60150000000051
  0
ARC
  5
B9A
330
2
100
AcDbEntity
  8
0
100
AcDbCircle
 10
700.5985509206198
 20
60.14037449819728
 30
0.0
 40
1.0
100
AcDbArc
 50
270.0
 51
343.0419009999978
  0
LINE
  5
B9B
330
2
100
AcDbEntity
  8
0
100
AcDbLine
 10
684.1592809206197
 20
64.89037449819727
 30
0.0
 11
684.1592809206197
 21
58.24396449819744
 31
0.0
  0
LINE
  5
B9C
330
2
100
AcDbEntity
  8
0
100
AcDbLine
 10
684.1592809206197
 20
65.00844349819738
 30
0.0
 11
684.1592809206197
 21
57.89037449819727
 31
0.0
  0
LINE
  5
B9D
330
2
100
AcDbEntity
  8
0
100
AcDbLine
 10
685.1592809206197
 20
64.89037449819727
 30
0.0
 11
685.1592809206197
 21
57.89037449819727
 31
0.0
  0
LINE
  5
B9E
330
2
100
AcDbEntity
  8
0
100
AcDbLine
 10
693.1595869206197
 20
57.79184649819729
 30
0.0
 11
670.1592809206196
 21
57.39037449819727
 31
0.0
  0
LINE
  5
B9F
330
2
100
AcDbEntity
  8
0
100
AcDbLine
 10
684.1592809206197
 20
57.89037449819727
 30
0.0
 11
686.1382849206197
 21
57.89037449819727
 31
0.0
  0
ARC
  5
BA0
330
2
100
AcDbEntity
  8
0
100
AcDbCircle
 10
683.6592809206197
 20
58.1260944981974
 30
0.0
 40
0.5
100
AcDbArc
 50
270.9999999999985
 51
0.0
  0
ARC
  5
BA1
330
2
100
AcDbEntity
  8
0
100
AcDbCircle
 10
686.1382849206197
 20
59.19036449819748
 30
0.0
 40
1.3
100
AcDbArc
 50
270.0
 51
343.3991089999959
  0
LINE
  5
BA2
330
2
100
AcDbEntity
  8
0
100
AcDbLine
 10
699.1592809206196
 20
59.14037449819727
 30
0.0
 11
700.5985509206198
 21
59.14037449819727
 31
0.0
  0
LINE
  5
BA3
330
2
100
AcDbEntity
  8
0
100
AcDbLine
 10
694.4176739206198
 20
58.12838049819731
 30
0.0
 11
693.1595869206197
 21
57.79184649819729
 31
0.0
  0
LINE
  5
BA4
330
2
100
AcDbEntity
  8
0
100
AcDbLine
 10
698.6723429206197
 20
58.48235849819741
 30
0.0
 11
695.1592809206196
 21
58.39036449819753
 31
0.0
  0
ARC
  5
BA5
330
2
100
AcDbEntity
  8
0
100
AcDbCircle
 10
698.6592809206197
 20
58.98218749819728
 30
0.0
 40
0.5
100
AcDbArc
 50
271.500008
 51
0.0
  0
ARC
  5
BA6
330
2
100
AcDbEntity
  8
0
100
AcDbCircle
 10
694.1592809206197
 20
59.09441649819758
 30
0.0
 40
1.0
100
AcDbArc
 50
284.975616
 51
0.0
  0
LINE
  5
BA7
330
2
100
AcDbEntity
  8
0
100
AcDbLine
 10
693.1595869206197
 20
65.89037449819727
 30
0.0
 11
685.1592809206197
 21
65.89037449819727
 31
0.0
  0
LINE
  5
BA8
330
2
100
AcDbEntity
  8
0
100
AcDbLine
 10
684.1592809206197
 20
64.89037449819727
 30
0.0
 11
686.1382849206197
 21
64.89037449819727
 31
0.0
  0
LINE
  5
BA9
330
2
100
AcDbEntity
  8
0
100
AcDbLine
 10
670.1592809206196
 20
65.1414044981974
 30
0.0
 11
684.1592809206197
 21
65.1414044981974
 31
0.0
  0
ARC
  5
BAA
330
2
100
AcDbEntity
  8
0
100
AcDbCircle
 10
685.1592809206197
 20
64.89037449819727
 30
0.0
 40
1.0
100
AcDbArc
 50
90.0
 51
180.0
  0
ARC
  5
BAB
330
2
100
AcDbEntity
  8
0
100
AcDbCircle
 10
694.8593549206198
 20
61.89037449819728
 30
0.0
 40
7.0
100
AcDbArc
 50
343.0420000000064
 51
16.95649900000008
  0
ARC
  5
BAC
330
2
100
AcDbEntity
  8
0
100
AcDbCircle
 10
686.1382849206197
 20
63.59035449819737
 30
0.0
 40
1.3
100
AcDbArc
 50
16.60160100000123
 51
90.0
  0
LINE
  5
BAD
330
2
100
AcDbEntity
  8
0
100
AcDbLine
 10
699.1592809206196
 20
64.64037449819727
 30
0.0
 11
700.5985509206198
 21
64.64037449819727
 31
0.0
  0
LINE
  5
BAE
330
2
100
AcDbEntity
  8
0
100
AcDbLine
 10
694.4176739206198
 20
66.22690949819741
 30
0.0
 11
693.1595869206197
 21
65.89037449819727
 31
0.0
  0
ARC
  5
BAF
330
2
100
AcDbEntity
  8
0
100
AcDbCircle
 10
694.1592809206197
 20
67.19294549819744
 30
0.0
 40
1.0
100
AcDbArc
 50
284.975616
 51
0.0
  0
ARC
  5
BB0
330
2
100
AcDbEntity
  8
0
100
AcDbCircle
 10
694.1592809206197
 20
67.19294549819744
 30
0.0
 40
1.0
100
AcDbArc
 50
284.975616
 51
0.0
  0
ARC
  5
BB1
330
2
100
AcDbEntity
  8
0
100
AcDbCircle
 10
700.5985509206198
 20
63.64037449819727
 30
0.0
 40
1.0
100
AcDbArc
 50
16.95689999999499
 51
90.0
  0
LINE
  5
BB2
330
2
100
AcDbEntity
  8
0
100
AcDbLine
 10
699.1592809206196
 20
114.8903724981975
 30
0.0
 11
700.5985509206198
 21
114.8903724981975
 31
0.0
  0
LINE
  5
BB3
330
2
100
AcDbEntity
  8
0
100
AcDbLine
 10
699.1592809206196
 20
109.3903724981975
 30
0.0
 11
700.5985509206198
 21
109.3903724981975
 31
0.0
  0
LINE
  5
BB4
330
2
100
AcDbEntity
  8
0
100
AcDbLine
 10
699.1592809206196
 20
116.7316514981974
 30
0.0
 11
695.1592809206196
 21
116.7316514981974
 31
0.0
  0
LINE
  5
BB5
330
2
100
AcDbEntity
  8
0
100
AcDbLine
 10
699.8593549206198
 20
109.3903724981975
 30
0.0
 11
699.8593549206198
 21
114.8903724981975
 31
0.0
  0
LINE
  5
BB6
330
2
100
AcDbEntity
  8
0
100
AcDbLine
 10
699.1592809206196
 20
103.3253554981973
 30
0.0
 11
695.1592809206196
 21
103.3253554981973
 31
0.0
  0
LINE
  5
BB7
330
2
100
AcDbEntity
  8
0
100
AcDbLine
 10
699.1592809206196
 20
116.7316514981974
 30
0.0
 11
699.1592809206196
 21
103.3253554981973
 31
0.0
  0
ARC
  5
BB8
330
2
100
AcDbEntity
  8
0
100
AcDbCircle
 10
700.5985509206198
 20
113.8903724981975
 30
0.0
 40
1.0
100
AcDbArc
 50
16.95689999999499
 51
90.0
  0
ARC
  5
BB9
330
2
100
AcDbEntity
  8
0
100
AcDbCircle
 10
700.5985509206198
 20
110.3903724981975
 30
0.0
 40
1.0
100
AcDbArc
 50
270.0
 51
343.0419009999978
  0
ARC
  5
BBA
330
2
100
AcDbEntity
  8
0
100
AcDbCircle
 10
694.8593549206198
 20
112.1403724981975
 30
0.0
 40
7.0
100
AcDbArc
 50
343.0420000000064
 51
16.95649900000008
  0
ARC
  5
BBB
330
2
100
AcDbEntity
  8
0
100
AcDbCircle
 10
724.6592599206196
 20
67.87139649819744
 30
0.0
 40
2.0
100
AcDbArc
 50
289.7802889999989
 51
0.0
  0
LINE
  5
BBC
330
2
100
AcDbEntity
  8
0
100
AcDbLine
 10
725.3360789206197
 20
65.98940349819724
 30
0.0
 11
723.6602969206196
 21
65.38673149819726
 31
0.0
  0
LINE
  5
BBD
330
2
100
AcDbEntity
  8
0
100
AcDbLine
 10
719.8079629206197
 20
142.8403774981974
 30
0.0
 11
704.6591589206197
 21
142.8403774981974
 31
0.0
  0
LINE
  5
BBE
330
2
100
AcDbEntity
  8
0
100
AcDbLine
 10
718.9561559206197
 20
150.5403744981973
 30
0.0
 11
704.6591589206197
 21
150.5403744981973
 31
0.0
  0
LINE
  5
BBF
330
2
100
AcDbEntity
  8
0
100
AcDbLine
 10
723.6602969206196
 20
125.3940324981973
 30
0.0
 11
695.1584049206196
 21
126.1403774981973
 31
0.0
  0
ARC
  5
BC0
330
2
100
AcDbEntity
  8
0
100
AcDbCircle
 10
695.6594029206197
 20
153.7621074981974
 30
0.0
 40
0.5
100
AcDbArc
 50
0.0
 51
88.16254400000113
  0
ARC
  5
BC1
330
2
100
AcDbEntity
  8
0
100
AcDbCircle
 10
679.6591589206197
 20
153.7621074981974
 30
0.0
 40
0.5
100
AcDbArc
 50
91.83745599999886
 51
180.0
  0
ARC
  5
BC2
330
2
100
AcDbEntity
  8
0
100
AcDbCircle
 10
687.6591589206197
 20
-95.60960450180244
 30
0.0
 40
250.0
100
AcDbArc
 50
86.66830399999998
 51
93.33169600000003
  0
LINE
  5
BC3
330
2
100
AcDbEntity
  8
CENTER
100
AcDbLine
 10
687.6592809206197
 20
157.4158934981975
 30
0.0
 11
687.6591589206197
 21
139.6170724981974
 31
0.0
  0
LINE
  5
BC4
330
2
100
AcDbEntity
  8
0
100
AcDbLine
 10
704.6591589206197
 20
146.8903724981975
 30
0.0
 11
670.6591589206198
 21
146.8903724981975
 31
0.0
  0
LINE
  5
BC5
330
2
100
AcDbEntity
  8
0
100
AcDbLine
 10
704.6591589206197
 20
145.8903724981975
 30
0.0
 11
670.6591589206198
 21
145.8903724981975
 31
0.0
  0
LINE
  5
BC6
330
2
100
AcDbEntity
  8
0
100
AcDbLine
 10
702.6591589206198
 20
133.8903724981975
 30
0.0
 11
685.1592809206197
 21
133.8903724981975
 31
0.0
  0
LINE
  5
BC7
330
2
100
AcDbEntity
  8
0
100
AcDbLine
 10
684.1592809206197
 20
132.8903724981975
 30
0.0
 11
686.1382849206197
 21
132.8903724981975
 31
0.0
  0
LINE
  5
BC8
330
2
100
AcDbEntity
  8
0
100
AcDbLine
 10
684.1592809206197
 20
125.8903724981975
 30
0.0
 11
686.1382849206197
 21
125.8903724981975
 31
0.0
  0
LINE
  5
BC9
330
2
100
AcDbEntity
  8
0
100
AcDbLine
 10
684.6592809206197
 20
124.8903724981974
 30
0.0
 11
693.1595869206197
 21
124.8903724981974
 31
0.0
  0
ARC
  5
BCA
330
2
100
AcDbEntity
  8
0
100
AcDbCircle
 10
673.1591589206198
 20
153.4686964981973
 30
0.0
 40
0.5
100
AcDbArc
 50
93.33169600000003
 51
180.0
  0
ARC
  5
BCB
330
2
100
AcDbEntity
  8
0
100
AcDbCircle
 10
675.6591589206197
 20
146.5903774981974
 30
0.0
 40
7.0
100
AcDbArc
 50
73.04200000000135
 51
106.9565119999986
  0
LINE
  5
BCC
330
2
100
AcDbEntity
  8
0
100
AcDbLine
 10
678.4091589206198
 20
150.8903724981975
 30
0.0
 11
678.4091589206198
 21
152.3295744981975
 31
0.0
  0
ARC
  5
BCD
330
2
100
AcDbEntity
  8
0
100
AcDbCircle
 10
678.6591589206198
 20
151.3903724981975
 30
0.0
 40
0.5
100
AcDbArc
 50
270.0
 51
0.0
  0
LINE
  5
BCE
330
2
100
AcDbEntity
  8
0
100
AcDbLine
 10
672.1591589206198
 20
152.3903724981975
 30
0.0
 11
671.6591589206197
 21
152.3903724981975
 31
0.0
  0
ARC
  5
BCF
330
2
100
AcDbEntity
  8
0
100
AcDbCircle
 10
673.1591589206198
 20
150.3903724981975
 30
0.0
 40
0.5
100
AcDbArc
 50
90.0
 51
180.0
  0
LINE
  5
BD0
330
2
100
AcDbEntity
  8
0
100
AcDbLine
 10
672.9091589206197
 20
150.8901744981973
 30
0.0
 11
672.9091589206197
 21
152.3295744981975
 31
0.0
  0
LINE
  5
BD1
330
2
100
AcDbEntity
  8
0
100
AcDbLine
 10
678.6591589206198
 20
150.8903724981975
 30
0.0
 11
673.1591589206198
 21
150.8903724981975
 31
0.0
  0
LINE
  5
BD2
330
2
100
AcDbEntity
  8
0
100
AcDbLine
 10
678.4091589206198
 20
151.5903774981974
 30
0.0
 11
672.9091589206197
 21
151.5903774981974
 31
0.0
  0
ARC
  5
BD3
330
2
100
AcDbEntity
  8
0
100
AcDbCircle
 10
677.4091589206197
 20
152.3295744981975
 30
0.0
 40
1.0
100
AcDbArc
 50
0.0
 51
73.04180100000059
  0
LINE
  5
BD4
330
2
100
AcDbEntity
  8
0
100
AcDbLine
 10
679.1591589206197
 20
151.3903724981975
 30
0.0
 11
679.1591589206197
 21
153.7621074981974
 31
0.0
  0
ARC
  5
BD5
330
2
100
AcDbEntity
  8
0
100
AcDbCircle
 10
672.1591589206198
 20
152.8903724981975
 30
0.0
 40
0.5
100
AcDbArc
 50
270.0
 51
0.0
  0
ARC
  5
BD6
330
2
100
AcDbEntity
  8
0
100
AcDbCircle
 10
673.9091589206197
 20
152.3295744981975
 30
0.0
 40
1.0
100
AcDbArc
 50
106.9569019999985
 51
180.0
  0
ARC
  5
BD7
330
2
100
AcDbEntity
  8
0
100
AcDbCircle
 10
671.6591589206197
 20
151.3903724981975
 30
0.0
 40
1.0
100
AcDbArc
 50
90.0
 51
180.0
  0
LINE
  5
BD8
330
2
100
AcDbEntity
  8
0
100
AcDbLine
 10
670.1592809206196
 20
125.6393434981974
 30
0.0
 11
684.1592809206197
 21
125.6393434981974
 31
0.0
  0
LINE
  5
BD9
330
2
100
AcDbEntity
  8
0
100
AcDbLine
 10
671.1591589206197
 20
146.8903724981975
 30
0.0
 11
671.1591589206197
 21
145.8903724981975
 31
0.0
  0
LINE
  5
BDA
330
2
100
AcDbEntity
  8
0
100
AcDbLine
 10
672.1591589206198
 20
140.3903724981975
 30
0.0
 11
671.6591589206197
 21
140.3903724981975
 31
0.0
  0
ARC
  5
BDB
330
2
100
AcDbEntity
  8
0
100
AcDbCircle
 10
672.1591589206198
 20
139.8903724981975
 30
0.0
 40
0.5
100
AcDbArc
 50
0.0
 51
90.0
  0
ARC
  5
BDC
330
2
100
AcDbEntity
  8
0
100
AcDbCircle
 10
671.6591589206197
 20
141.3903724981975
 30
0.0
 40
1.0
100
AcDbArc
 50
180.0
 51
270.0
  0
LINE
  5
BDD
330
2
100
AcDbEntity
  8
0
100
AcDbLine
 10
670.6591589206198
 20
145.8903724981975
 30
0.0
 11
670.6591589206198
 21
141.3903724981975
 31
0.0
  0
LINE
  5
BDE
330
2
100
AcDbEntity
  8
0
100
AcDbLine
 10
671.6854659206196
 20
133.4303514981974
 30
0.0
 11
670.1592809206196
 21
133.3903724981975
 31
0.0
  0
ARC
  5
BDF
330
2
100
AcDbEntity
  8
0
100
AcDbCircle
 10
671.6592809206197
 20
134.4299844981975
 30
0.0
 40
1.0
100
AcDbArc
 50
271.5000989999984
 51
0.0
  0
LINE
  5
BE0
330
2
100
AcDbEntity
  8
0
100
AcDbLine
 10
672.6591589206198
 20
134.4299844981975
 30
0.0
 11
672.6591589206198
 21
145.8903724981975
 31
0.0
  0
ARC
  5
BE1
330
2
100
AcDbEntity
  8
0
100
AcDbCircle
 10
685.1592809206197
 20
132.8903724981975
 30
0.0
 40
1.0
100
AcDbArc
 50
90.0
 51
180.0
  0
LINE
  5
BE2
330
2
100
AcDbEntity
  8
0
100
AcDbLine
 10
684.1592809206197
 20
125.3903724981975
 30
0.0
 11
684.1592809206197
 21
132.8903724981975
 31
0.0
  0
LINE
  5
BE3
330
2
100
AcDbEntity
  8
0
100
AcDbLine
 10
685.1592809206197
 20
125.8903724981975
 30
0.0
 11
685.1592809206197
 21
132.8903724981975
 31
0.0
  0
ARC
  5
BE4
330
2
100
AcDbEntity
  8
0
100
AcDbCircle
 10
684.6592809206197
 20
125.3903724981975
 30
0.0
 40
0.5
100
AcDbArc
 50
180.0
 51
270.0
  0
LINE
  5
BE5
330
2
100
AcDbEntity
  8
0
100
AcDbLine
 10
670.6591589206198
 20
151.3903724981975
 30
0.0
 11
670.6591589206198
 21
146.8903724981975
 31
0.0
  0
LINE
  5
BE6
330
2
100
AcDbEntity
  8
0
100
AcDbLine
 10
672.6591589206198
 20
146.8903724981975
 30
0.0
 11
672.6591589206198
 21
153.4686964981973
 31
0.0
  0
ARC
  5
BE7
330
2
100
AcDbEntity
  8
0
100
AcDbCircle
 10
702.1591589206198
 20
153.4686964981973
 30
0.0
 40
0.5
100
AcDbArc
 50
0.0
 51
86.66830399999998
  0
ARC
  5
BE8
330
2
100
AcDbEntity
  8
0
100
AcDbCircle
 10
702.1594029206197
 20
150.3903724981975
 30
0.0
 40
0.5
100
AcDbArc
 50
0.0
 51
90.0
  0
ARC
  5
BE9
330
2
100
AcDbEntity
  8
0
100
AcDbCircle
 10
701.4091589206198
 20
152.3295744981975
 30
0.0
 40
1.0
100
AcDbArc
 50
0.0
 51
73.04180100000059
  0
ARC
  5
BEA
330
2
100
AcDbEntity
  8
0
100
AcDbCircle
 10
699.6591589206198
 20
146.5903774981974
 30
0.0
 40
7.0
100
AcDbArc
 50
73.04200000000135
 51
106.9565119999986
  0
LINE
  5
BEB
330
2
100
AcDbEntity
  8
0
100
AcDbLine
 10
696.6594029206198
 20
150.8903724981975
 30
0.0
 11
702.1594029206197
 21
150.8903724981975
 31
0.0
  0
LINE
  5
BEC
330
2
100
AcDbEntity
  8
0
100
AcDbLine
 10
702.4091589206197
 20
151.5903774981974
 30
0.0
 11
696.9091589206198
 21
151.5903774981974
 31
0.0
  0
ARC
  5
BED
330
2
100
AcDbEntity
  8
0
100
AcDbCircle
 10
696.6594029206198
 20
151.3903724981975
 30
0.0
 40
0.5
100
AcDbArc
 50
180.0
 51
270.0
  0
LINE
  5
BEE
330
2
100
AcDbEntity
  8
0
100
AcDbLine
 10
696.9091589206198
 20
150.8901744981973
 30
0.0
 11
696.9091589206198
 21
152.3295744981975
 31
0.0
  0
ARC
  5
BEF
330
2
100
AcDbEntity
  8
0
100
AcDbCircle
 10
697.9091589206197
 20
152.3295744981975
 30
0.0
 40
1.0
100
AcDbArc
 50
106.9569019999985
 51
180.0
  0
LINE
  5
BF0
330
2
100
AcDbEntity
  8
0
100
AcDbLine
 10
696.1594029206197
 20
151.3903724981975
 30
0.0
 11
696.1594029206197
 21
153.7621074981974
 31
0.0
  0
LINE
  5
BF1
330
2
100
AcDbEntity
  8
0
100
AcDbLine
 10
702.4091589206197
 20
150.8903724981975
 30
0.0
 11
702.4091589206197
 21
152.3295744981975
 31
0.0
  0
LINE
  5
BF2
330
2
100
AcDbEntity
  8
0
100
AcDbLine
 10
703.1591589206198
 20
152.3903724981975
 30
0.0
 11
703.6591589206198
 21
152.3903724981975
 31
0.0
  0
ARC
  5
BF3
330
2
100
AcDbEntity
  8
0
100
AcDbCircle
 10
703.1591589206198
 20
152.8903724981975
 30
0.0
 40
0.5
100
AcDbArc
 50
180.0
 51
270.0
  0
ARC
  5
BF4
330
2
100
AcDbEntity
  8
0
100
AcDbCircle
 10
703.6591589206198
 20
151.3903724981975
 30
0.0
 40
1.0
100
AcDbArc
 50
0.0
 51
90.0
  0
ARC
  5
BF5
330
2
100
AcDbEntity
  8
0
100
AcDbCircle
 10
694.1592809206197
 20
123.5878064981974
 30
0.0
 40
1.0
100
AcDbArc
 50
0.0
 51
75.02438399999995
  0
ARC
  5
BF6
330
2
100
AcDbEntity
  8
0
100
AcDbCircle
 10
678.7592879206197
 20
129.3903724981975
 30
0.0
 40
8.999999
100
AcDbArc
 50
343.3984999999994
 51
16.60100000000259
  0
ARC
  5
BF7
330
2
100
AcDbEntity
  8
0
100
AcDbCircle
 10
686.1382849206197
 20
131.5903854981974
 30
0.0
 40
1.3
100
AcDbArc
 50
16.60090099999592
 51
90.0
  0
ARC
  5
BF8
330
2
100
AcDbEntity
  8
0
100
AcDbCircle
 10
686.1382849206197
 20
127.1903914981973
 30
0.0
 40
1.3
100
AcDbArc
 50
270.0
 51
343.3983989999987
  0
ARC
  5
BF9
330
2
100
AcDbEntity
  8
0
100
AcDbCircle
 10
700.6591589206197
 20
129.0481714981973
 30
0.0
 40
2.0
100
AcDbArc
 50
271.4999999999994
 51
0.0
  0
LINE
  5
BFA
330
2
100
AcDbEntity
  8
0
100
AcDbLine
 10
696.1330969206196
 20
126.9289704981973
 30
0.0
 11
700.7114969206197
 21
127.0488584981973
 31
0.0
  0
ARC
  5
BFB
330
2
100
AcDbEntity
  8
0
100
AcDbCircle
 10
696.1592809206197
 20
125.9293134981973
 30
0.0
 40
1.0
100
AcDbArc
 50
91.49999999999947
 51
180.0
  0
LINE
  5
BFC
330
2
100
AcDbEntity
  8
0
100
AcDbLine
 10
702.1591589206198
 20
146.8903724981975
 30
0.0
 11
702.1591589206198
 21
145.8903724981975
 31
0.0
  0
LINE
  5
BFD
330
2
100
AcDbEntity
  8
0
100
AcDbLine
 10
703.1591589206198
 20
140.3903724981975
 30
0.0
 11
703.6591589206198
 21
140.3903724981975
 31
0.0
  0
ARC
  5
BFE
330
2
100
AcDbEntity
  8
0
100
AcDbCircle
 10
703.1591589206198
 20
139.8903724981975
 30
0.0
 40
0.5
100
AcDbArc
 50
90.0
 51
180.0
  0
ARC
  5
BFF
330
2
100
AcDbEntity
  8
0
100
AcDbCircle
 10
703.6591589206198
 20
141.3903724981975
 30
0.0
 40
1.0
100
AcDbArc
 50
270.0
 51
0.0
  0
LINE
  5
C00
330
2
100
AcDbEntity
  8
0
100
AcDbLine
 10
704.6591589206197
 20
145.8903724981975
 30
0.0
 11
704.6591589206197
 21
141.3903724981975
 31
0.0
  0
LINE
  5
C01
330
2
100
AcDbEntity
  8
0
100
AcDbLine
 10
702.6591589206198
 20
129.0481714981973
 30
0.0
 11
702.6591589206198
 21
145.8903724981975
 31
0.0
  0
LINE
  5
C02
330
2
100
AcDbEntity
  8
0
100
AcDbLine
 10
694.4176739206198
 20
124.5538404981974
 30
0.0
 11
693.1595869206197
 21
124.8903724981974
 31
0.0
  0
LINE
  5
C03
330
2
100
AcDbEntity
  8
0
100
AcDbLine
 10
704.6591589206197
 20
151.3903724981975
 30
0.0
 11
704.6591589206197
 21
146.8903724981975
 31
0.0
  0
LINE
  5
C04
330
2
100
AcDbEntity
  8
0
100
AcDbLine
 10
702.6591589206198
 20
146.8903724981975
 30
0.0
 11
702.6591589206198
 21
153.4686964981973
 31
0.0
  0
ARC
  5
C05
330
2
100
AcDbEntity
  8
0
100
AcDbCircle
 10
724.6592599206196
 20
122.9093674981974
 30
0.0
 40
2.0
100
AcDbArc
 50
0.0
 51
70.21971100000107
  0
LINE
  5
C06
330
2
100
AcDbEntity
  8
HOJO
100
AcDbLine
 10
718.8798619206197
 20
145.2302774981973
 30
0.0
 11
719.8079629206197
 21
142.8403774981974
 31
0.0
  0
LINE
  5
C07
330
2
100
AcDbEntity
  8
HOJO
100
AcDbLine
 10
719.6919349206198
 20
147.7052764981973
 30
0.0
 11
718.8798619206197
 21
145.2302774981973
 31
0.0
  0
LINE
  5
C08
330
2
100
AcDbEntity
  8
0
100
AcDbLine
 10
725.3360789206197
 20
124.7913564981973
 30
0.0
 11
723.6602969206196
 21
125.3940324981973
 31
0.0
  0
LINE
  5
C09
330
2
100
AcDbEntity
  8
HOJO
100
AcDbLine
 10
718.9561559206197
 20
150.5403744981973
 30
0.0
 11
719.6919349206198
 21
147.7052764981973
 31
0.0
  0
TEXT
  5
C0A
330
2
100
AcDbEntity
  8
TITLE
100
AcDbText
 10
350.4890426838566
 20
261.2823826109221
 30
0.0
 40
5.0
  1
HLV-15L-10~240-S25
100
AcDbText
  0
TEXT
  5
C0B
330
2
100
AcDbEntity
  8
TITLE
100
AcDbText
 10
350.4890426838566
 20
269.2823826109221
 30
0.0
 40
5.0
  1
HLV-15L-10~240-S15
100
AcDbText
  0
TEXT
  5
C0C
330
2
100
AcDbEntity
  8
TITLE
100
AcDbText
 10
350.4890426838566
 20
277.2823826109221
 30
0.0
 40
5.0
  1
HLV-15L-10~120-T40
100
AcDbText
  0
TEXT
  5
C0D
330
2
100
AcDbEntity
  8
TITLE
100
AcDbText
 10
350.4890426838566
 20
285.2823826109221
 30
0.0
 40
5.0
  1
HLV-15L-10~240-T25
100
AcDbText
  0
TEXT
  5
C0E
330
2
100
AcDbEntity
  8
TITLE
100
AcDbText
 10
350.4890426838566
 20
293.2823826109221
 30
0.0
 40
5.0
  1
HLV-15L-10~240-T15
100
AcDbText
  0
ARC
  5
1334
330
2
100
AcDbEntity
  8
0
100
AcDbCircle
 10
422.2177669937965
 20
139.6903764981974
 30
0.0
 40
2.0
100
AcDbArc
 50
180.0
 51
270.0
  0
ARC
  5
1335
330
2
100
AcDbEntity
  8
0
100
AcDbCircle
 10
422.2177669937965
 20
95.69037649819746
 30
0.0
 40
2.0
100
AcDbArc
 50
90.00000000000003
 51
180.0
  0
ARC
  5
1336
330
2
100
AcDbEntity
  8
0
100
AcDbCircle
 10
356.2177589937963
 20
95.69037649819746
 30
0.0
 40
2.0
100
AcDbArc
 50
0.000000000000007
 51
89.99999999999998
  0
ARC
  5
1337
330
2
100
AcDbEntity
  8
0
100
AcDbCircle
 10
356.2177589937963
 20
139.6903764981974
 30
0.0
 40
2.0
100
AcDbArc
 50
270.0
 51
0.000000000000007
  0
LINE
  5
1338
330
2
100
AcDbEntity
  8
0
100
AcDbLine
 10
273.0156451734905
 20
248.6611281338243
 30
0.0
 11
235.0156411734906
 21
248.6611281338243
 31
0.0
  0
LINE
  5
1339
330
2
100
AcDbEntity
  8
0
100
AcDbLine
 10
274.0156451734906
 20
249.6611281338243
 30
0.0
 11
274.0156451734906
 21
250.665124131819
 31
0.0
  0
ARC
  5
133A
330
2
100
AcDbEntity
  8
0
100
AcDbCircle
 10
276.0156411734906
 20
250.661124133824
 30
0.0
 40
2.0
100
AcDbArc
 50
90.00000000000003
 51
180.0
  0
ARC
  5
133B
330
2
100
AcDbEntity
  8
0
100
AcDbCircle
 10
273.0156451734905
 20
249.6611281338243
 30
0.0
 40
1.0
100
AcDbArc
 50
270.0
 51
0.0
  0
LINE
  5
133C
330
2
100
AcDbEntity
  8
0
100
AcDbLine
 10
234.0156411734906
 20
249.6611281338243
 30
0.0
 11
234.0156411734906
 21
250.661124133824
 31
0.0
  0
ARC
  5
133D
330
2
100
AcDbEntity
  8
0
100
AcDbCircle
 10
232.0156411734906
 20
250.661124133824
 30
0.0
 40
2.0
100
AcDbArc
 50
0.0
 51
90.00000000000003
  0
ARC
  5
133E
330
2
100
AcDbEntity
  8
0
100
AcDbCircle
 10
235.0156411734906
 20
249.6611281338243
 30
0.0
 40
1.0
100
AcDbArc
 50
180.0
 51
270.0
  0
ARC
  5
133F
330
2
100
AcDbEntity
  8
0
100
AcDbCircle
 10
232.0156411734906
 20
316.6611321338244
 30
0.0
 40
2.0
100
AcDbArc
 50
270.0
 51
0.0
  0
ARC
  5
1340
330
2
100
AcDbEntity
  8
0
100
AcDbCircle
 10
276.0156411734906
 20
316.6611321338244
 30
0.0
 40
2.0
100
AcDbArc
 50
180.0
 51
270.0
  0
ENDSEC
  0
SECTION
  2
OBJECTS
  0
DICTIONARY
  5
7
330
0
100
AcDbDictionary
  3
ACAD_GROUP
350
75
  3
ACAD_LAYOUT
350
61
  3
ACAD_MLINESTYLE
350
76
  3
ACAD_PLOTSETTINGS
350
77
  3
ACAD_PLOTSTYLENAME
350
6
  3
ACADDIM
350
480
  3
ACDBHEADERROUNDTRIPXREC
350
1383
  3
ACDBVARIABLEDICTIONARY
350
102
  3
DWGPROPS
350
132A
  0
DICTIONARY
  5
13A4
330
2
100
AcDbDictionary
280
     1
  3
ACAD_LAYOUTSELFREF
360
13A5
  0
DICTIONARY
  5
13A6
330
137D
100
AcDbDictionary
280
     1
  3
ACAD_LAYOUTSELFREF
360
13A7
  0
DICTIONARY
  5
75
102
{ACAD_REACTORS
330
7
102
}
330
7
100
AcDbDictionary
  0
DICTIONARY
  5
61
102
{ACAD_REACTORS
330
7
102
}
330
7
100
AcDbDictionary
  0
DICTIONARY
  5
76
102
{ACAD_REACTORS
330
7
102
}
330
7
100
AcDbDictionary
  3
STANDARD
350
78
  0
DICTIONARY
  5
77
102
{ACAD_REACTORS
330
7
102
}
330
7
100
AcDbDictionary
  0
ACDBDICTIONARYWDFLT
  5
6
102
{ACAD_REACTORS
330
7
102
}
330
7
100
AcDbDictionary
281
     1
  3
Normal
350
5
100
AcDbDictionaryWithDefault
340
5
  0
XRECORD
  5
480
102
{ACAD_REACTORS
330
7
102
}
330
7
100
AcDbXrecord
 90
   990106
  3

 60
     0
 61
     0
 62
     1
 63
     3
 64
     1
 65
     0
 66
     0
 67
     3
 68
     1
 69
     0
 70
     0
 71
     0
 72
     0
 40
0.0
170
     2
340
0
  0
DICTIONARY
  5
1383
102
{ACAD_REACTORS
330
7
102
}
330
7
100
AcDbDictionary
  3
CEPSNTYPE
350
138D
  3
DIMSTYLEDATA
350
1391
  3
FINGERPRINTGUID
350
138E
  3
HYPERLINKBASE
350
1386
  3
INSUNITS
350
138C
  3
LAYOUTDICT
350
1388
  3
LWETCUNION
350
138B
  3
PLOTSETDICT
350
1389
  3
PLOTSTYLNAMDICT
350
138A
  3
PSVPSCALE
350
1390
  3
PUCSBASE
350
1394
  3
PUCSORGBACK
350
139A
  3
PUCSORGBOTTOM
350
1396
  3
PUCSORGFRONT
350
1399
  3
PUCSORGLEFT
350
1397
  3
PUCSORGRIGHT
350
1398
  3
PUCSORGTOP
350
1395
  3
PUCSORTHOREF
350
1392
  3
PUCSORTHOVIEW
350
1393
  3
STYLESHEET
350
1387
  3
TSTACKALIGN
350
1384
  3
TSTACKSIZE
350
1385
  3
UCSBASE
350
139D
  3
UCSORGBACK
350
13A3
  3
UCSORGBOTTOM
350
139F
  3
UCSORGFRONT
350
13A2
  3
UCSORGLEFT
350
13A0
  3
UCSORGRIGHT
350
13A1
  3
UCSORGTOP
350
139E
  3
UCSORTHOREF
350
139B
  3
UCSORTHOVIEW
350
139C
  3
VERSIONGUID
350
138F
  0
DICTIONARY
  5
102
102
{ACAD_REACTORS
330
7
102
}
330
7
100
AcDbDictionary
  3
DIMASSOC
350
103
  0
XRECORD
  5
132A
102
{ACAD_REACTORS
330
7
102
}
330
7
100
AcDbXrecord
  1
DWGPROPS COOKIE
  2

  3

  4

  6

  7

  8

  9

300
=
301
=
302
=
303
=
304
=
305
=
306
=
307
=
308
=
309
=
 40
0.0697215046296296
 41
2453759.640063113
 42
2454397.697841967
  1

 90
        0
  0
XRECORD
  5
13A5
102
{ACAD_REACTORS
330
13A4
102
}
330
13A4
100
AcDbXrecord
340
2
  0
XRECORD
  5
13A7
102
{ACAD_REACTORS
330
13A6
102
}
330
13A6
100
AcDbXrecord
340
137D
  0
MLINESTYLE
  5
78
102
{ACAD_REACTORS
330
76
102
}
330
76
100
AcDbMlineStyle
  2
STANDARD
 70
     0
  3

 62
     0
 51
90.0
 52
90.0
 71
     2
 49
0.5
 62
   256
  6
BYLAYER
 49
-0.5
 62
   256
  6
BYLAYER
  0
ACDBPLACEHOLDER
  5
5
102
{ACAD_REACTORS
330
6
102
}
330
6
100
AcDbPlaceHolder
280
     0
  0
XRECORD
  5
138D
102
{ACAD_REACTORS
330
1383
102
}
330
1383
100
AcDbXrecord
 90
        0
  0
XRECORD
  5
1391
102
{ACAD_REACTORS
330
1383
102
}
330
1383
100
AcDbXrecord
1000
DSTYLE
1002
{
1070
   179
 70
     2
1070
   277
 70
     6
1002
}
  0
XRECORD
  5
138E
102
{ACAD_REACTORS
330
1383
102
}
330
1383
100
AcDbXrecord
  1
{6385560B-F4B1-4644-A7C2-A3E32AC3D232}
  0
XRECORD
  5
1386
102
{ACAD_REACTORS
330
1383
102
}
330
1383
100
AcDbXrecord
  1

  0
XRECORD
  5
138C
102
{ACAD_REACTORS
330
1383
102
}
330
1383
100
AcDbXrecord
 90
        0
  0
XRECORD
  5
1388
102
{ACAD_REACTORS
330
1383
102
}
330
1383
100
AcDbXrecord
340
61
  0
XRECORD
  5
138B
102
{ACAD_REACTORS
330
1383
102
}
330
1383
100
AcDbXrecord
 90
    10781
  0
XRECORD
  5
1389
102
{ACAD_REACTORS
330
1383
102
}
330
1383
100
AcDbXrecord
340
77
  0
XRECORD
  5
138A
102
{ACAD_REACTORS
330
1383
102
}
330
1383
100
AcDbXrecord
340
6
  0
XRECORD
  5
1390
102
{ACAD_REACTORS
330
1383
102
}
330
1383
100
AcDbXrecord
 40
0.0
  0
XRECORD
  5
1394
102
{ACAD_REACTORS
330
1383
102
}
330
1383
100
AcDbXrecord
340
0
  0
XRECORD
  5
139A
102
{ACAD_REACTORS
330
1383
102
}
330
1383
100
AcDbXrecord
 10
0.0
 20
0.0
 30
0.0
  0
XRECORD
  5
1396
102
{ACAD_REACTORS
330
1383
102
}
330
1383
100
AcDbXrecord
 10
0.0
 20
0.0
 30
0.0
  0
XRECORD
  5
1399
102
{ACAD_REACTORS
330
1383
102
}
330
1383
100
AcDbXrecord
 10
0.0
 20
0.0
 30
0.0
  0
XRECORD
  5
1397
102
{ACAD_REACTORS
330
1383
102
}
330
1383
100
AcDbXrecord
 10
0.0
 20
0.0
 30
0.0
  0
XRECORD
  5
1398
102
{ACAD_REACTORS
330
1383
102
}
330
1383
100
AcDbXrecord
 10
0.0
 20
0.0
 30
0.0
  0
XRECORD
  5
1395
102
{ACAD_REACTORS
330
1383
102
}
330
1383
100
AcDbXrecord
 10
0.0
 20
0.0
 30
0.0
  0
XRECORD
  5
1392
102
{ACAD_REACTORS
330
1383
102
}
330
1383
100
AcDbXrecord
340
0
  0
XRECORD
  5
1393
102
{ACAD_REACTORS
330
1383
102
}
330
1383
100
AcDbXrecord
 70
     0
  0
XRECORD
  5
1387
102
{ACAD_REACTORS
330
1383
102
}
330
1383
100
AcDbXrecord
  1
Sekkei.ctb
  0
XRECORD
  5
1384
102
{ACAD_REACTORS
330
1383
102
}
330
1383
100
AcDbXrecord
 90
        1
  0
XRECORD
  5
1385
102
{ACAD_REACTORS
330
1383
102
}
330
1383
100
AcDbXrecord
 90
       70
  0
XRECORD
  5
139D
102
{ACAD_REACTORS
330
1383
102
}
330
1383
100
AcDbXrecord
340
0
  0
XRECORD
  5
13A3
102
{ACAD_REACTORS
330
1383
102
}
330
1383
100
AcDbXrecord
 10
0.0
 20
0.0
 30
0.0
  0
XRECORD
  5
139F
102
{ACAD_REACTORS
330
1383
102
}
330
1383
100
AcDbXrecord
 10
0.0
 20
0.0
 30
0.0
  0
XRECORD
  5
13A2
102
{ACAD_REACTORS
330
1383
102
}
330
1383
100
AcDbXrecord
 10
0.0
 20
0.0
 30
0.0
  0
XRECORD
  5
13A0
102
{ACAD_REACTORS
330
1383
102
}
330
1383
100
AcDbXrecord
 10
0.0
 20
0.0
 30
0.0
  0
XRECORD
  5
13A1
102
{ACAD_REACTORS
330
1383
102
}
330
1383
100
AcDbXrecord
 10
0.0
 20
0.0
 30
0.0
  0
XRECORD
  5
139E
102
{ACAD_REACTORS
330
1383
102
}
330
1383
100
AcDbXrecord
 10
0.0
 20
0.0
 30
0.0
  0
XRECORD
  5
139B
102
{ACAD_REACTORS
330
1383
102
}
330
1383
100
AcDbXrecord
340
0
  0
XRECORD
  5
139C
102
{ACAD_REACTORS
330
1383
102
}
330
1383
100
AcDbXrecord
 70
     0
  0
XRECORD
  5
138F
102
{ACAD_REACTORS
330
1383
102
}
330
1383
100
AcDbXrecord
  1
{D65D353D-E467-4D08-80A5-76C9AC58B694}
  0
DICTIONARYVAR
  5
103
102
{ACAD_REACTORS
330
102
102
}
330
102
100
DictionaryVariables
280
     0
  1
1
  0
ENDSEC
  0
EOF
